  0
SECTION
  2
HEADER
  9
$ACADVER
  1
AC1027
  9
$ACADMAINTVER
 70
   105
  9
$DWGCODEPAGE
  3
ANSI_1252
  9
$LASTSAVEDBY
  1
Office Desk
  9
$REQUIREDVERSIONS
160
                 0
  9
$INSBASE
 10
0.0
 20
0.0
 30
0.0
  9
$EXTMIN
 10
158.6284
 20
-440.1111
 30
0.0
  9
$EXTMAX
 10
761.2857
 20
454.2461
 30
0.0
  9
$LIMMIN
 10
0.0
 20
0.0
  9
$LIMMAX
 10
12.0
 20
9.0
  9
$ORTHOMODE
 70
     0
  9
$REGENMODE
 70
     1
  9
$FILLMODE
 70
     1
  9
$QTEXTMODE
 70
     0
  9
$MIRRTEXT
 70
     1
  9
$LTSCALE
 40
1.0
  9
$ATTMODE
 70
     1
  9
$TEXTSIZE
 40
0.2
  9
$TRACEWID
 40
0.05
  9
$TEXTSTYLE
  7
Standard
  9
$CLAYER
  8
0
  9
$CELTYPE
  6
ByLayer
  9
$CECOLOR
 62
   256
  9
$CELTSCALE
 40
1.0
  9
$DISPSILH
 70
     0
  9
$DIMSCALE
 40
1.0
  9
$DIMASZ
 40
0.18
  9
$DIMEXO
 40
0.0625
  9
$DIMDLI
 40
0.38
  9
$DIMRND
 40
0.0
  9
$DIMDLE
 40
0.0
  9
$DIMEXE
 40
0.18
  9
$DIMTP
 40
0.0
  9
$DIMTM
 40
0.0
  9
$DIMTXT
 40
0.18
  9
$DIMCEN
 40
0.09
  9
$DIMTSZ
 40
0.0
  9
$DIMTOL
 70
     0
  9
$DIMLIM
 70
     0
  9
$DIMTIH
 70
     1
  9
$DIMTOH
 70
     1
  9
$DIMSE1
 70
     0
  9
$DIMSE2
 70
     0
  9
$DIMTAD
 70
     0
  9
$DIMZIN
 70
     0
  9
$DIMBLK
  1

  9
$DIMASO
 70
     1
  9
$DIMSHO
 70
     1
  9
$DIMPOST
  1

  9
$DIMAPOST
  1

  9
$DIMALT
 70
     0
  9
$DIMALTD
 70
     2
  9
$DIMALTF
 40
25.4
  9
$DIMLFAC
 40
1.0
  9
$DIMTOFL
 70
     0
  9
$DIMTVP
 40
0.0
  9
$DIMTIX
 70
     0
  9
$DIMSOXD
 70
     0
  9
$DIMSAH
 70
     0
  9
$DIMBLK1
  1

  9
$DIMBLK2
  1

  9
$DIMSTYLE
  2
Standard
  9
$DIMCLRD
 70
     0
  9
$DIMCLRE
 70
     0
  9
$DIMCLRT
 70
     0
  9
$DIMTFAC
 40
1.0
  9
$DIMGAP
 40
0.09
  9
$DIMJUST
 70
     0
  9
$DIMSD1
 70
     0
  9
$DIMSD2
 70
     0
  9
$DIMTOLJ
 70
     1
  9
$DIMTZIN
 70
     0
  9
$DIMALTZ
 70
     0
  9
$DIMALTTZ
 70
     0
  9
$DIMUPT
 70
     0
  9
$DIMDEC
 70
     4
  9
$DIMTDEC
 70
     4
  9
$DIMALTU
 70
     2
  9
$DIMALTTD
 70
     2
  9
$DIMTXSTY
  7
Standard
  9
$DIMAUNIT
 70
     0
  9
$DIMADEC
 70
     0
  9
$DIMALTRND
 40
0.0
  9
$DIMAZIN
 70
     0
  9
$DIMDSEP
 70
    46
  9
$DIMATFIT
 70
     3
  9
$DIMFRAC
 70
     0
  9
$DIMLDRBLK
  1

  9
$DIMLUNIT
 70
     2
  9
$DIMLWD
 70
    -2
  9
$DIMLWE
 70
    -2
  9
$DIMTMOVE
 70
     0
  9
$DIMFXL
 40
1.0
  9
$DIMFXLON
 70
     0
  9
$DIMJOGANG
 40
0.7853981633974483
  9
$DIMTFILL
 70
     0
  9
$DIMTFILLCLR
 70
     0
  9
$DIMARCSYM
 70
     0
  9
$DIMLTYPE
  6

  9
$DIMLTEX1
  6

  9
$DIMLTEX2
  6

  9
$DIMTXTDIRECTION
 70
     0
  9
$LUNITS
 70
     2
  9
$LUPREC
 70
     4
  9
$SKETCHINC
 40
0.1
  9
$FILLETRAD
 40
0.0
  9
$AUNITS
 70
     0
  9
$AUPREC
 70
     0
  9
$MENU
  1
.
  9
$ELEVATION
 40
0.0
  9
$PELEVATION
 40
0.0
  9
$THICKNESS
 40
0.0
  9
$LIMCHECK
 70
     0
  9
$CHAMFERA
 40
0.0
  9
$CHAMFERB
 40
0.0
  9
$CHAMFERC
 40
0.0
  9
$CHAMFERD
 40
0.0
  9
$SKPOLY
 70
     0
  9
$TDCREATE
 40
2461006.704797188
  9
$TDUCREATE
 40
2461006.475630521
  9
$TDUPDATE
 40
2461006.704797246
  9
$TDUUPDATE
 40
2461006.475630579
  9
$TDINDWG
 40
0.0000000116
  9
$TDUSRTIMER
 40
0.0000000116
  9
$USRTIMER
 70
     1
  9
$ANGBASE
 50
0.0
  9
$ANGDIR
 70
     0
  9
$PDMODE
 70
     0
  9
$PDSIZE
 40
0.0
  9
$PLINEWID
 40
0.0
  9
$SPLFRAME
 70
     0
  9
$SPLINETYPE
 70
     6
  9
$SPLINESEGS
 70
     8
  9
$HANDSEED
  5
AA
  9
$SURFTAB1
 70
     6
  9
$SURFTAB2
 70
     6
  9
$SURFTYPE
 70
     6
  9
$SURFU
 70
     6
  9
$SURFV
 70
     6
  9
$UCSBASE
  2

  9
$UCSNAME
  2

  9
$UCSORG
 10
0.0
 20
0.0
 30
0.0
  9
$UCSXDIR
 10
1.0
 20
0.0
 30
0.0
  9
$UCSYDIR
 10
0.0
 20
1.0
 30
0.0
  9
$UCSORTHOREF
  2

  9
$UCSORTHOVIEW
 70
     0
  9
$UCSORGTOP
 10
0.0
 20
0.0
 30
0.0
  9
$UCSORGBOTTOM
 10
0.0
 20
0.0
 30
0.0
  9
$UCSORGLEFT
 10
0.0
 20
0.0
 30
0.0
  9
$UCSORGRIGHT
 10
0.0
 20
0.0
 30
0.0
  9
$UCSORGFRONT
 10
0.0
 20
0.0
 30
0.0
  9
$UCSORGBACK
 10
0.0
 20
0.0
 30
0.0
  9
$PUCSBASE
  2

  9
$PUCSNAME
  2

  9
$PUCSORG
 10
0.0
 20
0.0
 30
0.0
  9
$PUCSXDIR
 10
1.0
 20
0.0
 30
0.0
  9
$PUCSYDIR
 10
0.0
 20
1.0
 30
0.0
  9
$PUCSORTHOREF
  2

  9
$PUCSORTHOVIEW
 70
     0
  9
$PUCSORGTOP
 10
0.0
 20
0.0
 30
0.0
  9
$PUCSORGBOTTOM
 10
0.0
 20
0.0
 30
0.0
  9
$PUCSORGLEFT
 10
0.0
 20
0.0
 30
0.0
  9
$PUCSORGRIGHT
 10
0.0
 20
0.0
 30
0.0
  9
$PUCSORGFRONT
 10
0.0
 20
0.0
 30
0.0
  9
$PUCSORGBACK
 10
0.0
 20
0.0
 30
0.0
  9
$USERI1
 70
     0
  9
$USERI2
 70
     0
  9
$USERI3
 70
     0
  9
$USERI4
 70
     0
  9
$USERI5
 70
     0
  9
$USERR1
 40
0.0
  9
$USERR2
 40
0.0
  9
$USERR3
 40
0.0
  9
$USERR4
 40
0.0
  9
$USERR5
 40
0.0
  9
$WORLDVIEW
 70
     1
  9
$SHADEDGE
 70
     3
  9
$SHADEDIF
 70
    70
  9
$TILEMODE
 70
     1
  9
$MAXACTVP
 70
    64
  9
$PINSBASE
 10
0.0
 20
0.0
 30
0.0
  9
$PLIMCHECK
 70
     0
  9
$PEXTMIN
 10
1.000000000000000E+20
 20
1.000000000000000E+20
 30
1.000000000000000E+20
  9
$PEXTMAX
 10
-1.000000000000000E+20
 20
-1.000000000000000E+20
 30
-1.000000000000000E+20
  9
$PLIMMIN
 10
0.0
 20
0.0
  9
$PLIMMAX
 10
12.0
 20
9.0
  9
$UNITMODE
 70
     0
  9
$VISRETAIN
 70
     1
  9
$PLINEGEN
 70
     0
  9
$PSLTSCALE
 70
     1
  9
$TREEDEPTH
 70
  3020
  9
$CMLSTYLE
  2
Standard
  9
$CMLJUST
 70
     0
  9
$CMLSCALE
 40
1.0
  9
$PROXYGRAPHICS
 70
     1
  9
$MEASUREMENT
 70
     0
  9
$CELWEIGHT
370
    -1
  9
$ENDCAPS
280
     0
  9
$JOINSTYLE
280
     0
  9
$LWDISPLAY
290
     0
  9
$INSUNITS
 70
     4
  9
$HYPERLINKBASE
  1

  9
$STYLESHEET
  1

  9
$XEDIT
290
     1
  9
$CEPSNTYPE
380
     0
  9
$PSTYLEMODE
290
     1
  9
$FINGERPRINTGUID
  2
{7415c7a3-4a4f-48ee-9158-416a7ad184be}
  9
$VERSIONGUID
  2
{FAEB1C32-E019-11D5-929B-00C0DF256EC4}
  9
$EXTNAMES
290
     1
  9
$PSVPSCALE
 40
0.0
  9
$OLESTARTUP
290
     0
  9
$SORTENTS
280
   127
  9
$INDEXCTL
280
     0
  9
$HIDETEXT
280
     1
  9
$XCLIPFRAME
280
     2
  9
$HALOGAP
280
     0
  9
$OBSCOLOR
 70
   257
  9
$OBSLTYPE
280
     0
  9
$INTERSECTIONDISPLAY
280
     0
  9
$INTERSECTIONCOLOR
 70
   257
  9
$DIMASSOC
280
     2
  9
$PROJECTNAME
  1

  9
$CAMERADISPLAY
290
     0
  9
$LENSLENGTH
 40
50.0
  9
$CAMERAHEIGHT
 40
0.0
  9
$STEPSPERSEC
 40
2.0
  9
$STEPSIZE
 40
6.0
  9
$3DDWFPREC
 40
2.0
  9
$PSOLWIDTH
 40
0.25
  9
$PSOLHEIGHT
 40
4.0
  9
$LOFTANG1
 40
1.570796326794897
  9
$LOFTANG2
 40
1.570796326794897
  9
$LOFTMAG1
 40
0.0
  9
$LOFTMAG2
 40
0.0
  9
$LOFTPARAM
 70
     7
  9
$LOFTNORMALS
280
     1
  9
$LATITUDE
 40
37.795
  9
$LONGITUDE
 40
-122.394
  9
$NORTHDIRECTION
 40
0.0
  9
$TIMEZONE
 70
 -8000
  9
$LIGHTGLYPHDISPLAY
280
     1
  9
$TILEMODELIGHTSYNCH
280
     1
  9
$CMATERIAL
347
44
  9
$SOLIDHIST
280
     0
  9
$SHOWHIST
280
     1
  9
$DWFFRAME
280
     2
  9
$DGNFRAME
280
     2
  9
$REALWORLDSCALE
290
     1
  9
$INTERFERECOLOR
 62
   256
  9
$CSHADOW
280
     0
  9
$SHADOWPLANELOCATION
 40
0.0
  0
ENDSEC
  0
SECTION
  2
CLASSES
  0
CLASS
  1
ACDBDICTIONARYWDFLT
  2
AcDbDictionaryWithDefault
  3
ObjectDBX Classes
 90
        0
 91
        3
280
     0
281
     0
  0
CLASS
  1
VISUALSTYLE
  2
AcDbVisualStyle
  3
ObjectDBX Classes
 90
     4095
 91
        3
280
     0
281
     0
  0
CLASS
  1
MATERIAL
  2
AcDbMaterial
  3
ObjectDBX Classes
 90
     1153
 91
        3
280
     0
281
     0
  0
CLASS
  1
SCALE
  2
AcDbScale
  3
ObjectDBX Classes
 90
     1153
 91
        3
280
     0
281
     0
  0
CLASS
  1
TABLESTYLE
  2
AcDbTableStyle
  3
ObjectDBX Classes
 90
     4095
 91
        3
280
     0
281
     0
  0
CLASS
  1
MLEADERSTYLE
  2
AcDbMLeaderStyle
  3
ACDB_MLEADERSTYLE_CLASS
 90
     4095
 91
        3
280
     0
281
     0
  0
CLASS
  1
SUN
  2
AcDbSun
  3
SCENEOE
 90
     1153
 91
        3
280
     0
281
     0
  0
CLASS
  1
DICTIONARYVAR
  2
AcDbDictionaryVar
  3
ObjectDBX Classes
 90
        0
 91
        3
280
     0
281
     0
  0
CLASS
  1
CELLSTYLEMAP
  2
AcDbCellStyleMap
  3
ObjectDBX Classes
 90
     1152
 91
        3
280
     0
281
     0
  0
ENDSEC
  0
SECTION
  2
TABLES
  0
TABLE
  2
VPORT
  5
8
330
0
100
AcDbSymbolTable
 70
     1
  0
VPORT
  5
29
330
8
100
AcDbSymbolTableRecord
100
AcDbViewportTableRecord
  2
*Active
 70
     0
 10
0.0
 20
0.0
 11
1.0
 21
1.0
 12
10.42990654205607
 22
4.5
 13
0.0
 23
0.0
 14
0.5
 24
0.5
 15
0.5
 25
0.5
 16
0.0
 26
0.0
 36
1.0
 17
0.0
 27
0.0
 37
0.0
 40
9.0
 41
1.972972972850329
 42
50.0
 43
0.0
 44
0.0
 50
0.0
 51
0.0
 71
     0
 72
   100
 73
     1
 74
     3
 75
     0
 76
     0
 77
     0
 78
     0
281
     0
 65
     1
110
0.0
120
0.0
130
0.0
111
1.0
121
0.0
131
0.0
112
0.0
122
1.0
132
0.0
 79
     0
146
0.0
348
2F
 60
     3
 61
     5
292
     1
282
     1
141
0.0
142
0.0
 63
   250
361
5D
  0
ENDTAB
  0
TABLE
  2
LTYPE
  5
5
330
0
100
AcDbSymbolTable
 70
     1
  0
LTYPE
  5
14
330
5
100
AcDbSymbolTableRecord
100
AcDbLinetypeTableRecord
  2
ByBlock
 70
     0
  3

 72
    65
 73
     0
 40
0.0
  0
LTYPE
  5
15
330
5
100
AcDbSymbolTableRecord
100
AcDbLinetypeTableRecord
  2
ByLayer
 70
     0
  3

 72
    65
 73
     0
 40
0.0
  0
LTYPE
  5
16
330
5
100
AcDbSymbolTableRecord
100
AcDbLinetypeTableRecord
  2
Continuous
 70
     0
  3
Solid line
 72
    65
 73
     0
 40
0.0
  0
ENDTAB
  0
TABLE
  2
LAYER
  5
2
330
0
100
AcDbSymbolTable
 70
     2
  0
LAYER
  5
10
330
2
100
AcDbSymbolTableRecord
100
AcDbLayerTableRecord
  2
0
 70
     0
 62
     7
  6
Continuous
370
    -3
390
F
347
46
348
0
  0
LAYER
  5
5F
330
2
100
AcDbSymbolTableRecord
100
AcDbLayerTableRecord
  2
Layer 1
 70
     0
 62
     7
  6
Continuous
370
    -3
390
F
347
46
348
0
  0
ENDTAB
  0
TABLE
  2
STYLE
  5
3
330
0
100
AcDbSymbolTable
 70
     1
  0
STYLE
  5
11
330
3
100
AcDbSymbolTableRecord
100
AcDbTextStyleTableRecord
  2
Standard
 70
     0
 40
0.0
 41
1.0
 50
0.0
 71
     0
 42
0.2
  3
txt
  4

  0
ENDTAB
  0
TABLE
  2
VIEW
  5
6
330
0
100
AcDbSymbolTable
 70
     0
  0
ENDTAB
  0
TABLE
  2
UCS
  5
7
330
0
100
AcDbSymbolTable
 70
     0
  0
ENDTAB
  0
TABLE
  2
APPID
  5
9
330
0
100
AcDbSymbolTable
 70
     2
  0
APPID
  5
12
330
9
100
AcDbSymbolTableRecord
100
AcDbRegAppTableRecord
  2
ACAD
 70
     0
  0
APPID
  5
5E
330
9
100
AcDbSymbolTableRecord
100
AcDbRegAppTableRecord
  2
ODA
 70
     0
  0
ENDTAB
  0
TABLE
  2
DIMSTYLE
  5
A
330
0
100
AcDbSymbolTable
 70
     1
100
AcDbDimStyleTable
  0
DIMSTYLE
105
27
330
A
100
AcDbSymbolTableRecord
100
AcDbDimStyleTableRecord
  2
Standard
 70
     0
178
     0
340
11
  0
ENDTAB
  0
TABLE
  2
BLOCK_RECORD
  5
1
330
0
100
AcDbSymbolTable
 70
     1
  0
BLOCK_RECORD
  5
1F
330
1
100
AcDbSymbolTableRecord
100
AcDbBlockTableRecord
  2
*Model_Space
340
22
 70
     0
280
     1
281
     0
  0
BLOCK_RECORD
  5
1B
330
1
100
AcDbSymbolTableRecord
100
AcDbBlockTableRecord
  2
*Paper_Space
340
1E
 70
     0
280
     1
281
     0
  0
BLOCK_RECORD
  5
23
330
1
100
AcDbSymbolTableRecord
100
AcDbBlockTableRecord
  2
*Paper_Space0
340
26
 70
     0
280
     1
281
     0
  0
ENDTAB
  0
ENDSEC
  0
SECTION
  2
BLOCKS
  0
BLOCK
  5
20
330
1F
100
AcDbEntity
  8
0
100
AcDbBlockBegin
  2
*Model_Space
 70
     0
 10
0.0
 20
0.0
 30
0.0
  3
*Model_Space
  1

  0
ENDBLK
  5
21
330
1F
100
AcDbEntity
  8
0
100
AcDbBlockEnd
  0
BLOCK
  5
1C
330
1B
100
AcDbEntity
 67
     1
  8
0
100
AcDbBlockBegin
  2
*Paper_Space
 70
     0
 10
0.0
 20
0.0
 30
0.0
  3
*Paper_Space
  1

  0
ENDBLK
  5
1D
330
1B
100
AcDbEntity
 67
     1
  8
0
100
AcDbBlockEnd
  0
BLOCK
  5
24
330
23
100
AcDbEntity
  8
0
100
AcDbBlockBegin
  2
*Paper_Space0
 70
     0
 10
0.0
 20
0.0
 30
0.0
  3
*Paper_Space0
  1

  0
ENDBLK
  5
25
330
23
100
AcDbEntity
  8
0
100
AcDbBlockEnd
  0
ENDSEC
  0
SECTION
  2
ENTITIES
  0
LWPOLYLINE
  5
60
330
1F
100
AcDbEntity
  8
Layer 1
 62
   250
370
    18
100
AcDbPolyline
 90
        5
 70
     1
 43
0.0
 10
158.7166
 20
-440.0229
 10
761.1974
 20
-440.0229
 10
761.1974
 20
454.1579
 10
158.7166
 20
454.1579
 10
158.7166
 20
-440.0229
  0
LWPOLYLINE
  5
61
330
1F
100
AcDbEntity
  8
Layer 1
 62
     7
370
    18
100
AcDbPolyline
 90
      100
 70
     1
 43
0.0
 10
186.4008
 20
343.786
 10
196.4842
 20
215.0911
 10
196.3273
 20
214.3949
 10
195.9461
 20
212.5022
 10
195.4753
 20
209.7066
 10
195.0493
 20
206.3018
 10
194.8027
 20
202.5813
 10
194.8699
 20
198.8388
 10
195.3856
 20
195.3681
 10
196.4842
 20
192.4626
 10
198.1916
 20
166.8076
 10
200.3123
 20
103.3609
 10
202.6488
 20
14.8248
 10
205.0035
 20
-86.0981
 10
207.1787
 20
-186.7054
 10
208.9771
 20
-274.2946
 10
210.201
 20
-336.1632
 10
210.6529
 20
-359.6089
 10
210.7231
 20
-360.9544
 10
211.3369
 20
-364.684
 10
213.0989
 20
-370.337
 10
216.6137
 20
-377.4528
 10
222.486
 20
-385.5707
 10
231.3206
 20
-394.2302
 10
243.7219
 20
-402.9706
 10
260.2947
 20
-411.3314
 10
283.1801
 20
-418.2674
 10
312.5095
 20
-423.0851
 10
345.8729
 20
-425.8526
 10
380.8604
 20
-426.6385
 10
415.0621
 20
-425.5109
 10
446.068
 20
-422.5384
 10
471.4682
 20
-417.7891
 10
488.8528
 20
-411.3314
 10
491.4526
 20
-410.7076
 10
498.4401
 20
-408.7704
 10
508.5972
 20
-405.421
 10
520.7059
 20
-400.5607
 10
533.548
 20
-394.0907
 10
545.9056
 20
-385.9122
 10
556.5605
 20
-375.9264
 10
564.2948
 20
-364.0347
 10
593.1219
 20
192.2809
 10
593.2549
 20
192.4674
 10
593.6054
 20
192.9683
 10
594.101
 20
193.6955
 10
594.6692
 20
194.5609
 10
595.2373
 20
195.4766
 10
595.7329
 20
196.3543
 10
596.0834
 20
197.1061
 10
596.2164
 20
197.644
 10
596.2164
 20
213.543
 10
596.1928
 20
213.6804
 10
596.1194
 20
214.0496
 10
595.9922
 20
214.5863
 10
595.8073
 20
215.2258
 10
595.5606
 20
215.9039
 10
595.2482
 20
216.556
 10
594.8661
 20
217.1178
 10
594.4103
 20
217.5247
 10
594.598
 20
219.5696
 10
595.1132
 20
225.6631
 10
595.8837
 20
235.7435
 10
596.8377
 20
249.7489
 10
597.9029
 20
267.6176
 10
599.0075
 20
289.2879
 10
600.0794
 20
314.698
 10
601.0465
 20
343.786
 10
600.2815
 20
344.1206
 10
598.0475
 20
345.0172
 10
594.4363
 20
346.3151
 10
589.5395
 20
347.8536
 10
583.449
 20
349.4719
 10
576.2564
 20
351.0095
 10
568.0534
 20
352.3056
 10
558.9318
 20
353.1994
 10
546.7032
 20
353.7799
 10
529.8814
 20
354.2605
 10
509.6089
 20
354.6657
 10
487.0286
 20
355.0204
 10
463.2832
 20
355.3493
 10
439.5155
 20
355.677
 10
416.8681
 20
356.0284
 10
396.4839
 20
356.4281
 10
376.9293
 20
356.7426
 10
356.4632
 20
356.8409
 10
335.7669
 20
356.7524
 10
315.5215
 20
356.5068
 10
296.4084
 20
356.1335
 10
279.1087
 20
355.6621
 10
264.3036
 20
355.1221
 10
252.6745
 20
354.543
 10
243.3065
 20
354.0331
 10
234.6848
 20
353.5815
 10
226.5909
 20
353.0397
 10
218.8067
 20
352.2594
 10
211.1139
 20
351.0923
 10
203.2941
 20
349.3899
 10
195.1292
 20
347.0039
 10
186.4008
 20
343.786
  0
LWPOLYLINE
  5
62
330
1F
100
AcDbEntity
  8
Layer 1
 62
     7
370
    18
100
AcDbPolyline
 90
       81
 70
     1
 43
0.0
 10
195.7015
 20
211.1269
 10
196.0127
 20
210.5079
 10
197.2973
 20
208.8469
 10
200.0822
 20
206.4375
 10
204.8942
 20
203.5735
 10
212.2601
 20
200.5486
 10
222.7065
 20
197.6566
 10
236.7604
 20
195.1913
 10
254.9484
 20
193.4464
 10
276.5541
 20
192.3583
 10
299.6172
 20
191.6245
 10
322.8007
 20
191.1806
 10
344.7674
 20
190.9621
 10
364.1802
 20
190.9044
 10
379.702
 20
190.9431
 10
389.9957
 20
191.0136
 10
393.724
 20
191.0514
 10
397.5222
 20
191.0679
 10
408.0085
 20
191.1473
 10
423.8209
 20
191.3347
 10
443.5971
 20
191.6751
 10
465.9751
 20
192.2134
 10
489.5926
 20
192.9948
 10
513.0874
 20
194.0642
 10
535.0975
 20
195.4667
 10
553.6264
 20
197.4762
 10
567.9437
 20
200.1459
 10
578.5859
 20
203.1898
 10
586.0898
 20
206.3218
 10
590.992
 20
209.2558
 10
593.8292
 20
211.7058
 10
595.1379
 20
213.3855
 10
595.4549
 20
214.009
 10
596.1149
 20
209.468
 10
596.3205
 20
205.4458
 10
596.1846
 20
201.9692
 10
595.8203
 20
199.0648
 10
595.3403
 20
196.7593
 10
594.8577
 20
195.0794
 10
594.4853
 20
194.0519
 10
594.3361
 20
193.7035
 10
589.9643
 20
190.1253
 10
583.1876
 20
186.948
 10
574.9269
 20
184.1951
 10
566.1032
 20
181.8901
 10
557.6372
 20
180.0565
 10
550.45
 20
178.7177
 10
545.4623
 20
177.8972
 10
543.5951
 20
177.6185
 10
530.2102
 20
175.7393
 10
509.9726
 20
174.4002
 10
485.5446
 20
173.5119
 10
459.5883
 20
172.9852
 10
434.7659
 20
172.731
 10
413.7396
 20
172.6598
 10
399.1716
 20
172.6826
 10
393.724
 20
172.71
 10
388.3766
 20
172.6048
 10
374.0764
 20
172.3739
 10
353.4368
 20
172.1446
 10
329.0708
 20
172.0442
 10
303.5919
 20
172.2
 10
279.6131
 20
172.7392
 10
259.7477
 20
173.7892
 10
246.609
 20
175.4771
 10
244.7761
 20
175.7292
 10
239.88
 20
176.4785
 10
232.8247
 20
177.7147
 10
224.5142
 20
179.4275
 10
215.8524
 20
181.6066
 10
207.7433
 20
184.2416
 10
201.0909
 20
187.3222
 10
196.7991
 20
190.8381
 10
196.6526
 20
191.1844
 10
196.2872
 20
192.2065
 10
195.8135
 20
193.8793
 10
195.3425
 20
196.1779
 10
194.985
 20
199.0769
 10
194.8517
 20
202.5515
 10
195.0536
 20
206.5766
 10
195.7015
 20
211.1269
  0
LWPOLYLINE
  5
63
330
1F
100
AcDbEntity
  8
Layer 1
 62
     7
370
    18
100
AcDbPolyline
 90
        2
 70
     0
 43
0.0
 10
395.3931
 20
356.4518
 10
395.3931
 20
191.0575
  0
LWPOLYLINE
  5
64
330
1F
100
AcDbEntity
  8
Layer 1
 62
     7
370
    18
100
AcDbPolyline
 90
        2
 70
     0
 43
0.0
 10
405.8376
 20
356.2307
 10
405.8376
 20
191.1277
  0
LWPOLYLINE
  5
65
330
1F
100
AcDbEntity
  8
Layer 1
 62
     7
370
    18
100
AcDbPolyline
 90
        2
 70
     0
 43
0.0
 10
417.8648
 20
356.0121
 10
414.4638
 20
191.2146
  0
LWPOLYLINE
  5
66
330
1F
100
AcDbEntity
  8
Layer 1
 62
     7
370
    18
100
AcDbPolyline
 90
        2
 70
     0
 43
0.0
 10
430.2577
 20
355.8138
 10
426.8643
 20
191.3796
  0
LWPOLYLINE
  5
67
330
1F
100
AcDbEntity
  8
Layer 1
 62
     7
370
    18
100
AcDbPolyline
 90
        2
 70
     0
 43
0.0
 10
442.6513
 20
355.633
 10
439.2662
 20
191.5911
  0
LWPOLYLINE
  5
68
330
1F
100
AcDbEntity
  8
Layer 1
 62
     7
370
    18
100
AcDbPolyline
 90
        2
 70
     0
 43
0.0
 10
455.0457
 20
355.461
 10
451.6689
 20
191.8491
  0
LWPOLYLINE
  5
69
330
1F
100
AcDbEntity
  8
Layer 1
 62
     7
370
    18
100
AcDbPolyline
 90
        2
 70
     0
 43
0.0
 10
467.4393
 20
355.2934
 10
464.0732
 20
192.1607
  0
LWPOLYLINE
  5
6A
330
1F
100
AcDbEntity
  8
Layer 1
 62
     7
370
    18
100
AcDbPolyline
 90
        2
 70
     0
 43
0.0
 10
479.833
 20
355.1222
 10
476.4781
 20
192.531
  0
LWPOLYLINE
  5
6B
330
1F
100
AcDbEntity
  8
Layer 1
 62
     7
370
    18
100
AcDbPolyline
 90
        2
 70
     0
 43
0.0
 10
492.2274
 20
354.9441
 10
488.8846
 20
192.9681
  0
LWPOLYLINE
  5
6C
330
1F
100
AcDbEntity
  8
Layer 1
 62
     7
370
    18
100
AcDbPolyline
 90
        2
 70
     0
 43
0.0
 10
504.6202
 20
354.7501
 10
501.2926
 20
193.4841
  0
LWPOLYLINE
  5
6D
330
1F
100
AcDbEntity
  8
Layer 1
 62
     7
370
    18
100
AcDbPolyline
 90
        2
 70
     0
 43
0.0
 10
517.0131
 20
354.5307
 10
513.7029
 20
194.0976
  0
LWPOLYLINE
  5
6E
330
1F
100
AcDbEntity
  8
Layer 1
 62
     7
370
    18
100
AcDbPolyline
 90
        2
 70
     0
 43
0.0
 10
529.4052
 20
354.2709
 10
526.1155
 20
194.8348
  0
LWPOLYLINE
  5
6F
330
1F
100
AcDbEntity
  8
Layer 1
 62
     7
370
    18
100
AcDbPolyline
 90
        2
 70
     0
 43
0.0
 10
541.7958
 20
353.9418
 10
538.5318
 20
195.7484
  0
LWPOLYLINE
  5
70
330
1F
100
AcDbEntity
  8
Layer 1
 62
     7
370
    18
100
AcDbPolyline
 90
        2
 70
     0
 43
0.0
 10
554.1834
 20
353.4679
 10
550.9572
 20
197.1052
  0
LWPOLYLINE
  5
71
330
1F
100
AcDbEntity
  8
Layer 1
 62
     7
370
    18
100
AcDbPolyline
 90
        2
 70
     0
 43
0.0
 10
566.5611
 20
352.4903
 10
563.397
 20
199.1597
  0
LWPOLYLINE
  5
72
330
1F
100
AcDbEntity
  8
Layer 1
 62
     7
370
    18
100
AcDbPolyline
 90
        2
 70
     0
 43
0.0
 10
578.9169
 20
350.4849
 10
575.8588
 20
202.291
  0
LWPOLYLINE
  5
73
330
1F
100
AcDbEntity
  8
Layer 1
 62
     7
370
    18
100
AcDbPolyline
 90
        2
 70
     0
 43
0.0
 10
591.2492
 20
347.3421
 10
588.3645
 20
207.5559
  0
LWPOLYLINE
  5
74
330
1F
100
AcDbEntity
  8
Layer 1
 62
     7
370
    18
100
AcDbPolyline
 90
        2
 70
     0
 43
0.0
 10
587.9829
 20
189.0513
 10
587.8914
 20
184.6123
  0
LWPOLYLINE
  5
75
330
1F
100
AcDbEntity
  8
Layer 1
 62
     7
370
    18
100
AcDbPolyline
 90
        2
 70
     0
 43
0.0
 10
381.9655
 20
356.6844
 10
385.3846
 20
190.9768
  0
LWPOLYLINE
  5
76
330
1F
100
AcDbEntity
  8
Layer 1
 62
     7
370
    18
100
AcDbPolyline
 90
        2
 70
     0
 43
0.0
 10
369.5658
 20
356.8011
 10
372.9887
 20
190.9171
  0
LWPOLYLINE
  5
77
330
1F
100
AcDbEntity
  8
Layer 1
 62
     7
370
    18
100
AcDbPolyline
 90
        2
 70
     0
 43
0.0
 10
357.1676
 20
356.8406
 10
360.5913
 20
190.9066
  0
LWPOLYLINE
  5
78
330
1F
100
AcDbEntity
  8
Layer 1
 62
     7
370
    18
100
AcDbPolyline
 90
        2
 70
     0
 43
0.0
 10
344.7702
 20
356.8117
 10
348.1931
 20
190.9434
  0
LWPOLYLINE
  5
79
330
1F
100
AcDbEntity
  8
Layer 1
 62
     7
370
    18
100
AcDbPolyline
 90
        2
 70
     0
 43
0.0
 10
332.3751
 20
356.7221
 10
335.7942
 20
191.0303
  0
LWPOLYLINE
  5
7A
330
1F
100
AcDbEntity
  8
Layer 1
 62
     7
370
    18
100
AcDbPolyline
 90
        2
 70
     0
 43
0.0
 10
319.9807
 20
356.5738
 10
323.3938
 20
191.1725
  0
LWPOLYLINE
  5
7B
330
1F
100
AcDbEntity
  8
Layer 1
 62
     7
370
    18
100
AcDbPolyline
 90
        2
 70
     0
 43
0.0
 10
307.5878
 20
356.3685
 10
310.9926
 20
191.3752
  0
LWPOLYLINE
  5
7C
330
1F
100
AcDbEntity
  8
Layer 1
 62
     7
370
    18
100
AcDbPolyline
 90
        2
 70
     0
 43
0.0
 10
295.1957
 20
356.1043
 10
298.5891
 20
191.6508
  0
LWPOLYLINE
  5
7D
330
1F
100
AcDbEntity
  8
Layer 1
 62
     7
370
    18
100
AcDbPolyline
 90
        2
 70
     0
 43
0.0
 10
282.8051
 20
355.7752
 10
286.1841
 20
192.0097
  0
LWPOLYLINE
  5
7E
330
1F
100
AcDbEntity
  8
Layer 1
 62
     7
370
    18
100
AcDbPolyline
 90
        2
 70
     0
 43
0.0
 10
270.416
 20
355.3645
 10
273.7776
 20
192.4731
  0
LWPOLYLINE
  5
7F
330
1F
100
AcDbEntity
  8
Layer 1
 62
     7
370
    18
100
AcDbPolyline
 90
        2
 70
     0
 43
0.0
 10
258.0292
 20
354.8344
 10
261.3674
 20
193.0708
  0
LWPOLYLINE
  5
80
330
1F
100
AcDbEntity
  8
Layer 1
 62
     7
370
    18
100
AcDbPolyline
 90
        2
 70
     0
 43
0.0
 10
245.6461
 20
354.1533
 10
248.9533
 20
193.8852
  0
LWPOLYLINE
  5
81
330
1F
100
AcDbEntity
  8
Layer 1
 62
     7
370
    18
100
AcDbPolyline
 90
        2
 70
     0
 43
0.0
 10
233.2624
 20
353.4986
 10
236.5286
 20
195.2236
  0
LWPOLYLINE
  5
82
330
1F
100
AcDbEntity
  8
Layer 1
 62
     7
370
    18
100
AcDbPolyline
 90
        2
 70
     0
 43
0.0
 10
220.8854
 20
352.5008
 10
224.0873
 20
197.3562
  0
LWPOLYLINE
  5
83
330
1F
100
AcDbEntity
  8
Layer 1
 62
     7
370
    18
100
AcDbPolyline
 90
        2
 70
     0
 43
0.0
 10
208.5273
 20
350.5893
 10
211.6187
 20
200.7728
  0
LWPOLYLINE
  5
84
330
1F
100
AcDbEntity
  8
Layer 1
 62
     7
370
    18
100
AcDbPolyline
 90
        2
 70
     0
 43
0.0
 10
196.198
 20
347.3518
 10
199.0904
 20
207.1969
  0
LWPOLYLINE
  5
85
330
1F
100
AcDbEntity
  8
Layer 1
 62
     7
370
    18
100
AcDbPolyline
 90
        2
 70
     0
 43
0.0
 10
199.4787
 20
188.3606
 10
199.5551
 20
184.672
  0
LWPOLYLINE
  5
86
330
1F
100
AcDbEntity
  8
Layer 1
 62
     7
100
AcDbPolyline
 90
       65
 70
     1
 43
0.0
 10
615.7201
 20
24.9383
 10
616.2104
 20
24.9137
 10
616.6815
 20
24.8401
 10
617.1335
 20
24.7173
 10
617.5664
 20
24.5454
 10
617.9801
 20
24.3245
 10
618.3748
 20
24.0545
 10
618.7503
 20
23.7354
 10
619.1067
 20
23.3673
 10
619.4281
 20
22.9682
 10
619.7067
 20
22.5464
 10
619.9423
 20
22.1018
 10
620.135
 20
21.6344
 10
620.2849
 20
21.1442
 10
620.3919
 20
20.6314
 10
620.4561
 20
20.0957
 10
620.4775
 20
19.5374
 10
620.4564
 20
18.9839
 10
620.3929
 20
18.4491
 10
620.2871
 20
17.9328
 10
620.1391
 20
17.4351
 10
619.9486
 20
16.956
 10
619.7159
 20
16.4955
 10
619.4408
 20
16.0535
 10
619.1233
 20
15.6302
 10
618.7756
 20
15.244
 10
618.4057
 20
14.9093
 10
618.0137
 20
14.6262
 10
617.5994
 20
14.3946
 10
617.1629
 20
14.2145
 10
616.7043
 20
14.0859
 10
616.2233
 20
14.0087
 10
615.7201
 20
13.983
 10
615.2171
 20
14.0087
 10
614.7362
 20
14.0859
 10
614.2776
 20
14.2145
 10
613.8411
 20
14.3946
 10
613.4268
 20
14.6262
 10
613.0348
 20
14.9093
 10
612.665
 20
15.244
 10
612.3175
 20
15.6302
 10
612.0
 20
16.0535
 10
611.7248
 20
16.4955
 10
611.492
 20
16.956
 10
611.3014
 20
17.4351
 10
611.1532
 20
17.9328
 10
611.0473
 20
18.4491
 10
610.9838
 20
18.9839
 10
610.9626
 20
19.5374
 10
610.984
 20
20.0957
 10
611.0483
 20
20.6314
 10
611.1554
 20
21.1442
 10
611.3054
 20
21.6344
 10
611.4982
 20
22.1018
 10
611.7338
 20
22.5464
 10
612.0122
 20
22.9682
 10
612.3334
 20
23.3673
 10
612.6899
 20
23.7354
 10
613.0655
 20
24.0545
 10
613.4602
 20
24.3245
 10
613.874
 20
24.5454
 10
614.3069
 20
24.7173
 10
614.7589
 20
24.8401
 10
615.23
 20
24.9137
 10
615.7201
 20
24.9383
  0
LWPOLYLINE
  5
87
330
1F
100
AcDbEntity
  8
Layer 1
 62
     7
100
AcDbPolyline
 90
       65
 70
     1
 43
0.0
 10
615.7201
 20
35.5101
 10
616.1154
 20
35.491
 10
616.4956
 20
35.4336
 10
616.8608
 20
35.3379
 10
617.2111
 20
35.2039
 10
617.5463
 20
35.0316
 10
617.8667
 20
34.8211
 10
618.172
 20
34.5721
 10
618.4625
 20
34.2849
 10
618.7334
 20
33.962
 10
618.9683
 20
33.6204
 10
619.1671
 20
33.2603
 10
619.3298
 20
32.8817
 10
619.4563
 20
32.4845
 10
619.5467
 20
32.0687
 10
619.601
 20
31.6345
 10
619.6191
 20
31.1817
 10
619.601
 20
30.739
 10
619.5467
 20
30.3106
 10
619.4563
 20
29.8965
 10
619.3298
 20
29.4967
 10
619.1671
 20
29.1112
 10
618.9683
 20
28.7401
 10
618.7334
 20
28.3832
 10
618.4625
 20
28.0407
 10
618.174
 20
27.7355
 10
617.87
 20
27.471
 10
617.5504
 20
27.2472
 10
617.2154
 20
27.064
 10
616.8648
 20
26.9215
 10
616.4987
 20
26.8197
 10
616.1171
 20
26.7587
 10
615.7201
 20
26.7383
 10
615.3231
 20
26.7587
 10
614.9416
 20
26.8197
 10
614.5756
 20
26.9215
 10
614.2251
 20
27.064
 10
613.89
 20
27.2472
 10
613.5705
 20
27.471
 10
613.2663
 20
27.7355
 10
612.9776
 20
28.0407
 10
612.7067
 20
28.3832
 10
612.4719
 20
28.7401
 10
612.2732
 20
29.1112
 10
612.1107
 20
29.4967
 10
611.9842
 20
29.8965
 10
611.8939
 20
30.3106
 10
611.8398
 20
30.739
 10
611.8217
 20
31.1817
 10
611.8398
 20
31.6345
 10
611.8939
 20
32.0687
 10
611.9842
 20
32.4845
 10
612.1107
 20
32.8817
 10
612.2732
 20
33.2603
 10
612.4719
 20
33.6204
 10
612.7067
 20
33.962
 10
612.9776
 20
34.2849
 10
613.2681
 20
34.5721
 10
613.5736
 20
34.8211
 10
613.894
 20
35.0316
 10
614.2293
 20
35.2039
 10
614.5796
 20
35.3379
 10
614.9449
 20
35.4336
 10
615.325
 20
35.491
 10
615.7201
 20
35.5101
  0
LWPOLYLINE
  5
88
330
1F
100
AcDbEntity
  8
Layer 1
 62
     7
100
AcDbPolyline
 90
      121
 70
     1
 43
0.0
 10
615.7201
 20
11.3018
 10
616.4772
 20
11.335
 10
617.2038
 20
11.4346
 10
617.8999
 20
11.6007
 10
618.5656
 20
11.8331
 10
619.2009
 20
12.132
 10
619.8057
 20
12.4974
 10
620.3801
 20
12.9291
 10
620.9241
 20
13.4274
 10
621.1692
 20
13.6877
 10
621.4008
 20
13.9612
 10
621.6191
 20
14.2479
 10
621.824
 20
14.5477
 10
622.0155
 20
14.8607
 10
622.1937
 20
15.1868
 10
622.3585
 20
15.5261
 10
622.5099
 20
15.8786
 10
622.6453
 20
16.2445
 10
622.7627
 20
16.6236
 10
622.862
 20
17.0157
 10
622.9432
 20
17.4209
 10
623.0063
 20
17.8393
 10
623.0514
 20
18.2708
 10
623.0785
 20
18.7154
 10
623.0875
 20
19.1732
 10
623.0723
 20
19.637
 10
623.0266
 20
20.0996
 10
622.9505
 20
20.5611
 10
622.844
 20
21.0214
 10
622.707
 20
21.4804
 10
622.5395
 20
21.9383
 10
622.3416
 20
22.395
 10
622.1133
 20
22.8504
 10
621.8563
 20
23.2948
 10
621.5731
 20
23.7183
 10
621.2636
 20
24.1208
 10
620.9278
 20
24.5024
 10
620.5658
 20
24.8631
 10
620.1774
 20
25.2028
 10
619.7627
 20
25.5216
 10
619.3217
 20
25.8194
 10
619.9489
 20
26.4677
 10
620.4925
 20
27.1299
 10
620.9524
 20
27.8059
 10
621.3286
 20
28.4956
 10
621.6213
 20
29.1991
 10
621.8303
 20
29.9164
 10
621.9557
 20
30.6475
 10
621.9975
 20
31.3923
 10
621.9689
 20
32.1272
 10
621.8829
 20
32.8279
 10
621.7397
 20
33.4944
 10
621.5392
 20
34.1267
 10
621.2814
 20
34.7249
 10
620.9663
 20
35.289
 10
620.5939
 20
35.819
 10
620.1641
 20
36.3149
 10
619.7097
 20
36.7459
 10
619.2264
 20
37.1194
 10
618.7142
 20
37.4354
 10
618.1732
 20
37.694
 10
617.6032
 20
37.895
 10
617.0044
 20
38.0386
 10
616.3767
 20
38.1248
 10
615.7201
 20
38.1535
 10
615.0635
 20
38.1248
 10
614.4358
 20
38.0386
 10
613.837
 20
37.895
 10
613.2671
 20
37.694
 10
612.7261
 20
37.4354
 10
612.214
 20
37.1194
 10
611.7309
 20
36.7459
 10
611.2767
 20
36.3149
 10
610.8469
 20
35.8193
 10
610.4744
 20
35.2902
 10
610.1591
 20
34.7276
 10
609.9012
 20
34.1315
 10
609.7006
 20
33.5018
 10
609.5573
 20
32.8386
 10
609.4713
 20
32.1419
 10
609.4426
 20
31.4116
 10
609.4844
 20
30.6622
 10
609.6099
 20
29.9271
 10
609.8191
 20
29.2065
 10
610.1119
 20
28.5003
 10
610.4883
 20
27.8085
 10
610.9483
 20
27.1311
 10
611.492
 20
26.468
 10
612.1192
 20
25.8194
 10
611.6779
 20
25.5216
 10
611.2631
 20
25.2028
 10
610.8745
 20
24.8631
 10
610.5124
 20
24.5024
 10
610.1765
 20
24.1208
 10
609.867
 20
23.7183
 10
609.5838
 20
23.2948
 10
609.3268
 20
22.8504
 10
609.0985
 20
22.3941
 10
608.9006
 20
21.9347
 10
608.7331
 20
21.4724
 10
608.5961
 20
21.007
 10
608.4896
 20
20.5387
 10
608.4135
 20
20.0674
 10
608.3678
 20
19.5933
 10
608.3526
 20
19.1162
 10
608.3864
 20
18.2605
 10
608.4879
 20
17.4461
 10
608.6569
 20
16.6731
 10
608.8936
 20
15.9414
 10
609.198
 20
15.251
 10
609.5699
 20
14.6019
 10
610.0095
 20
13.994
 10
610.5167
 20
13.4274
 10
611.0605
 20
12.9291
 10
611.6347
 20
12.4974
 10
612.2394
 20
12.132
 10
612.8746
 20
11.8331
 10
613.5402
 20
11.6007
 10
614.2363
 20
11.4346
 10
614.963
 20
11.335
 10
615.7201
 20
11.3018
  0
LWPOLYLINE
  5
89
330
1F
100
AcDbEntity
  8
Layer 1
 62
     7
100
AcDbPolyline
 90
      136
 70
     1
 43
0.0
 10
630.3232
 20
28.0793
 10
631.8432
 20
35.0511
 10
639.9706
 20
35.0511
 10
639.9706
 20
37.7322
 10
630.0916
 20
37.7322
 10
627.5149
 20
26.0493
 10
630.0258
 20
24.747
 10
630.3899
 20
25.0342
 10
630.7722
 20
25.2831
 10
631.1725
 20
25.4937
 10
631.5909
 20
25.6659
 10
632.0273
 20
25.7999
 10
632.4818
 20
25.8956
 10
632.9543
 20
25.953
 10
633.4449
 20
25.9721
 10
633.9385
 20
25.944
 10
634.4156
 20
25.8597
 10
634.8761
 20
25.7191
 10
635.3201
 20
25.5223
 10
635.7475
 20
25.2692
 10
636.1584
 20
24.9599
 10
636.5528
 20
24.5941
 10
636.9307
 20
24.1721
 10
637.287
 20
23.7013
 10
637.5958
 20
23.2132
 10
637.8571
 20
22.7078
 10
638.0708
 20
22.185
 10
638.237
 20
21.6448
 10
638.3557
 20
21.0873
 10
638.427
 20
20.5124
 10
638.4507
 20
19.9201
 10
638.4264
 20
19.3074
 10
638.3536
 20
18.7193
 10
638.2323
 20
18.1558
 10
638.0625
 20
17.6169
 10
637.8441
 20
17.1025
 10
637.5773
 20
16.6127
 10
637.262
 20
16.1474
 10
636.8982
 20
15.7066
 10
636.7129
 20
15.5106
 10
636.521
 20
15.3247
 10
636.3225
 20
15.149
 10
636.1172
 20
14.9835
 10
635.9053
 20
14.8281
 10
635.6867
 20
14.683
 10
635.4613
 20
14.5481
 10
635.2291
 20
14.4235
 10
634.9871
 20
14.3112
 10
634.7316
 20
14.2139
 10
634.4628
 20
14.1315
 10
634.1804
 20
14.0641
 10
633.8847
 20
14.0117
 10
633.5754
 20
13.9743
 10
633.2528
 20
13.9518
 10
632.9166
 20
13.9443
 10
632.5742
 20
13.9611
 10
632.2322
 20
14.0114
 10
631.8907
 20
14.0953
 10
631.5497
 20
14.2127
 10
631.2092
 20
14.3635
 10
630.8692
 20
14.5478
 10
630.5297
 20
14.7656
 10
630.1908
 20
15.0168
 10
629.8645
 20
15.2952
 10
629.563
 20
15.5939
 10
629.2863
 20
15.913
 10
629.0344
 20
16.2524
 10
628.8073
 20
16.6122
 10
628.605
 20
16.9923
 10
628.4276
 20
17.3929
 10
628.2749
 20
17.8138
 10
626.0283
 20
16.9704
 10
626.249
 20
16.3399
 10
626.5063
 20
15.7411
 10
626.8003
 20
15.1741
 10
627.1309
 20
14.6388
 10
627.4981
 20
14.1353
 10
627.9021
 20
13.6634
 10
628.3426
 20
13.2233
 10
628.8199
 20
12.8148
 10
629.3274
 20
12.4421
 10
629.8462
 20
12.1191
 10
630.3764
 20
11.8458
 10
630.9178
 20
11.6222
 10
631.4706
 20
11.4482
 10
632.0348
 20
11.324
 10
632.6104
 20
11.2494
 10
633.1974
 20
11.2246
 10
633.9795
 20
11.2656
 10
634.7316
 20
11.3886
 10
635.4538
 20
11.5937
 10
636.1461
 20
11.8807
 10
636.8084
 20
12.2498
 10
637.4408
 20
12.7008
 10
638.0432
 20
13.2338
 10
638.6157
 20
13.8487
 10
639.1346
 20
14.5164
 10
639.5843
 20
15.217
 10
639.9649
 20
15.9504
 10
640.2763
 20
16.7168
 10
640.5184
 20
17.516
 10
640.6914
 20
18.3482
 10
640.7952
 20
19.2133
 10
640.8298
 20
20.1114
 10
640.7957
 20
21.0048
 10
640.6934
 20
21.8604
 10
640.523
 20
22.6783
 10
640.2844
 20
23.4585
 10
639.9777
 20
24.2009
 10
639.6029
 20
24.9057
 10
639.16
 20
25.5727
 10
638.649
 20
26.202
 10
638.3878
 20
26.4818
 10
638.1162
 20
26.7467
 10
637.8343
 20
26.9966
 10
637.542
 20
27.2315
 10
637.2395
 20
27.4514
 10
636.9266
 20
27.6564
 10
636.6034
 20
27.8464
 10
636.2699
 20
28.0214
 10
635.9297
 20
28.1787
 10
635.5866
 20
28.315
 10
635.2404
 20
28.4302
 10
634.8914
 20
28.5245
 10
634.5396
 20
28.5977
 10
634.185
 20
28.6501
 10
633.8276
 20
28.6814
 10
633.4676
 20
28.6919
 10
633.1004
 20
28.6823
 10
632.726
 20
28.6536
 10
632.3442
 20
28.6057
 10
631.9551
 20
28.5386
 10
631.5585
 20
28.4525
 10
631.1543
 20
28.3472
 10
630.7426
 20
28.2228
 10
630.3232
 20
28.0793
  0
LWPOLYLINE
  5
8A
330
1F
100
AcDbEntity
  8
Layer 1
 62
     7
100
AcDbPolyline
 90
      129
 70
     1
 43
0.0
 10
653.6322
 20
34.7062
 10
654.0136
 20
34.4058
 10
654.3692
 20
34.0646
 10
654.6991
 20
33.6827
 10
655.0031
 20
33.2601
 10
655.2814
 20
32.7967
 10
655.5338
 20
32.2926
 10
655.7605
 20
31.7478
 10
655.9613
 20
31.1623
 10
656.1859
 20
30.3859
 10
656.3806
 20
29.5981
 10
656.5453
 20
28.7989
 10
656.68
 20
27.9884
 10
656.7848
 20
27.1664
 10
656.8597
 20
26.333
 10
656.9046
 20
25.4882
 10
656.9196
 20
24.632
 10
656.918
 20
24.4264
 10
656.9134
 20
24.2118
 10
656.9056
 20
23.9881
 10
656.8947
 20
23.7555
 10
656.8808
 20
23.5139
 10
656.8637
 20
23.2633
 10
656.8437
 20
23.0039
 10
656.8205
 20
22.7355
 10
656.7059
 20
21.7058
 10
656.5561
 20
20.733
 10
656.3712
 20
19.817
 10
656.1512
 20
18.9579
 10
655.8962
 20
18.1555
 10
655.606
 20
17.4099
 10
655.2808
 20
16.7212
 10
654.9205
 20
16.0892
 10
654.5918
 20
15.6135
 10
654.2455
 20
15.2011
 10
653.8816
 20
14.8523
 10
653.5002
 20
14.5668
 10
653.1011
 20
14.3448
 10
652.6846
 20
14.1862
 10
652.2505
 20
14.091
 10
651.7988
 20
14.0593
 10
651.2946
 20
14.0907
 10
650.8147
 20
14.185
 10
650.359
 20
14.3422
 10
649.9276
 20
14.5622
 10
649.5205
 20
14.845
 10
649.1376
 20
15.1908
 10
648.779
 20
15.5994
 10
648.4447
 20
16.0708
 10
648.3033
 20
16.2992
 10
648.1681
 20
16.5348
 10
648.0391
 20
16.7777
 10
647.9163
 20
17.0279
 10
647.7997
 20
17.2852
 10
647.6893
 20
17.5498
 10
647.5851
 20
17.8216
 10
647.4872
 20
18.1007
 10
647.3949
 20
18.384
 10
647.3084
 20
18.6691
 10
647.2275
 20
18.956
 10
647.1523
 20
19.2448
 10
647.0829
 20
19.5354
 10
647.0192
 20
19.8279
 10
646.9612
 20
20.1223
 10
646.9089
 20
20.4185
 10
646.8611
 20
20.7141
 10
646.8169
 20
21.0073
 10
646.7764
 20
21.2981
 10
646.7395
 20
21.5864
 10
646.7063
 20
21.8724
 10
646.6766
 20
22.156
 10
646.6506
 20
22.4372
 10
646.6281
 20
22.7161
 10
646.6087
 20
22.9993
 10
646.5919
 20
23.2931
 10
646.5777
 20
23.5976
 10
646.5661
 20
23.9126
 10
646.5571
 20
24.238
 10
646.5506
 20
24.5738
 10
646.5468
 20
24.9199
 10
646.5455
 20
25.2762
 10
646.5512
 20
25.6486
 10
646.5682
 20
26.0426
 10
646.5966
 20
26.4583
 10
646.6364
 20
26.8957
 10
646.6875
 20
27.355
 10
646.7499
 20
27.8361
 10
646.8237
 20
28.3394
 10
646.9089
 20
28.8647
 10
646.9609
 20
29.1563
 10
647.0182
 20
29.4474
 10
647.0806
 20
29.7379
 10
647.1483
 20
30.0278
 10
647.2211
 20
30.3171
 10
647.2991
 20
30.6059
 10
647.3822
 20
30.8941
 10
647.4705
 20
31.1817
 10
647.5647
 20
31.4654
 10
647.6656
 20
31.742
 10
647.7732
 20
32.0113
 10
647.8875
 20
32.2735
 10
648.0085
 20
32.5285
 10
648.1363
 20
32.7763
 10
648.2709
 20
33.0169
 10
648.4122
 20
33.2502
 10
648.5603
 20
33.4745
 10
648.7157
 20
33.6874
 10
648.8782
 20
33.8889
 10
649.0481
 20
34.079
 10
649.2251
 20
34.2577
 10
649.4094
 20
34.425
 10
649.6009
 20
34.5809
 10
649.7997
 20
34.7255
 10
650.0067
 20
34.8557
 10
650.2231
 20
34.9685
 10
650.4487
 20
35.064
 10
650.6836
 20
35.1421
 10
650.9277
 20
35.2029
 10
651.1811
 20
35.2463
 10
651.4437
 20
35.2723
 10
651.7156
 20
35.281
 10
651.9877
 20
35.272
 10
652.2505
 20
35.245
 10
652.504
 20
35.2
 10
652.7483
 20
35.1371
 10
652.9832
 20
35.0562
 10
653.2088
 20
34.9574
 10
653.4252
 20
34.8407
 10
653.6322
 20
34.7062
  0
LWPOLYLINE
  5
8B
330
1F
100
AcDbEntity
  8
Layer 1
 62
     7
100
AcDbPolyline
 90
       65
 70
     1
 43
0.0
 10
651.8314
 20
11.3396
 10
652.7959
 20
11.4105
 10
653.699
 20
11.6233
 10
654.5408
 20
11.9779
 10
655.3211
 20
12.4744
 10
656.0399
 20
13.1126
 10
656.6974
 20
13.8928
 10
657.2934
 20
14.8148
 10
657.828
 20
15.8786
 10
658.2035
 20
16.8071
 10
658.5289
 20
17.7869
 10
658.8043
 20
18.8183
 10
659.0297
 20
19.9011
 10
659.205
 20
21.0353
 10
659.3302
 20
22.221
 10
659.4054
 20
23.4583
 10
659.4304
 20
24.747
 10
659.4054
 20
26.0354
 10
659.3302
 20
27.2724
 10
659.205
 20
28.4579
 10
659.0297
 20
29.5921
 10
658.8043
 20
30.6748
 10
658.5289
 20
31.7061
 10
658.2035
 20
32.686
 10
657.828
 20
33.6144
 10
657.2934
 20
34.6782
 10
656.6974
 20
35.6002
 10
656.0399
 20
36.3804
 10
655.3211
 20
37.0187
 10
654.5408
 20
37.5152
 10
653.699
 20
37.8698
 10
652.7959
 20
38.0826
 10
651.8314
 20
38.1535
 10
650.8669
 20
38.0826
 10
649.9638
 20
37.8698
 10
649.122
 20
37.5152
 10
648.3417
 20
37.0187
 10
647.6229
 20
36.3804
 10
646.9654
 20
35.6002
 10
646.3694
 20
34.6782
 10
645.8348
 20
33.6144
 10
645.4593
 20
32.686
 10
645.1338
 20
31.7061
 10
644.8584
 20
30.6748
 10
644.633
 20
29.5921
 10
644.4577
 20
28.4579
 10
644.3325
 20
27.2724
 10
644.2573
 20
26.0354
 10
644.2323
 20
24.747
 10
644.2573
 20
23.4583
 10
644.3325
 20
22.221
 10
644.4577
 20
21.0353
 10
644.633
 20
19.9011
 10
644.8584
 20
18.8183
 10
645.1338
 20
17.7869
 10
645.4593
 20
16.8071
 10
645.8348
 20
15.8786
 10
646.3694
 20
14.8148
 10
646.9654
 20
13.8928
 10
647.6229
 20
13.1126
 10
648.3417
 20
12.4744
 10
649.122
 20
11.9779
 10
649.9638
 20
11.6233
 10
650.8669
 20
11.4105
 10
651.8314
 20
11.3396
  0
LWPOLYLINE
  5
8C
330
1F
100
AcDbEntity
  8
Layer 1
 62
     7
100
AcDbPolyline
 90
      165
 70
     1
 43
0.0
 10
681.996
 20
11.7608
 10
684.3085
 20
11.7608
 10
684.3085
 20
22.2949
 10
684.2897
 20
22.9942
 10
684.2331
 20
23.6607
 10
684.1389
 20
24.2942
 10
684.0071
 20
24.8948
 10
683.8375
 20
25.4625
 10
683.6303
 20
25.9973
 10
683.3853
 20
26.4992
 10
683.1027
 20
26.9682
 10
682.9448
 20
27.1925
 10
682.7772
 20
27.4054
 10
682.5999
 20
27.6069
 10
682.4127
 20
27.797
 10
682.2158
 20
27.9757
 10
682.0091
 20
28.143
 10
681.7925
 20
28.2989
 10
681.5661
 20
28.4435
 10
681.3255
 20
28.5734
 10
681.0664
 20
28.686
 10
680.7886
 20
28.7814
 10
680.4924
 20
28.8594
 10
680.1775
 20
28.92
 10
679.844
 20
28.9634
 10
679.4919
 20
28.9894
 10
679.1211
 20
28.9981
 10
678.7472
 20
28.9832
 10
678.3852
 20
28.9384
 10
678.035
 20
28.8636
 10
677.6967
 20
28.759
 10
677.3702
 20
28.6244
 10
677.0556
 20
28.4598
 10
676.7528
 20
28.2653
 10
676.4619
 20
28.0407
 10
676.2093
 20
27.817
 10
675.9681
 20
27.5767
 10
675.7384
 20
27.3198
 10
675.52
 20
27.0467
 10
675.313
 20
26.7573
 10
675.1174
 20
26.4519
 10
674.9332
 20
26.1308
 10
674.7603
 20
25.794
 10
674.6259
 20
26.1049
 10
674.4792
 20
26.4051
 10
674.3201
 20
26.6933
 10
674.1487
 20
26.9682
 10
673.9911
 20
27.1925
 10
673.8236
 20
27.4054
 10
673.6464
 20
27.6069
 10
673.4594
 20
27.797
 10
673.2625
 20
27.9757
 10
673.0558
 20
28.143
 10
672.8392
 20
28.2989
 10
672.6128
 20
28.4435
 10
672.3722
 20
28.5734
 10
672.113
 20
28.686
 10
671.8352
 20
28.7814
 10
671.5388
 20
28.8594
 10
671.2239
 20
28.92
 10
670.8904
 20
28.9634
 10
670.5384
 20
28.9894
 10
670.1679
 20
28.9981
 10
669.7938
 20
28.9832
 10
669.4315
 20
28.9384
 10
669.0812
 20
28.8636
 10
668.7428
 20
28.759
 10
668.4163
 20
28.6244
 10
668.1016
 20
28.4598
 10
667.7988
 20
28.2653
 10
667.5079
 20
28.0407
 10
667.2675
 20
27.8277
 10
667.0374
 20
27.6002
 10
666.8176
 20
27.3582
 10
666.6081
 20
27.1015
 10
666.4088
 20
26.8301
 10
666.2199
 20
26.544
 10
666.0412
 20
26.2431
 10
665.8729
 20
25.9274
 10
665.8729
 20
28.6155
 10
663.5604
 20
28.6155
 10
663.5604
 20
11.7608
 10
665.8729
 20
11.7608
 10
665.8729
 20
20.3861
 10
665.9266
 20
20.8887
 10
665.9968
 20
21.3716
 10
666.0835
 20
21.8351
 10
666.1868
 20
22.2793
 10
666.3065
 20
22.7043
 10
666.4427
 20
23.1103
 10
666.5954
 20
23.4974
 10
666.7646
 20
23.8658
 10
666.9025
 20
24.1278
 10
667.0517
 20
24.3779
 10
667.2123
 20
24.6161
 10
667.3841
 20
24.8424
 10
667.5674
 20
25.0568
 10
667.762
 20
25.2592
 10
667.968
 20
25.4496
 10
668.1854
 20
25.6281
 10
668.4106
 20
25.7895
 10
668.6399
 20
25.9294
 10
668.8733
 20
26.0478
 10
669.1108
 20
26.1447
 10
669.3524
 20
26.2201
 10
669.5981
 20
26.2739
 10
669.848
 20
26.3062
 10
670.102
 20
26.317
 10
670.3498
 20
26.3113
 10
670.581
 20
26.2943
 10
670.7957
 20
26.2659
 10
670.9939
 20
26.2262
 10
671.1755
 20
26.1751
 10
671.3406
 20
26.1126
 10
671.4892
 20
26.0388
 10
671.6212
 20
25.9537
 10
671.9543
 20
25.6681
 10
672.243
 20
25.3335
 10
672.4872
 20
24.9497
 10
672.687
 20
24.5169
 10
672.8423
 20
24.035
 10
672.9533
 20
23.504
 10
673.0198
 20
22.924
 10
673.042
 20
22.2949
 10
673.042
 20
11.7608
 10
675.3553
 20
11.7608
 10
675.3553
 20
22.2949
 10
675.3386
 20
22.9399
 10
675.4241
 20
23.1841
 10
675.5159
 20
23.4194
 10
675.614
 20
23.6464
 10
675.7186
 20
23.8658
 10
675.8563
 20
24.1278
 10
676.0054
 20
24.3779
 10
676.1659
 20
24.6161
 10
676.3378
 20
24.8424
 10
676.521
 20
25.0568
 10
676.7156
 20
25.2592
 10
676.9215
 20
25.4496
 10
677.1387
 20
25.6281
 10
677.3638
 20
25.7895
 10
677.5931
 20
25.9294
 10
677.8265
 20
26.0478
 10
678.064
 20
26.1447
 10
678.3057
 20
26.2201
 10
678.5514
 20
26.2739
 10
678.8013
 20
26.3062
 10
679.0553
 20
26.317
 10
679.303
 20
26.3113
 10
679.5343
 20
26.2943
 10
679.749
 20
26.2659
 10
679.9472
 20
26.2262
 10
680.1289
 20
26.1751
 10
680.2942
 20
26.1126
 10
680.4429
 20
26.0388
 10
680.5752
 20
25.9537
 10
680.9081
 20
25.6681
 10
681.1967
 20
25.3335
 10
681.4409
 20
24.9497
 10
681.6407
 20
24.5169
 10
681.7961
 20
24.035
 10
681.9072
 20
23.504
 10
681.9738
 20
22.924
 10
681.996
 20
22.2949
 10
681.996
 20
11.7608
  0
LWPOLYLINE
  5
8D
330
1F
100
AcDbEntity
  8
Layer 1
 62
     7
100
AcDbPolyline
 90
      165
 70
     1
 43
0.0
 10
707.2049
 20
11.7608
 10
709.5174
 20
11.7608
 10
709.5174
 20
22.2949
 10
709.4986
 20
22.9942
 10
709.442
 20
23.6607
 10
709.3478
 20
24.2942
 10
709.216
 20
24.8948
 10
709.0464
 20
25.4625
 10
708.8392
 20
25.9973
 10
708.5942
 20
26.4992
 10
708.3116
 20
26.9682
 10
708.1537
 20
27.1925
 10
707.9861
 20
27.4054
 10
707.8088
 20
27.6069
 10
707.6216
 20
27.797
 10
707.4247
 20
27.9757
 10
707.218
 20
28.143
 10
707.0014
 20
28.2989
 10
706.775
 20
28.4435
 10
706.5344
 20
28.5734
 10
706.2752
 20
28.686
 10
705.9975
 20
28.7814
 10
705.7012
 20
28.8594
 10
705.3864
 20
28.92
 10
705.0529
 20
28.9634
 10
704.7008
 20
28.9894
 10
704.33
 20
28.9981
 10
703.9561
 20
28.9832
 10
703.5941
 20
28.9384
 10
703.2439
 20
28.8636
 10
702.9056
 20
28.759
 10
702.5791
 20
28.6244
 10
702.2645
 20
28.4598
 10
701.9617
 20
28.2653
 10
701.6708
 20
28.0407
 10
701.4182
 20
27.817
 10
701.177
 20
27.5767
 10
700.9473
 20
27.3198
 10
700.7289
 20
27.0467
 10
700.5219
 20
26.7573
 10
700.3263
 20
26.4519
 10
700.1421
 20
26.1308
 10
699.9692
 20
25.794
 10
699.8348
 20
26.1049
 10
699.6881
 20
26.4051
 10
699.529
 20
26.6933
 10
699.3576
 20
26.9682
 10
699.2
 20
27.1925
 10
699.0325
 20
27.4054
 10
698.8553
 20
27.6069
 10
698.6683
 20
27.797
 10
698.4714
 20
27.9757
 10
698.2647
 20
28.143
 10
698.0481
 20
28.2989
 10
697.8217
 20
28.4435
 10
697.5811
 20
28.5734
 10
697.3218
 20
28.686
 10
697.044
 20
28.7814
 10
696.7477
 20
28.8594
 10
696.4327
 20
28.92
 10
696.0993
 20
28.9634
 10
695.7472
 20
28.9894
 10
695.3767
 20
28.9981
 10
695.0026
 20
28.9832
 10
694.6404
 20
28.9384
 10
694.2901
 20
28.8636
 10
693.9517
 20
28.759
 10
693.6252
 20
28.6244
 10
693.3105
 20
28.4598
 10
693.0077
 20
28.2653
 10
692.7168
 20
28.0407
 10
692.4764
 20
27.8277
 10
692.2463
 20
27.6002
 10
692.0265
 20
27.3582
 10
691.817
 20
27.1015
 10
691.6177
 20
26.8301
 10
691.4288
 20
26.544
 10
691.2501
 20
26.2431
 10
691.0818
 20
25.9274
 10
691.0818
 20
28.6155
 10
688.7693
 20
28.6155
 10
688.7693
 20
11.7608
 10
691.0818
 20
11.7608
 10
691.0818
 20
20.3861
 10
691.1355
 20
20.8887
 10
691.2057
 20
21.3716
 10
691.2924
 20
21.8351
 10
691.3957
 20
22.2793
 10
691.5154
 20
22.7043
 10
691.6516
 20
23.1103
 10
691.8043
 20
23.4974
 10
691.9735
 20
23.8658
 10
692.1114
 20
24.1278
 10
692.2606
 20
24.3779
 10
692.4212
 20
24.6161
 10
692.593
 20
24.8424
 10
692.7763
 20
25.0568
 10
692.9709
 20
25.2592
 10
693.1769
 20
25.4496
 10
693.3943
 20
25.6281
 10
693.6194
 20
25.7895
 10
693.8487
 20
25.9294
 10
694.0821
 20
26.0478
 10
694.3196
 20
26.1447
 10
694.5613
 20
26.2201
 10
694.807
 20
26.2739
 10
695.0569
 20
26.3062
 10
695.3109
 20
26.317
 10
695.5587
 20
26.3113
 10
695.7899
 20
26.2943
 10
696.0046
 20
26.2659
 10
696.2028
 20
26.2262
 10
696.3844
 20
26.1751
 10
696.5495
 20
26.1126
 10
696.6981
 20
26.0388
 10
696.8301
 20
25.9537
 10
697.1632
 20
25.6681
 10
697.4519
 20
25.3335
 10
697.6961
 20
24.9497
 10
697.8959
 20
24.5169
 10
698.0512
 20
24.035
 10
698.1622
 20
23.504
 10
698.2287
 20
22.924
 10
698.2509
 20
22.2949
 10
698.2509
 20
11.7608
 10
700.5641
 20
11.7608
 10
700.5641
 20
22.2949
 10
700.5475
 20
22.9399
 10
700.633
 20
23.1841
 10
700.7248
 20
23.4194
 10
700.8229
 20
23.6464
 10
700.9275
 20
23.8658
 10
701.0652
 20
24.1278
 10
701.2143
 20
24.3779
 10
701.3748
 20
24.6161
 10
701.5467
 20
24.8424
 10
701.7299
 20
25.0568
 10
701.9244
 20
25.2592
 10
702.1303
 20
25.4496
 10
702.3475
 20
25.6281
 10
702.5727
 20
25.7895
 10
702.802
 20
25.9294
 10
703.0354
 20
26.0478
 10
703.2729
 20
26.1447
 10
703.5145
 20
26.2201
 10
703.7603
 20
26.2739
 10
704.0101
 20
26.3062
 10
704.2641
 20
26.317
 10
704.5119
 20
26.3113
 10
704.7431
 20
26.2943
 10
704.9579
 20
26.2659
 10
705.1561
 20
26.2262
 10
705.3378
 20
26.1751
 10
705.5031
 20
26.1126
 10
705.6518
 20
26.0388
 10
705.7841
 20
25.9537
 10
706.117
 20
25.6681
 10
706.4056
 20
25.3335
 10
706.6498
 20
24.9497
 10
706.8496
 20
24.5169
 10
707.005
 20
24.035
 10
707.1161
 20
23.504
 10
707.1827
 20
22.924
 10
707.2049
 20
22.2949
 10
707.2049
 20
11.7608
  0
LWPOLYLINE
  5
8E
330
1F
100
AcDbEntity
  8
Layer 1
 62
     7
370
    18
100
AcDbPolyline
 90
        2
 70
     0
 43
0.0
 10
672.2472
 20
356.8361
 10
652.9713
 20
356.8361
  0
LWPOLYLINE
  5
8F
330
1F
100
AcDbEntity
  8
Layer 1
 62
     7
370
    18
100
AcDbPolyline
 90
        2
 70
     0
 43
0.0
 10
662.6089
 20
356.8415
 10
662.6089
 20
56.4738
  0
LWPOLYLINE
  5
90
330
1F
100
AcDbEntity
  8
Layer 1
 62
     7
370
    18
100
AcDbPolyline
 90
        2
 70
     0
 43
0.0
 10
672.2472
 20
-377.1521
 10
652.9713
 20
-377.1521
  0
LWPOLYLINE
  5
91
330
1F
100
AcDbEntity
  8
Layer 1
 62
     7
370
    18
100
AcDbPolyline
 90
        2
 70
     0
 43
0.0
 10
662.6089
 20
-377.1604
 10
662.6089
 20
-21.2596
  0
LWPOLYLINE
  5
92
330
1F
100
AcDbEntity
  8
Layer 1
 62
     7
100
AcDbPolyline
 90
      136
 70
     1
 43
0.0
 10
312.503
 20
413.2681
 10
314.0232
 20
420.2464
 10
322.1588
 20
420.2464
 10
322.1588
 20
422.9299
 10
312.2704
 20
422.9299
 10
309.6918
 20
411.2359
 10
312.2052
 20
409.9332
 10
312.5696
 20
410.2207
 10
312.9521
 20
410.4699
 10
313.3528
 20
410.6808
 10
313.7715
 20
410.8534
 10
314.2083
 20
410.9876
 10
314.6631
 20
411.0836
 10
315.136
 20
411.1411
 10
315.627
 20
411.1603
 10
316.1211
 20
411.1321
 10
316.5987
 20
411.0476
 10
317.0596
 20
410.9068
 10
317.504
 20
410.7096
 10
317.9319
 20
410.4561
 10
318.3432
 20
410.1462
 10
318.7379
 20
409.78
 10
319.1162
 20
409.3575
 10
319.4726
 20
408.8863
 10
319.7816
 20
408.3977
 10
320.0431
 20
407.8918
 10
320.257
 20
407.3685
 10
320.4235
 20
406.8278
 10
320.5424
 20
406.2698
 10
320.6137
 20
405.6944
 10
320.6375
 20
405.1017
 10
320.6132
 20
404.4885
 10
320.5403
 20
403.8998
 10
320.4189
 20
403.3357
 10
320.2489
 20
402.7962
 10
320.0304
 20
402.2813
 10
319.7633
 20
401.7909
 10
319.4477
 20
401.325
 10
319.0836
 20
400.8838
 10
318.8981
 20
400.6877
 10
318.7061
 20
400.5018
 10
318.5073
 20
400.3261
 10
318.3019
 20
400.1606
 10
318.0898
 20
400.0053
 10
317.871
 20
399.8601
 10
317.6456
 20
399.725
 10
317.4134
 20
399.6
 10
317.1711
 20
399.4876
 10
316.9153
 20
399.3902
 10
316.646
 20
399.3079
 10
316.3632
 20
399.2406
 10
316.067
 20
399.1883
 10
315.7573
 20
399.151
 10
315.4342
 20
399.1286
 10
315.0978
 20
399.1212
 10
314.7553
 20
399.138
 10
314.4133
 20
399.1883
 10
314.0716
 20
399.2721
 10
313.7305
 20
399.3896
 10
313.3897
 20
399.5405
 10
313.0495
 20
399.725
 10
312.7097
 20
399.943
 10
312.3704
 20
400.1946
 10
312.0438
 20
400.4731
 10
311.742
 20
400.772
 10
311.4651
 20
401.0911
 10
311.213
 20
401.4307
 10
310.9857
 20
401.7906
 10
310.7832
 20
402.1709
 10
310.6055
 20
402.5716
 10
310.4525
 20
402.9927
 10
308.2032
 20
402.1499
 10
308.424
 20
401.5186
 10
308.6816
 20
400.9191
 10
308.9758
 20
400.3515
 10
309.3068
 20
399.8157
 10
309.6745
 20
399.3117
 10
310.0789
 20
398.8394
 10
310.5201
 20
398.3988
 10
310.998
 20
397.9899
 10
311.5057
 20
397.617
 10
312.0248
 20
397.2938
 10
312.5554
 20
397.0203
 10
313.0973
 20
396.7965
 10
313.6507
 20
396.6225
 10
314.2155
 20
396.4982
 10
314.7917
 20
396.4236
 10
315.3793
 20
396.3987
 10
316.1622
 20
396.4397
 10
316.9151
 20
396.5629
 10
317.638
 20
396.768
 10
318.331
 20
397.0552
 10
318.994
 20
397.4245
 10
319.6269
 20
397.8757
 10
320.2298
 20
398.409
 10
320.8027
 20
399.0242
 10
321.3222
 20
399.6926
 10
321.7723
 20
400.394
 10
322.1532
 20
401.1283
 10
322.4647
 20
401.8956
 10
322.7069
 20
402.6957
 10
322.8799
 20
403.5287
 10
322.9837
 20
404.3945
 10
323.0183
 20
405.2932
 10
322.9842
 20
406.1875
 10
322.882
 20
407.0441
 10
322.7115
 20
407.8628
 10
322.4729
 20
408.6438
 10
322.1661
 20
409.3869
 10
321.7911
 20
410.0923
 10
321.3478
 20
410.7598
 10
320.8363
 20
411.3896
 10
320.5748
 20
411.6698
 10
320.3029
 20
411.9351
 10
320.0207
 20
412.1853
 10
319.7281
 20
412.4205
 10
319.4251
 20
412.6407
 10
319.1119
 20
412.8459
 10
318.7883
 20
413.0362
 10
318.4544
 20
413.2114
 10
318.1142
 20
413.3686
 10
317.7708
 20
413.5048
 10
317.4244
 20
413.62
 10
317.075
 20
413.7142
 10
316.7227
 20
413.7875
 10
316.3677
 20
413.8398
 10
316.01
 20
413.8711
 10
315.6498
 20
413.8816
 10
315.2823
 20
413.872
 10
314.9075
 20
413.8433
 10
314.5254
 20
413.7954
 10
314.1359
 20
413.7284
 10
313.739
 20
413.6421
 10
313.3345
 20
413.5367
 10
312.9226
 20
413.412
 10
312.503
 20
413.2681
  0
LWPOLYLINE
  5
93
330
1F
100
AcDbEntity
  8
Layer 1
 62
     7
100
AcDbPolyline
 90
       87
 70
     1
 43
0.0
 10
326.8541
 20
396.8585
 10
342.695
 20
396.8585
 10
342.695
 20
399.542
 10
332.4427
 20
399.542
 10
340.2805
 20
408.5525
 10
340.792
 20
409.2013
 10
341.2354
 20
409.8824
 10
341.6107
 20
410.5959
 10
341.9177
 20
411.3418
 10
342.1565
 20
412.12
 10
342.3271
 20
412.9306
 10
342.4295
 20
413.7736
 10
342.4636
 20
414.6489
 10
342.4287
 20
415.5438
 10
342.324
 20
416.4028
 10
342.1496
 20
417.2259
 10
341.9053
 20
418.0132
 10
341.5913
 20
418.7644
 10
341.2075
 20
419.4797
 10
340.7539
 20
420.1589
 10
340.2306
 20
420.802
 10
339.6496
 20
421.3999
 10
339.0426
 20
421.9179
 10
338.4097
 20
422.3562
 10
337.7509
 20
422.7148
 10
337.0662
 20
422.9935
 10
336.3557
 20
423.1927
 10
335.6193
 20
423.3121
 10
334.8572
 20
423.3519
 10
334.0659
 20
423.31
 10
333.304
 20
423.1842
 10
332.5716
 20
422.9745
 10
331.8687
 20
422.681
 10
331.1951
 20
422.3037
 10
330.5511
 20
421.8424
 10
329.9364
 20
421.2973
 10
329.3512
 20
420.6684
 10
328.8299
 20
419.9917
 10
328.3826
 20
419.2796
 10
328.0092
 20
418.5323
 10
327.7097
 20
417.7496
 10
327.4841
 20
416.9317
 10
327.3324
 20
416.0784
 10
327.2546
 20
415.1898
 10
327.2507
 20
414.2659
 10
329.5989
 20
414.2659
 10
329.5795
 20
414.8651
 10
329.6159
 20
415.4506
 10
329.7079
 20
416.0222
 10
329.8558
 20
416.5801
 10
330.0594
 20
417.1242
 10
330.3188
 20
417.6545
 10
330.634
 20
418.1712
 10
331.005
 20
418.6741
 10
331.4017
 20
419.1236
 10
331.819
 20
419.5132
 10
332.2571
 20
419.8427
 10
332.7158
 20
420.1124
 10
333.1953
 20
420.322
 10
333.6956
 20
420.4718
 10
334.2165
 20
420.5617
 10
334.7583
 20
420.5916
 10
335.2898
 20
420.5647
 10
335.801
 20
420.4839
 10
336.2922
 20
420.3492
 10
336.7631
 20
420.1606
 10
337.2139
 20
419.918
 10
337.6445
 20
419.6216
 10
338.0549
 20
419.2712
 10
338.4452
 20
418.8668
 10
338.8055
 20
418.4196
 10
339.1177
 20
417.9509
 10
339.382
 20
417.4608
 10
339.5983
 20
416.9492
 10
339.7665
 20
416.416
 10
339.8866
 20
415.8612
 10
339.9588
 20
415.2848
 10
339.9828
 20
414.6867
 10
339.9596
 20
414.0759
 10
339.8899
 20
413.4891
 10
339.7737
 20
412.9261
 10
339.611
 20
412.387
 10
339.4019
 20
411.8718
 10
339.1462
 20
411.3806
 10
338.844
 20
410.9132
 10
338.4952
 20
410.4699
 10
326.8541
 20
396.8585
  0
LWPOLYLINE
  5
94
330
1F
100
AcDbEntity
  8
Layer 1
 62
     7
100
AcDbPolyline
 90
      136
 70
     1
 43
0.0
 10
351.0284
 20
413.2681
 10
352.5486
 20
420.2464
 10
360.6842
 20
420.2464
 10
360.6842
 20
422.9299
 10
350.7959
 20
422.9299
 10
348.2173
 20
411.2359
 10
350.7307
 20
409.9332
 10
351.0951
 20
410.2207
 10
351.4776
 20
410.4699
 10
351.8782
 20
410.6808
 10
352.2969
 20
410.8534
 10
352.7337
 20
410.9876
 10
353.1886
 20
411.0836
 10
353.6615
 20
411.1411
 10
354.1525
 20
411.1603
 10
354.6466
 20
411.1321
 10
355.1242
 20
411.0476
 10
355.5851
 20
410.9068
 10
356.0295
 20
410.7096
 10
356.4574
 20
410.4561
 10
356.8687
 20
410.1462
 10
357.2634
 20
409.78
 10
357.6417
 20
409.3575
 10
357.9981
 20
408.8863
 10
358.3071
 20
408.3977
 10
358.5686
 20
407.8918
 10
358.7825
 20
407.3685
 10
358.949
 20
406.8278
 10
359.0679
 20
406.2698
 10
359.1392
 20
405.6944
 10
359.163
 20
405.1017
 10
359.1387
 20
404.4885
 10
359.0658
 20
403.8998
 10
358.9444
 20
403.3357
 10
358.7744
 20
402.7962
 10
358.5558
 20
402.2813
 10
358.2887
 20
401.7909
 10
357.9732
 20
401.325
 10
357.6091
 20
400.8838
 10
357.4236
 20
400.6877
 10
357.2315
 20
400.5018
 10
357.0328
 20
400.3261
 10
356.8274
 20
400.1606
 10
356.6153
 20
400.0053
 10
356.3965
 20
399.8601
 10
356.1711
 20
399.725
 10
355.9389
 20
399.6
 10
355.6966
 20
399.4876
 10
355.4408
 20
399.3902
 10
355.1714
 20
399.3079
 10
354.8887
 20
399.2406
 10
354.5924
 20
399.1883
 10
354.2828
 20
399.151
 10
353.9597
 20
399.1286
 10
353.6233
 20
399.1212
 10
353.2808
 20
399.138
 10
352.9387
 20
399.1883
 10
352.5971
 20
399.2721
 10
352.2559
 20
399.3896
 10
351.9152
 20
399.5405
 10
351.5749
 20
399.725
 10
351.2352
 20
399.943
 10
350.8959
 20
400.1946
 10
350.5693
 20
400.4731
 10
350.2675
 20
400.772
 10
349.9906
 20
401.0911
 10
349.7385
 20
401.4307
 10
349.5112
 20
401.7906
 10
349.3087
 20
402.1709
 10
349.1309
 20
402.5716
 10
348.978
 20
402.9927
 10
346.7286
 20
402.1499
 10
346.9495
 20
401.5186
 10
347.207
 20
400.9191
 10
347.5013
 20
400.3515
 10
347.8322
 20
399.8157
 10
348.1999
 20
399.3117
 10
348.6043
 20
398.8394
 10
349.0455
 20
398.3988
 10
349.5234
 20
397.9899
 10
350.0312
 20
397.617
 10
350.5503
 20
397.2938
 10
351.0809
 20
397.0203
 10
351.6228
 20
396.7965
 10
352.1762
 20
396.6225
 10
352.7409
 20
396.4982
 10
353.3171
 20
396.4236
 10
353.9047
 20
396.3987
 10
354.6876
 20
396.4397
 10
355.4405
 20
396.5629
 10
356.1635
 20
396.768
 10
356.8564
 20
397.0552
 10
357.5194
 20
397.4245
 10
358.1523
 20
397.8757
 10
358.7552
 20
398.409
 10
359.3281
 20
399.0242
 10
359.8476
 20
399.6926
 10
360.2978
 20
400.394
 10
360.6786
 20
401.1283
 10
360.9901
 20
401.8956
 10
361.2324
 20
402.6957
 10
361.4054
 20
403.5287
 10
361.5092
 20
404.3945
 10
361.5438
 20
405.2932
 10
361.5097
 20
406.1875
 10
361.4075
 20
407.0441
 10
361.237
 20
407.8628
 10
360.9984
 20
408.6438
 10
360.6916
 20
409.3869
 10
360.3166
 20
410.0923
 10
359.8733
 20
410.7598
 10
359.3618
 20
411.3896
 10
359.1003
 20
411.6698
 10
358.8284
 20
411.9351
 10
358.5462
 20
412.1853
 10
358.2536
 20
412.4205
 10
357.9506
 20
412.6407
 10
357.6374
 20
412.8459
 10
357.3138
 20
413.0362
 10
356.9799
 20
413.2114
 10
356.6397
 20
413.3686
 10
356.2963
 20
413.5048
 10
355.9498
 20
413.62
 10
355.6004
 20
413.7142
 10
355.2482
 20
413.7875
 10
354.8932
 20
413.8398
 10
354.5355
 20
413.8711
 10
354.1753
 20
413.8816
 10
353.8078
 20
413.872
 10
353.433
 20
413.8433
 10
353.0509
 20
413.7954
 10
352.6614
 20
413.7284
 10
352.2644
 20
413.6421
 10
351.86
 20
413.5367
 10
351.448
 20
413.412
 10
351.0284
 20
413.2681
  0
LWPOLYLINE
  5
95
330
1F
100
AcDbEntity
  8
Layer 1
 62
     7
100
AcDbPolyline
 90
       13
 70
     1
 43
0.0
 10
374.3421
 20
396.8585
 10
377.2847
 20
396.8585
 10
372.1917
 20
405.2932
 10
377.2847
 20
413.7292
 10
374.3421
 20
413.7292
 10
370.7041
 20
407.2485
 10
367.066
 20
413.7292
 10
364.1234
 20
413.7292
 10
369.2165
 20
405.3323
 10
364.1234
 20
396.8585
 10
367.066
 20
396.8585
 10
370.7041
 20
403.4148
 10
374.3421
 20
396.8585
  0
LWPOLYLINE
  5
96
330
1F
100
AcDbEntity
  8
Layer 1
 62
     7
100
AcDbPolyline
 90
      137
 70
     1
 43
0.0
 10
389.9005
 20
397.1458
 10
390.2385
 20
397.3213
 10
390.5661
 20
397.5124
 10
390.8835
 20
397.7191
 10
391.1905
 20
397.9414
 10
391.4872
 20
398.1793
 10
391.7735
 20
398.4327
 10
392.0494
 20
398.7018
 10
392.315
 20
398.9864
 10
392.838
 20
399.6299
 10
393.2913
 20
400.3093
 10
393.6749
 20
401.0246
 10
393.9889
 20
401.7759
 10
394.233
 20
402.5631
 10
394.4074
 20
403.3864
 10
394.5121
 20
404.2456
 10
394.547
 20
405.1408
 10
394.5116
 20
406.0362
 10
394.4054
 20
406.8969
 10
394.2285
 20
407.7228
 10
393.9807
 20
408.514
 10
393.6622
 20
409.2705
 10
393.273
 20
409.9923
 10
392.8131
 20
410.6794
 10
392.2824
 20
411.3317
 10
391.7335
 20
411.8949
 10
391.1496
 20
412.3909
 10
390.5305
 20
412.8199
 10
389.8764
 20
413.1818
 10
389.187
 20
413.4766
 10
388.4625
 20
413.7043
 10
387.7028
 20
413.865
 10
386.9079
 20
413.9585
 10
385.9159
 20
413.2681
 10
392.9594
 20
422.9299
 10
380.8565
 20
422.9299
 10
380.8565
 20
420.2464
 10
388.2641
 20
420.2464
 10
381.452
 20
411.0444
 10
383.2047
 20
409.3966
 10
383.6109
 20
409.8276
 10
384.0356
 20
410.2011
 10
384.4789
 20
410.5172
 10
384.9407
 20
410.7759
 10
385.4212
 20
410.9771
 10
385.9202
 20
411.1209
 10
386.4379
 20
411.2071
 10
386.9742
 20
411.2359
 10
387.5097
 20
411.2081
 10
388.0251
 20
411.1246
 10
388.5204
 20
410.9854
 10
388.9955
 20
410.7905
 10
389.4505
 20
410.5399
 10
389.8854
 20
410.2335
 10
390.3002
 20
409.8713
 10
390.6949
 20
409.4532
 10
391.0552
 20
408.9966
 10
391.3674
 20
408.5178
 10
391.6317
 20
408.0168
 10
391.8479
 20
407.4935
 10
392.0161
 20
406.9481
 10
392.1363
 20
406.3805
 10
392.2084
 20
405.7906
 10
392.2324
 20
405.1786
 10
392.2079
 20
404.5802
 10
392.1342
 20
404.0022
 10
392.0115
 20
403.4445
 10
391.8396
 20
402.9071
 10
391.6187
 20
402.39
 10
391.3486
 20
401.8932
 10
391.0295
 20
401.4167
 10
390.6612
 20
400.9606
 10
390.4797
 20
400.7644
 10
390.2903
 20
400.5784
 10
390.0933
 20
400.4026
 10
389.8884
 20
400.237
 10
389.6758
 20
400.0816
 10
389.4553
 20
399.9364
 10
389.2271
 20
399.8015
 10
388.991
 20
399.6768
 10
388.7452
 20
399.5643
 10
388.487
 20
399.4668
 10
388.2163
 20
399.3843
 10
387.9332
 20
399.3168
 10
387.6377
 20
399.2643
 10
387.3297
 20
399.2268
 10
387.0093
 20
399.2043
 10
386.6765
 20
399.1968
 10
386.3375
 20
399.2133
 10
385.9984
 20
399.2627
 10
385.6594
 20
399.3451
 10
385.3205
 20
399.4604
 10
384.9816
 20
399.6087
 10
384.6427
 20
399.79
 10
384.304
 20
400.0042
 10
383.9653
 20
400.2513
 10
383.6387
 20
400.5266
 10
383.3368
 20
400.8253
 10
383.0598
 20
401.1474
 10
382.8075
 20
401.4929
 10
382.5801
 20
401.8617
 10
382.3776
 20
402.254
 10
382.2001
 20
402.6696
 10
382.0474
 20
403.1086
 10
379.7981
 20
402.2268
 10
380.0118
 20
401.6017
 10
380.2643
 20
401.0067
 10
380.5555
 20
400.4417
 10
380.8854
 20
399.9068
 10
381.2541
 20
399.4018
 10
381.6616
 20
398.9268
 10
382.1078
 20
398.4818
 10
382.5929
 20
398.0667
 10
382.8313
 20
397.8847
 10
383.0754
 20
397.713
 10
383.3252
 20
397.5515
 10
383.5807
 20
397.4002
 10
383.8419
 20
397.2591
 10
384.1088
 20
397.1281
 10
384.3814
 20
397.0072
 10
384.6597
 20
396.8963
 10
384.9447
 20
396.7976
 10
385.2374
 20
396.712
 10
385.5377
 20
396.6397
 10
385.8458
 20
396.5806
 10
386.1616
 20
396.5346
 10
386.4852
 20
396.5017
 10
386.8165
 20
396.4821
 10
387.1557
 20
396.4755
 10
387.4988
 20
396.486
 10
387.8419
 20
396.5173
 10
388.185
 20
396.5696
 10
388.5281
 20
396.6429
 10
388.8712
 20
396.7371
 10
389.2143
 20
396.8524
 10
389.5574
 20
396.9886
 10
389.9005
 20
397.1458
  0
LWPOLYLINE
  5
97
330
1F
100
AcDbEntity
  8
Layer 1
 62
     7
100
AcDbPolyline
 90
       73
 70
     1
 43
0.0
 10
403.8225
 20
411.0835
 10
404.3501
 20
411.0553
 10
404.8581
 20
410.9708
 10
405.3465
 20
410.83
 10
405.8152
 20
410.6328
 10
406.2643
 20
410.3792
 10
406.6939
 20
410.0694
 10
407.1038
 20
409.7031
 10
407.4942
 20
409.2806
 10
407.8468
 20
408.8243
 10
408.1523
 20
408.3464
 10
408.4108
 20
407.8468
 10
408.6223
 20
407.3257
 10
408.7867
 20
406.7829
 10
408.9042
 20
406.2185
 10
408.9746
 20
405.6325
 10
408.9981
 20
405.0249
 10
408.9744
 20
404.4313
 10
408.9031
 20
403.858
 10
408.7844
 20
403.305
 10
408.618
 20
402.7724
 10
408.4041
 20
402.2602
 10
408.1427
 20
401.7684
 10
407.8336
 20
401.297
 10
407.4768
 20
400.846
 10
407.0939
 20
400.4416
 10
406.6893
 20
400.0912
 10
406.2631
 20
399.7948
 10
405.8151
 20
399.5522
 10
405.3454
 20
399.3636
 10
404.854
 20
399.2289
 10
404.341
 20
399.1481
 10
403.8062
 20
399.1212
 10
403.2819
 20
399.149
 10
402.7751
 20
399.2325
 10
402.2858
 20
399.3717
 10
401.814
 20
399.5666
 10
401.3598
 20
399.8172
 10
400.9232
 20
400.1236
 10
400.5042
 20
400.4858
 10
400.1029
 20
400.9039
 10
399.7385
 20
401.3558
 10
399.4226
 20
401.8299
 10
399.1554
 20
402.3262
 10
398.9367
 20
402.8447
 10
398.7667
 20
403.3854
 10
398.6452
 20
403.9483
 10
398.5723
 20
404.5335
 10
398.548
 20
405.1408
 10
398.5723
 20
405.7448
 10
398.6452
 20
406.3254
 10
398.7667
 20
406.8828
 10
398.9367
 20
407.4169
 10
399.1554
 20
407.9276
 10
399.4226
 20
408.415
 10
399.7385
 20
408.879
 10
400.1029
 20
409.3197
 10
400.2883
 20
409.5159
 10
400.4809
 20
409.7019
 10
400.6808
 20
409.8777
 10
400.8879
 20
410.0433
 10
401.1023
 20
410.1987
 10
401.324
 20
410.3439
 10
401.5531
 20
410.4788
 10
401.7894
 20
410.6035
 10
402.0308
 20
410.716
 10
402.2759
 20
410.8135
 10
402.5246
 20
410.896
 10
402.777
 20
410.9635
 10
403.033
 20
411.016
 10
403.2926
 20
411.0535
 10
403.5557
 20
411.076
 10
403.8225
 20
411.0835
  0
LWPOLYLINE
  5
98
330
1F
100
AcDbEntity
  8
Layer 1
 62
     7
100
AcDbPolyline
 90
       69
 70
     1
 43
0.0
 10
411.3463
 20
405.2164
 10
411.3101
 20
406.1398
 10
411.2016
 20
407.0211
 10
411.0208
 20
407.8605
 10
410.7677
 20
408.658
 10
410.4422
 20
409.4134
 10
410.0444
 20
410.1271
 10
409.5743
 20
410.7988
 10
409.0318
 20
411.4287
 10
408.477
 20
411.9588
 10
407.8835
 20
412.4239
 10
407.2512
 20
412.8237
 10
406.5802
 20
413.1583
 10
405.8704
 20
413.4277
 10
405.1219
 20
413.6318
 10
404.3345
 20
413.7705
 10
403.5084
 20
413.8438
 10
402.8478
 20
413.3449
 10
409.7261
 20
422.9299
 10
406.6836
 20
422.9299
 10
397.8873
 20
410.6224
 10
397.4919
 20
410.0233
 10
397.1493
 20
409.3995
 10
396.8594
 20
408.7511
 10
396.6223
 20
408.0781
 10
396.4379
 20
407.3806
 10
396.3062
 20
406.6585
 10
396.2271
 20
405.9119
 10
396.2008
 20
405.1408
 10
396.2354
 20
404.2518
 10
396.3392
 20
403.397
 10
396.5122
 20
402.5764
 10
396.7545
 20
401.7901
 10
397.066
 20
401.0379
 10
397.4469
 20
400.3199
 10
397.897
 20
399.6361
 10
398.4165
 20
398.9864
 10
398.9884
 20
398.3889
 10
399.5882
 20
397.871
 10
400.216
 20
397.4327
 10
400.8717
 20
397.0741
 10
401.5554
 20
396.7952
 10
402.2669
 20
396.5959
 10
403.0063
 20
396.4764
 10
403.7736
 20
396.4365
 10
404.5518
 20
396.4761
 10
405.299
 20
396.5947
 10
406.0152
 20
396.7925
 10
406.7003
 20
397.0694
 10
407.3544
 20
397.4254
 10
407.9775
 20
397.8604
 10
408.5696
 20
398.3744
 10
409.1307
 20
398.9675
 10
409.3803
 20
399.2707
 10
409.6164
 20
399.5857
 10
409.8391
 20
399.9128
 10
410.0483
 20
400.2518
 10
410.2441
 20
400.6028
 10
410.4265
 20
400.9658
 10
410.5954
 20
401.3408
 10
410.7508
 20
401.7279
 10
410.8903
 20
402.1263
 10
411.0112
 20
402.5355
 10
411.1136
 20
402.9554
 10
411.1973
 20
403.3861
 10
411.2625
 20
403.8276
 10
411.309
 20
404.2798
 10
411.337
 20
404.7427
 10
411.3463
 20
405.2164
  0
LWPOLYLINE
  5
99
330
1F
100
AcDbEntity
  8
Layer 1
 62
     7
100
AcDbPolyline
 90
      129
 70
     1
 43
0.0
 10
423.3014
 20
419.9012
 10
423.6833
 20
419.6006
 10
424.0394
 20
419.2592
 10
424.3696
 20
418.8769
 10
424.6739
 20
418.4539
 10
424.9523
 20
417.9902
 10
425.2048
 20
417.4857
 10
425.4315
 20
416.9405
 10
425.6323
 20
416.3547
 10
425.8573
 20
415.5775
 10
426.0522
 20
414.7888
 10
426.2171
 20
413.9887
 10
426.3521
 20
413.1772
 10
426.457
 20
412.3543
 10
426.5319
 20
411.52
 10
426.5768
 20
410.6743
 10
426.5918
 20
409.8173
 10
426.5902
 20
409.6116
 10
426.5855
 20
409.3968
 10
426.5777
 20
409.1731
 10
426.5668
 20
408.9405
 10
426.5528
 20
408.6988
 10
426.5359
 20
408.4482
 10
426.5159
 20
408.1886
 10
426.4929
 20
407.92
 10
426.378
 20
406.8892
 10
426.228
 20
405.9154
 10
426.043
 20
404.9985
 10
425.8229
 20
404.1386
 10
425.5676
 20
403.3355
 10
425.2773
 20
402.5894
 10
424.9519
 20
401.9003
 10
424.5913
 20
401.268
 10
424.2622
 20
400.7915
 10
423.9155
 20
400.3786
 10
423.5512
 20
400.0293
 10
423.1693
 20
399.7436
 10
422.7698
 20
399.5214
 10
422.3528
 20
399.3628
 10
421.9182
 20
399.2676
 10
421.4661
 20
399.2359
 10
420.9615
 20
399.2673
 10
420.4812
 20
399.3616
 10
420.0252
 20
399.5188
 10
419.5934
 20
399.7389
 10
419.186
 20
400.0219
 10
418.8028
 20
400.368
 10
418.444
 20
400.777
 10
418.1095
 20
401.2491
 10
417.968
 20
401.4776
 10
417.8326
 20
401.7135
 10
417.7035
 20
401.9566
 10
417.5805
 20
402.2071
 10
417.4636
 20
402.4647
 10
417.353
 20
402.7297
 10
417.2484
 20
403.0018
 10
417.15
 20
403.2812
 10
417.0579
 20
403.5647
 10
416.9713
 20
403.85
 10
416.8905
 20
404.1372
 10
416.8153
 20
404.4263
 10
416.7458
 20
404.7172
 10
416.6821
 20
405.0098
 10
416.6241
 20
405.3043
 10
416.5719
 20
405.6006
 10
416.524
 20
405.8966
 10
416.4798
 20
406.19
 10
416.4392
 20
406.4811
 10
416.4023
 20
406.7698
 10
416.3689
 20
407.0561
 10
416.3392
 20
407.3401
 10
416.3131
 20
407.6217
 10
416.2905
 20
407.9011
 10
416.271
 20
408.1843
 10
416.2542
 20
408.4783
 10
416.24
 20
408.783
 10
416.2284
 20
409.0983
 10
416.2194
 20
409.4241
 10
416.213
 20
409.7603
 10
416.2092
 20
410.1068
 10
416.2079
 20
410.4636
 10
416.2136
 20
410.8363
 10
416.2307
 20
411.2305
 10
416.2592
 20
411.6464
 10
416.299
 20
412.0841
 10
416.3502
 20
412.5436
 10
416.4128
 20
413.0251
 10
416.4867
 20
413.5286
 10
416.5719
 20
414.0542
 10
416.6239
 20
414.3464
 10
416.6811
 20
414.6379
 10
416.7436
 20
414.9288
 10
416.8113
 20
415.2191
 10
416.8841
 20
415.5087
 10
416.9622
 20
415.7977
 10
417.0454
 20
416.086
 10
417.1337
 20
416.3736
 10
417.2279
 20
416.6577
 10
417.3289
 20
416.9346
 10
417.4366
 20
417.2043
 10
417.551
 20
417.4668
 10
417.6721
 20
417.7221
 10
417.8
 20
417.9702
 10
417.9345
 20
418.2111
 10
418.0758
 20
418.4448
 10
418.2241
 20
418.6691
 10
418.3798
 20
418.882
 10
418.5427
 20
419.0835
 10
418.7129
 20
419.2736
 10
418.8903
 20
419.4523
 10
419.0749
 20
419.6196
 10
419.2667
 20
419.7755
 10
419.4656
 20
419.9201
 10
419.6728
 20
420.0507
 10
419.8892
 20
420.1639
 10
420.115
 20
420.2596
 10
420.35
 20
420.3379
 10
420.5944
 20
420.3987
 10
420.8481
 20
420.4422
 10
421.1111
 20
420.4682
 10
421.3835
 20
420.4769
 10
421.6556
 20
420.4679
 10
421.9185
 20
420.441
 10
422.1722
 20
420.396
 10
422.4167
 20
420.3331
 10
422.6518
 20
420.2522
 10
422.8777
 20
420.1532
 10
423.0942
 20
420.0362
 10
423.3014
 20
419.9012
  0
LWPOLYLINE
  5
9A
330
1F
100
AcDbEntity
  8
Layer 1
 62
     7
100
AcDbPolyline
 90
       65
 70
     1
 43
0.0
 10
421.4987
 20
396.5133
 10
422.4642
 20
396.5843
 10
423.3683
 20
396.7972
 10
424.2108
 20
397.1522
 10
424.9918
 20
397.6491
 10
425.7114
 20
398.288
 10
426.3695
 20
399.0688
 10
426.9661
 20
399.9916
 10
427.5013
 20
401.0564
 10
427.8772
 20
401.9859
 10
428.203
 20
402.9667
 10
428.4786
 20
403.999
 10
428.7042
 20
405.0828
 10
428.8796
 20
406.2181
 10
429.0049
 20
407.4049
 10
429.08
 20
408.6433
 10
429.1051
 20
409.9332
 10
429.08
 20
411.2228
 10
429.0049
 20
412.461
 10
428.8796
 20
413.6478
 10
428.7042
 20
414.7831
 10
428.4786
 20
415.8668
 10
428.203
 20
416.8991
 10
427.8772
 20
417.8798
 10
427.5013
 20
418.8089
 10
426.9661
 20
419.8737
 10
426.3695
 20
420.7965
 10
425.7114
 20
421.5773
 10
424.9918
 20
422.2162
 10
424.2108
 20
422.713
 10
423.3683
 20
423.068
 10
422.4642
 20
423.2809
 10
421.4987
 20
423.3519
 10
420.5332
 20
423.2809
 10
419.6292
 20
423.068
 10
418.7867
 20
422.713
 10
418.0057
 20
422.2162
 10
417.2863
 20
421.5773
 10
416.6284
 20
420.7965
 10
416.032
 20
419.8737
 10
415.4972
 20
418.8089
 10
415.1213
 20
417.8798
 10
414.7955
 20
416.8991
 10
414.5199
 20
415.8668
 10
414.2944
 20
414.7831
 10
414.1189
 20
413.6478
 10
413.9936
 20
412.461
 10
413.9185
 20
411.2228
 10
413.8934
 20
409.9332
 10
413.9185
 20
408.6433
 10
413.9936
 20
407.4049
 10
414.1189
 20
406.2181
 10
414.2944
 20
405.0828
 10
414.5199
 20
403.999
 10
414.7955
 20
402.9667
 10
415.1213
 20
401.9859
 10
415.4972
 20
401.0564
 10
416.032
 20
399.9916
 10
416.6284
 20
399.0688
 10
417.2863
 20
398.288
 10
418.0057
 20
397.6491
 10
418.7867
 20
397.1522
 10
419.6292
 20
396.7972
 10
420.5332
 20
396.5843
 10
421.4987
 20
396.5133
  0
LWPOLYLINE
  5
9B
330
1F
100
AcDbEntity
  8
Layer 1
 62
     7
100
AcDbPolyline
 90
      165
 70
     1
 43
0.0
 10
451.6908
 20
396.9354
 10
454.0053
 20
396.9354
 10
454.0053
 20
407.4791
 10
453.9865
 20
408.1793
 10
453.9299
 20
408.8464
 10
453.8357
 20
409.4805
 10
453.7038
 20
410.0816
 10
453.5342
 20
410.6498
 10
453.3269
 20
411.185
 10
453.0819
 20
411.6874
 10
452.7992
 20
412.1569
 10
452.6411
 20
412.3812
 10
452.4733
 20
412.5941
 10
452.2958
 20
412.7956
 10
452.1085
 20
412.9857
 10
451.9113
 20
413.1644
 10
451.7043
 20
413.3317
 10
451.4874
 20
413.4876
 10
451.2605
 20
413.6322
 10
451.0198
 20
413.7628
 10
450.7605
 20
413.876
 10
450.4826
 20
413.9717
 10
450.1861
 20
414.05
 10
449.8709
 20
414.1108
 10
449.5371
 20
414.1543
 10
449.1846
 20
414.1803
 10
448.8134
 20
414.189
 10
448.4392
 20
414.174
 10
448.0769
 20
414.129
 10
447.7264
 20
414.0541
 10
447.3879
 20
413.9492
 10
447.0612
 20
413.8143
 10
446.7464
 20
413.6495
 10
446.4434
 20
413.4549
 10
446.1522
 20
413.2303
 10
445.8995
 20
413.0061
 10
445.6582
 20
412.7653
 10
445.4281
 20
412.5081
 10
445.2094
 20
412.2347
 10
445.0021
 20
411.945
 10
444.8062
 20
411.6393
 10
444.6216
 20
411.3177
 10
444.4484
 20
410.9802
 10
444.3141
 20
411.2918
 10
444.1674
 20
411.5926
 10
444.0081
 20
411.8814
 10
443.8366
 20
412.1569
 10
443.6788
 20
412.3812
 10
443.5112
 20
412.5941
 10
443.3338
 20
412.7956
 10
443.1464
 20
412.9857
 10
442.9493
 20
413.1644
 10
442.7423
 20
413.3317
 10
442.5256
 20
413.4876
 10
442.299
 20
413.6322
 10
442.0582
 20
413.7628
 10
441.7988
 20
413.876
 10
441.5208
 20
413.9717
 10
441.2242
 20
414.05
 10
440.909
 20
414.1108
 10
440.5752
 20
414.1543
 10
440.2228
 20
414.1803
 10
439.8519
 20
414.189
 10
439.4776
 20
414.174
 10
439.1152
 20
414.129
 10
438.7646
 20
414.0541
 10
438.4259
 20
413.9492
 10
438.099
 20
413.8143
 10
437.784
 20
413.6495
 10
437.4809
 20
413.4549
 10
437.1897
 20
413.2303
 10
436.9491
 20
413.0171
 10
436.7187
 20
412.7894
 10
436.4986
 20
412.5472
 10
436.2888
 20
412.2903
 10
436.0893
 20
412.0187
 10
435.9002
 20
411.7323
 10
435.7215
 20
411.4311
 10
435.5532
 20
411.115
 10
435.5532
 20
413.8048
 10
433.2376
 20
413.8048
 10
433.2376
 20
396.9354
 10
435.5532
 20
396.9354
 10
435.5532
 20
405.5679
 10
435.6067
 20
406.0711
 10
435.6769
 20
406.5546
 10
435.7636
 20
407.0186
 10
435.8669
 20
407.4632
 10
435.9867
 20
407.8886
 10
436.1231
 20
408.295
 10
436.276
 20
408.6826
 10
436.4454
 20
409.0514
 10
436.5835
 20
409.3137
 10
436.7329
 20
409.564
 10
436.8936
 20
409.8023
 10
437.0657
 20
410.0287
 10
437.2492
 20
410.2431
 10
437.444
 20
410.4456
 10
437.6502
 20
410.6363
 10
437.8678
 20
410.8151
 10
438.0931
 20
410.9768
 10
438.3225
 20
411.1168
 10
438.5561
 20
411.2353
 10
438.7937
 20
411.3322
 10
439.0355
 20
411.4075
 10
439.2814
 20
411.4613
 10
439.5315
 20
411.4935
 10
439.7857
 20
411.5043
 10
440.0338
 20
411.4986
 10
440.2653
 20
411.4816
 10
440.4803
 20
411.4532
 10
440.6788
 20
411.4134
 10
440.8607
 20
411.3622
 10
441.026
 20
411.2996
 10
441.1747
 20
411.2256
 10
441.3069
 20
411.1402
 10
441.6404
 20
410.8544
 10
441.9294
 20
410.5196
 10
442.1739
 20
410.1357
 10
442.3739
 20
409.7027
 10
442.5294
 20
409.2206
 10
442.6405
 20
408.6893
 10
442.7071
 20
408.1088
 10
442.7293
 20
407.4791
 10
442.7293
 20
396.9354
 10
445.0439
 20
396.9354
 10
445.0439
 20
407.4791
 10
445.0276
 20
408.1241
 10
445.1131
 20
408.3687
 10
445.2051
 20
408.6043
 10
445.3034
 20
408.8315
 10
445.4079
 20
409.0514
 10
445.5457
 20
409.3137
 10
445.6949
 20
409.564
 10
445.8556
 20
409.8023
 10
446.0277
 20
410.0287
 10
446.2111
 20
410.2431
 10
446.4059
 20
410.4456
 10
446.6119
 20
410.6363
 10
446.8292
 20
410.8151
 10
447.0546
 20
410.9768
 10
447.2842
 20
411.1168
 10
447.5179
 20
411.2353
 10
447.7557
 20
411.3322
 10
447.9977
 20
411.4075
 10
448.2437
 20
411.4613
 10
448.4939
 20
411.4935
 10
448.7482
 20
411.5043
 10
448.9962
 20
411.4986
 10
449.2276
 20
411.4816
 10
449.4425
 20
411.4532
 10
449.6408
 20
411.4134
 10
449.8225
 20
411.3622
 10
449.9876
 20
411.2996
 10
450.1363
 20
411.2256
 10
450.2684
 20
411.1402
 10
450.6019
 20
410.8544
 10
450.8908
 20
410.5196
 10
451.1353
 20
410.1357
 10
451.3353
 20
409.7027
 10
451.4909
 20
409.2206
 10
451.6019
 20
408.6893
 10
451.6686
 20
408.1088
 10
451.6908
 20
407.4791
 10
451.6908
 20
396.9354
  0
LWPOLYLINE
  5
9C
330
1F
100
AcDbEntity
  8
Layer 1
 62
     7
100
AcDbPolyline
 90
      165
 70
     1
 43
0.0
 10
476.9224
 20
396.9354
 10
479.2369
 20
396.9354
 10
479.2369
 20
407.4791
 10
479.2181
 20
408.1793
 10
479.1615
 20
408.8464
 10
479.0673
 20
409.4805
 10
478.9354
 20
410.0816
 10
478.7658
 20
410.6498
 10
478.5585
 20
411.185
 10
478.3135
 20
411.6874
 10
478.0308
 20
412.1569
 10
477.8727
 20
412.3812
 10
477.7049
 20
412.5941
 10
477.5274
 20
412.7956
 10
477.3401
 20
412.9857
 10
477.1429
 20
413.1644
 10
476.9359
 20
413.3317
 10
476.719
 20
413.4876
 10
476.4921
 20
413.6322
 10
476.2514
 20
413.7628
 10
475.9921
 20
413.876
 10
475.7142
 20
413.9717
 10
475.4177
 20
414.05
 10
475.1025
 20
414.1108
 10
474.7687
 20
414.1543
 10
474.4162
 20
414.1803
 10
474.045
 20
414.189
 10
473.6708
 20
414.174
 10
473.3085
 20
414.129
 10
472.958
 20
414.0541
 10
472.6195
 20
413.9492
 10
472.2928
 20
413.8143
 10
471.978
 20
413.6495
 10
471.675
 20
413.4549
 10
471.3838
 20
413.2303
 10
471.1311
 20
413.0061
 10
470.8898
 20
412.7653
 10
470.6597
 20
412.5081
 10
470.441
 20
412.2347
 10
470.2337
 20
411.945
 10
470.0378
 20
411.6393
 10
469.8532
 20
411.3177
 10
469.68
 20
410.9802
 10
469.5457
 20
411.2918
 10
469.399
 20
411.5926
 10
469.2397
 20
411.8814
 10
469.0682
 20
412.1569
 10
468.9105
 20
412.3812
 10
468.7428
 20
412.5941
 10
468.5654
 20
412.7956
 10
468.3781
 20
412.9857
 10
468.1809
 20
413.1644
 10
467.974
 20
413.3317
 10
467.7572
 20
413.4876
 10
467.5306
 20
413.6322
 10
467.2898
 20
413.7628
 10
467.0304
 20
413.876
 10
466.7524
 20
413.9717
 10
466.4558
 20
414.05
 10
466.1406
 20
414.1108
 10
465.8068
 20
414.1543
 10
465.4545
 20
414.1803
 10
465.0836
 20
414.189
 10
464.7093
 20
414.174
 10
464.3468
 20
414.129
 10
463.9962
 20
414.0541
 10
463.6575
 20
413.9492
 10
463.3306
 20
413.8143
 10
463.0156
 20
413.6495
 10
462.7125
 20
413.4549
 10
462.4213
 20
413.2303
 10
462.1807
 20
413.0171
 10
461.9503
 20
412.7894
 10
461.7302
 20
412.5472
 10
461.5204
 20
412.2903
 10
461.3209
 20
412.0187
 10
461.1318
 20
411.7323
 10
460.9531
 20
411.4311
 10
460.7848
 20
411.115
 10
460.7848
 20
413.8048
 10
458.4692
 20
413.8048
 10
458.4692
 20
396.9354
 10
460.7848
 20
396.9354
 10
460.7848
 20
405.5679
 10
460.8384
 20
406.0711
 10
460.9085
 20
406.5546
 10
460.9952
 20
407.0186
 10
461.0985
 20
407.4632
 10
461.2183
 20
407.8886
 10
461.3547
 20
408.295
 10
461.5076
 20
408.6826
 10
461.677
 20
409.0514
 10
461.8151
 20
409.3137
 10
461.9645
 20
409.564
 10
462.1252
 20
409.8023
 10
462.2973
 20
410.0287
 10
462.4808
 20
410.2431
 10
462.6756
 20
410.4456
 10
462.8818
 20
410.6363
 10
463.0994
 20
410.8151
 10
463.3247
 20
410.9768
 10
463.5541
 20
411.1168
 10
463.7877
 20
411.2353
 10
464.0253
 20
411.3322
 10
464.2671
 20
411.4075
 10
464.513
 20
411.4613
 10
464.7631
 20
411.4935
 10
465.0173
 20
411.5043
 10
465.2654
 20
411.4986
 10
465.4969
 20
411.4816
 10
465.7119
 20
411.4532
 10
465.9104
 20
411.4134
 10
466.0923
 20
411.3622
 10
466.2576
 20
411.2996
 10
466.4064
 20
411.2256
 10
466.5386
 20
411.1402
 10
466.8721
 20
410.8544
 10
467.161
 20
410.5196
 10
467.4055
 20
410.1357
 10
467.6055
 20
409.7027
 10
467.7611
 20
409.2206
 10
467.8721
 20
408.6893
 10
467.9388
 20
408.1088
 10
467.961
 20
407.4791
 10
467.961
 20
396.9354
 10
470.2755
 20
396.9354
 10
470.2755
 20
407.4791
 10
470.2592
 20
408.1241
 10
470.3447
 20
408.3687
 10
470.4367
 20
408.6043
 10
470.535
 20
408.8315
 10
470.6395
 20
409.0514
 10
470.7773
 20
409.3137
 10
470.9265
 20
409.564
 10
471.0872
 20
409.8023
 10
471.2593
 20
410.0287
 10
471.4427
 20
410.2431
 10
471.6375
 20
410.4456
 10
471.8435
 20
410.6363
 10
472.0608
 20
410.8151
 10
472.2862
 20
410.9768
 10
472.5158
 20
411.1168
 10
472.7495
 20
411.2353
 10
472.9873
 20
411.3322
 10
473.2293
 20
411.4075
 10
473.4753
 20
411.4613
 10
473.7255
 20
411.4935
 10
473.9798
 20
411.5043
 10
474.2278
 20
411.4986
 10
474.4592
 20
411.4816
 10
474.6741
 20
411.4532
 10
474.8724
 20
411.4134
 10
475.0541
 20
411.3622
 10
475.2192
 20
411.2996
 10
475.3679
 20
411.2256
 10
475.5
 20
411.1402
 10
475.8335
 20
410.8544
 10
476.1224
 20
410.5196
 10
476.3669
 20
410.1357
 10
476.5669
 20
409.7027
 10
476.7225
 20
409.2206
 10
476.8335
 20
408.6893
 10
476.9002
 20
408.1088
 10
476.9224
 20
407.4791
 10
476.9224
 20
396.9354
  0
LWPOLYLINE
  5
9D
330
1F
100
AcDbEntity
  8
Layer 1
 62
     7
370
    18
100
AcDbPolyline
 90
        2
 70
     0
 43
0.0
 10
184.5206
 20
422.9843
 10
184.5206
 20
400.6455
  0
LWPOLYLINE
  5
9E
330
1F
100
AcDbEntity
  8
Layer 1
 62
     7
370
    18
100
AcDbPolyline
 90
        2
 70
     0
 43
0.0
 10
184.5171
 20
411.8145
 10
285.7014
 20
411.8145
  0
LWPOLYLINE
  5
9F
330
1F
100
AcDbEntity
  8
Layer 1
 62
     7
370
    18
100
AcDbPolyline
 90
        2
 70
     0
 43
0.0
 10
602.6327
 20
422.9843
 10
602.6327
 20
400.6455
  0
LWPOLYLINE
  5
A0
330
1F
100
AcDbEntity
  8
Layer 1
 62
     7
370
    18
100
AcDbPolyline
 90
        2
 70
     0
 43
0.0
 10
602.6362
 20
411.8145
 10
507.0306
 20
411.8145
  0
ENDSEC
  0
SECTION
  2
OBJECTS
  0
DICTIONARY
  5
C
330
0
100
AcDbDictionary
281
     1
  3
ACAD_DETAILVIEWSTYLE
350
A8
  3
ACAD_GROUP
350
D
  3
ACAD_LAYOUT
350
1A
  3
ACAD_MATERIAL
350
43
  3
ACAD_MLEADERSTYLE
350
5B
  3
ACAD_MLINESTYLE
350
17
  3
ACAD_PLOTSETTINGS
350
19
  3
ACAD_PLOTSTYLENAME
350
E
  3
ACAD_SCALELIST
350
47
  3
ACAD_SECTIONVIEWSTYLE
350
A9
  3
ACAD_TABLESTYLE
350
59
  3
ACAD_VISUALSTYLE
350
2A
  3
ACDB_RECOMPOSE_DATA
350
A5
  3
AcDbVariableDictionary
350
A1
  0
SUN
  5
5D
330
29
100
AcDbSun
 90
        1
290
     0
 63
     7
421
 16777215
 40
1.0
291
     1
 91
  2455826
 92
 54000000
292
     0
 70
     2
 71
   256
280
     1
  0
DICTIONARY
  5
A8
102
{ACAD_REACTORS
330
C
102
}
330
C
100
AcDbDictionary
281
     1
  0
DICTIONARY
  5
D
102
{ACAD_REACTORS
330
C
102
}
330
C
100
AcDbDictionary
281
     1
  0
DICTIONARY
  5
1A
102
{ACAD_REACTORS
330
C
102
}
330
C
100
AcDbDictionary
281
     1
  3
Layout1
350
1E
  3
Layout2
350
26
  3
Model
350
22
  0
DICTIONARY
  5
43
102
{ACAD_REACTORS
330
C
102
}
330
C
100
AcDbDictionary
281
     1
  3
ByBlock
350
45
  3
ByLayer
350
44
  3
Global
350
46
  0
DICTIONARY
  5
5B
102
{ACAD_REACTORS
330
C
102
}
330
C
100
AcDbDictionary
281
     1
  3
Standard
350
5C
  0
DICTIONARY
  5
17
102
{ACAD_REACTORS
330
C
102
}
330
C
100
AcDbDictionary
281
     1
  3
Standard
350
18
  0
DICTIONARY
  5
19
102
{ACAD_REACTORS
330
C
102
}
330
C
100
AcDbDictionary
281
     1
  0
ACDBDICTIONARYWDFLT
  5
E
102
{ACAD_REACTORS
330
C
102
}
330
C
100
AcDbDictionary
281
     1
  3
Normal
350
F
100
AcDbDictionaryWithDefault
340
F
  0
DICTIONARY
  5
47
102
{ACAD_REACTORS
330
C
102
}
330
C
100
AcDbDictionary
281
     1
  3
A0
350
48
  3
A1
350
49
  3
A2
350
4A
  3
A3
350
4B
  3
A4
350
4C
  3
A5
350
4D
  3
A6
350
4E
  3
A7
350
4F
  3
A8
350
50
  3
A9
350
51
  3
B1
350
52
  3
B2
350
53
  3
B3
350
54
  3
B4
350
55
  3
B5
350
56
  3
B6
350
57
  3
B7
350
58
  0
DICTIONARY
  5
A9
102
{ACAD_REACTORS
330
C
102
}
330
C
100
AcDbDictionary
281
     1
  0
DICTIONARY
  5
59
102
{ACAD_REACTORS
330
C
102
}
330
C
100
AcDbDictionary
281
     1
  3
Standard
350
5A
  0
DICTIONARY
  5
2A
102
{ACAD_REACTORS
330
C
102
}
330
C
100
AcDbDictionary
281
     1
  3
2dWireframe
350
2F
  3
Basic
350
32
  3
Brighten
350
36
  3
ColorChange
350
3A
  3
Conceptual
350
34
  3
Dim
350
35
  3
EdgeColorOff
350
3D
  3
Facepattern
350
39
  3
Flat
350
2B
  3
FlatWithEdges
350
2C
  3
Gouraud
350
2D
  3
GouraudWithEdges
350
2E
  3
Hidden
350
31
  3
JitterOff
350
3B
  3
Linepattern
350
38
  3
OverhangOff
350
3C
  3
Realistic
350
33
  3
Shaded
350
42
  3
Shaded with edges
350
41
  3
Shades of Gray
350
3E
  3
Sketchy
350
3F
  3
Thicken
350
37
  3
Wireframe
350
30
  3
X-Ray
350
40
  0
XRECORD
  5
A5
102
{ACAD_REACTORS
330
C
102
}
330
C
100
AcDbXrecord
280
     1
 90
        1
330
5A
  0
DICTIONARY
  5
A1
102
{ACAD_REACTORS
330
C
102
}
330
C
100
AcDbDictionary
281
     1
  3
CANNOSCALE
350
A2
  3
CMLEADERSTYLE
350
A7
  3
CTABLESTYLE
350
A6
  0
LAYOUT
  5
1E
102
{ACAD_REACTORS
330
1A
102
}
330
1A
100
AcDbPlotSettings
  1

  2
none_device
  4

  6

 40
0.0
 41
0.0
 42
0.0
 43
0.0
 44
0.0
 45
0.0
 46
0.0
 47
0.0
 48
0.0
 49
0.0
140
0.0
141
0.0
142
1.0
143
1.0
 70
   688
 72
     0
 73
     0
 74
     5
  7

 75
    16
 76
     0
 77
     2
 78
   300
147
1.0
148
0.0
149
0.0
100
AcDbLayout
  1
Layout1
 70
     1
 71
     1
 10
0.0
 20
0.0
 11
12.0
 21
9.0
 12
0.0
 22
0.0
 32
0.0
 14
1.000000000000000E+20
 24
1.000000000000000E+20
 34
1.000000000000000E+20
 15
-1.000000000000000E+20
 25
-1.000000000000000E+20
 35
-1.000000000000000E+20
146
0.0
 13
0.0
 23
0.0
 33
0.0
 16
1.0
 26
0.0
 36
0.0
 17
0.0
 27
1.0
 37
0.0
 76
     0
330
1B
  0
LAYOUT
  5
26
102
{ACAD_REACTORS
330
1A
102
}
330
1A
100
AcDbPlotSettings
  1

  2
none_device
  4

  6

 40
0.0
 41
0.0
 42
0.0
 43
0.0
 44
0.0
 45
0.0
 46
0.0
 47
0.0
 48
0.0
 49
0.0
140
0.0
141
0.0
142
1.0
143
1.0
 70
   688
 72
     0
 73
     0
 74
     5
  7

 75
    16
 76
     0
 77
     2
 78
   300
147
1.0
148
0.0
149
0.0
100
AcDbLayout
  1
Layout2
 70
     1
 71
     2
 10
0.0
 20
0.0
 11
0.0
 21
0.0
 12
0.0
 22
0.0
 32
0.0
 14
0.0
 24
0.0
 34
0.0
 15
0.0
 25
0.0
 35
0.0
146
0.0
 13
0.0
 23
0.0
 33
0.0
 16
1.0
 26
0.0
 36
0.0
 17
0.0
 27
1.0
 37
0.0
 76
     0
330
23
  0
LAYOUT
  5
22
102
{ACAD_REACTORS
330
1A
102
}
330
1A
100
AcDbPlotSettings
  1

  2
none_device
  4
Letter_(8.50_x_11.00_Inches)
  6

 40
6.35
 41
6.35
 42
6.35000508
 43
6.35000508
 44
215.9
 45
279.4
 46
0.0
 47
0.0
 48
0.0
 49
0.0
140
0.0
141
0.0
142
1.0
143
1.0
 70
  1712
 72
     0
 73
     0
 74
     0
  7

 75
     0
 76
     0
 77
     2
 78
   300
147
1.0
148
0.0
149
0.0
100
AcDbLayout
  1
Model
 70
     1
 71
     0
 10
0.0
 20
0.0
 11
12.0
 21
9.0
 12
0.0
 22
0.0
 32
0.0
 14
158.6284
 24
-440.1111
 34
0.0
 15
761.2857
 25
454.2461
 35
0.0
146
0.0
 13
0.0
 23
0.0
 33
0.0
 16
1.0
 26
0.0
 36
0.0
 17
0.0
 27
1.0
 37
0.0
 76
     0
330
1F
331
29
  0
MATERIAL
  5
45
102
{ACAD_REACTORS
330
43
102
}
330
43
100
AcDbMaterial
  1
ByBlock
 72
     1
 94
      127
  0
MATERIAL
  5
44
102
{ACAD_REACTORS
330
43
102
}
330
43
100
AcDbMaterial
  1
ByLayer
 72
     1
 94
      127
  0
MATERIAL
  5
46
102
{ACAD_REACTORS
330
43
102
}
330
43
100
AcDbMaterial
  1
Global
 72
     1
 94
      127
  0
MLEADERSTYLE
  5
5C
102
{ACAD_REACTORS
330
5B
102
}
330
5B
100
AcDbMLeaderStyle
179
     2
170
     2
171
     1
172
     0
 90
        2
 40
0.0
 41
0.0
173
     1
 91
-1056964608
340
14
 92
       -2
290
     1
 42
0.09
291
     1
 43
0.36
  3
Standard
341
0
 44
0.18
300

342
11
174
     1
178
     6
175
     1
176
     0
 93
-1056964608
 45
0.18
292
     0
297
     0
 46
0.18
343
0
 94
-1056964608
 47
1.0
 49
1.0
140
1.0
293
     1
141
0.0
294
     1
177
     0
142
1.0
295
     0
296
     0
143
0.125
271
     0
272
     9
273
     9
298
     0
  0
MLINESTYLE
  5
18
102
{ACAD_REACTORS
330
17
102
}
330
17
100
AcDbMlineStyle
  2
Standard
 70
     0
  3

 62
   256
 51
90.0
 52
90.0
 71
     2
 49
0.5
 62
   256
  6
BYLAYER
 49
-0.5
 62
   256
  6
BYLAYER
  0
ACDBPLACEHOLDER
  5
F
102
{ACAD_REACTORS
330
E
102
}
330
E
  0
SCALE
  5
48
102
{ACAD_REACTORS
330
47
102
}
330
47
100
AcDbScale
 70
     0
300
1:1
140
1.0
141
1.0
290
     1
  0
SCALE
  5
49
102
{ACAD_REACTORS
330
47
102
}
330
47
100
AcDbScale
 70
     0
300
1/128" = 1'-0"
140
0.0078125
141
12.0
290
     0
  0
SCALE
  5
4A
102
{ACAD_REACTORS
330
47
102
}
330
47
100
AcDbScale
 70
     0
300
1/64" = 1'-0"
140
0.015625
141
12.0
290
     0
  0
SCALE
  5
4B
102
{ACAD_REACTORS
330
47
102
}
330
47
100
AcDbScale
 70
     0
300
1/32" = 1'-0"
140
0.03125
141
12.0
290
     0
  0
SCALE
  5
4C
102
{ACAD_REACTORS
330
47
102
}
330
47
100
AcDbScale
 70
     0
300
1/16" = 1'-0"
140
0.0625
141
12.0
290
     0
  0
SCALE
  5
4D
102
{ACAD_REACTORS
330
47
102
}
330
47
100
AcDbScale
 70
     0
300
3/32" = 1'-0"
140
0.09375
141
12.0
290
     0
  0
SCALE
  5
4E
102
{ACAD_REACTORS
330
47
102
}
330
47
100
AcDbScale
 70
     0
300
1/8" = 1'-0"
140
0.125
141
12.0
290
     0
  0
SCALE
  5
4F
102
{ACAD_REACTORS
330
47
102
}
330
47
100
AcDbScale
 70
     0
300
3/16" = 1'-0"
140
0.1875
141
12.0
290
     0
  0
SCALE
  5
50
102
{ACAD_REACTORS
330
47
102
}
330
47
100
AcDbScale
 70
     0
300
1/4" = 1'-0"
140
0.25
141
12.0
290
     0
  0
SCALE
  5
51
102
{ACAD_REACTORS
330
47
102
}
330
47
100
AcDbScale
 70
     0
300
3/8" = 1'-0"
140
0.375
141
12.0
290
     0
  0
SCALE
  5
52
102
{ACAD_REACTORS
330
47
102
}
330
47
100
AcDbScale
 70
     0
300
1/2" = 1'-0"
140
0.5
141
12.0
290
     0
  0
SCALE
  5
53
102
{ACAD_REACTORS
330
47
102
}
330
47
100
AcDbScale
 70
     0
300
3/4" = 1'-0"
140
0.75
141
12.0
290
     0
  0
SCALE
  5
54
102
{ACAD_REACTORS
330
47
102
}
330
47
100
AcDbScale
 70
     0
300
1" = 1'-0"
140
1.0
141
12.0
290
     0
  0
SCALE
  5
55
102
{ACAD_REACTORS
330
47
102
}
330
47
100
AcDbScale
 70
     0
300
1-1/2" = 1'-0"
140
1.5
141
12.0
290
     0
  0
SCALE
  5
56
102
{ACAD_REACTORS
330
47
102
}
330
47
100
AcDbScale
 70
     0
300
3" = 1'-0"
140
3.0
141
12.0
290
     0
  0
SCALE
  5
57
102
{ACAD_REACTORS
330
47
102
}
330
47
100
AcDbScale
 70
     0
300
6" = 1'-0"
140
6.0
141
12.0
290
     0
  0
SCALE
  5
58
102
{ACAD_REACTORS
330
47
102
}
330
47
100
AcDbScale
 70
     0
300
1'-0" = 1'-0"
140
12.0
141
12.0
290
     0
  0
TABLESTYLE
  5
5A
102
{ACAD_REACTORS
330
59
102
}
102
{ACAD_XDICTIONARY
360
A3
102
}
330
59
100
AcDbTableStyle
  3
Standard
 70
     0
 71
     0
 40
0.06
 41
0.06
280
     0
281
     0
  7
Standard
140
0.18
170
     2
 62
     0
 63
   257
283
     0
 90
        4
 91
        0
  1

274
    -2
284
     1
 64
     0
275
    -2
285
     1
 65
     0
276
    -2
286
     1
 66
     0
277
    -2
287
     1
 67
     0
278
    -2
288
     1
 68
     0
279
    -2
289
     1
 69
     0
  7
Standard
140
0.25
170
     5
 62
     0
 63
   257
283
     0
 90
        4
 91
        0
  1

274
    -2
284
     1
 64
     0
275
    -2
285
     1
 65
     0
276
    -2
286
     1
 66
     0
277
    -2
287
     1
 67
     0
278
    -2
288
     1
 68
     0
279
    -2
289
     1
 69
     0
  7
Standard
140
0.18
170
     5
 62
     0
 63
   257
283
     0
 90
        4
 91
        0
  1

274
    -2
284
     1
 64
     0
275
    -2
285
     1
 65
     0
276
    -2
286
     1
 66
     0
277
    -2
287
     1
 67
     0
278
    -2
288
     1
 68
     0
279
    -2
289
     1
 69
     0
  0
VISUALSTYLE
  5
2F
102
{ACAD_REACTORS
330
2A
102
}
330
2A
100
AcDbVisualStyle
  2
2dWireframe
 70
     4
177
     3
291
     0
 70
    58
 90
        0
176
     1
 90
        2
176
     1
 90
        0
176
     1
 90
        0
176
     1
 40
0.6
176
     1
 40
30.0
176
     1
 62
     7
420
 16777215
176
     1
 90
        1
176
     1
 90
        4
176
     1
 62
     7
176
     1
 62
   257
176
     1
 90
        1
176
     1
 90
        1
176
     1
 40
1.0
176
     1
 90
        0
176
     1
 62
   257
176
     1
 40
1.0
176
     1
 90
        1
176
     1
 90
        6
176
     1
 90
        2
176
     1
 62
     7
176
     1
 90
        5
176
     1
 90
        0
176
     1
 90
        0
176
     1
290
     0
176
     1
 90
        1
176
     1
 40
0.0
176
     1
 90
        0
176
     1
290
     1
176
     1
290
     1
176
     1
290
     0
176
     1
290
     0
176
     1
290
     0
176
     1
290
     0
176
     1
290
     0
176
     1
290
     0
176
     1
290
     0
176
     1
 90
       50
176
     1
 40
0.0
176
     1
 40
1.0
176
     1
 90
        0
176
     1
 62
    18
420
        0
176
     1
 90
       50
176
     1
 90
        3
176
     1
 62
     5
420
      255
176
     1
290
     0
176
     1
 90
       50
176
     1
 90
       50
176
     1
 90
       50
176
     1
290
     0
176
     1
 90
       50
176
     1
 62
   256
176
     0
 40
1.0
176
     0
 90
        2
176
     1
  1
strokes_ogs.tif
176
     1
290
     0
176
     1
 40
1.0
176
     1
 40
1.0
176
     1
  0
VISUALSTYLE
  5
32
102
{ACAD_REACTORS
330
2A
102
}
330
2A
100
AcDbVisualStyle
  2
Basic
 70
     7
177
     3
291
     1
 70
    58
 90
        1
176
     1
 90
        0
176
     1
 90
        1
176
     1
 90
        0
176
     1
 40
0.6
176
     1
 40
30.0
176
     1
 62
     7
420
 16777215
176
     1
 90
        0
176
     1
 90
        4
176
     1
 62
     7
176
     1
 62
   257
176
     1
 90
        1
176
     1
 90
        1
176
     1
 40
1.0
176
     1
 90
        8
176
     1
 62
     7
176
     1
 40
1.0
176
     1
 90
        1
176
     1
 90
        6
176
     1
 90
        2
176
     1
 62
     7
176
     1
 90
        5
176
     1
 90
        0
176
     1
 90
        0
176
     1
290
     0
176
     1
 90
        1
176
     1
 40
0.0
176
     1
 90
        0
176
     1
290
     0
176
     1
290
     1
176
     1
290
     1
176
     1
290
     0
176
     1
290
     0
176
     1
290
     0
176
     1
290
     0
176
     1
290
     0
176
     1
290
     0
176
     1
 90
       50
176
     1
 40
0.0
176
     1
 40
1.0
176
     1
 90
        0
176
     1
 62
    18
420
        0
176
     1
 90
       50
176
     1
 90
        3
176
     1
 62
     5
420
      255
176
     1
290
     0
176
     1
 90
       50
176
     1
 90
       50
176
     1
 90
       50
176
     1
290
     0
176
     1
 90
       50
176
     1
 62
   256
176
     0
 40
1.0
176
     0
 90
        2
176
     1
  1
strokes_ogs.tif
176
     1
290
     0
176
     1
 40
1.0
176
     1
 40
1.0
176
     1
  0
VISUALSTYLE
  5
36
102
{ACAD_REACTORS
330
2A
102
}
330
2A
100
AcDbVisualStyle
  2
Brighten
 70
    12
177
     3
291
     1
 70
    58
 90
        2
176
     1
 90
        2
176
     1
 90
        0
176
     1
 90
        0
176
     1
 40
0.6
176
     1
 40
30.0
176
     1
 62
     7
420
 16777215
176
     1
 90
        1
176
     1
 90
        4
176
     1
 62
     7
176
     1
 62
   257
176
     1
 90
        1
176
     1
 90
        1
176
     1
 40
1.0
176
     1
 90
        8
176
     1
 62
     7
176
     1
 40
1.0
176
     1
 90
        1
176
     1
 90
        6
176
     1
 90
        2
176
     1
 62
     7
176
     1
 90
        5
176
     1
 90
        0
176
     1
 90
        0
176
     1
290
     0
176
     1
 90
        1
176
     1
 40
50.0
176
     1
 90
        0
176
     1
290
     0
176
     1
290
     1
176
     1
290
     1
176
     1
290
     0
176
     1
290
     0
176
     1
290
     0
176
     1
290
     0
176
     1
290
     0
176
     1
290
     0
176
     1
 90
       50
176
     1
 40
0.0
176
     1
 40
1.0
176
     1
 90
        0
176
     1
 62
    18
420
        0
176
     1
 90
       50
176
     1
 90
        3
176
     1
 62
     5
420
      255
176
     1
290
     0
176
     1
 90
       50
176
     1
 90
       50
176
     1
 90
       50
176
     1
290
     0
176
     1
 90
       50
176
     1
 62
   256
176
     0
 40
1.0
176
     0
 90
        2
176
     1
  1
strokes_ogs.tif
176
     1
290
     0
176
     1
 40
1.0
176
     1
 40
1.0
176
     1
  0
VISUALSTYLE
  5
3A
102
{ACAD_REACTORS
330
2A
102
}
330
2A
100
AcDbVisualStyle
  2
ColorChange
 70
    16
177
     3
291
     1
 70
    58
 90
        2
176
     1
 90
        2
176
     1
 90
        3
176
     1
 90
        0
176
     1
 40
0.6
176
     1
 40
30.0
176
     1
 62
     8
420
  8421504
176
     1
 90
        1
176
     1
 90
        4
176
     1
 62
     7
176
     1
 62
   257
176
     1
 90
        1
176
     1
 90
        1
176
     1
 40
1.0
176
     1
 90
        8
176
     1
 62
     8
420
  8421504
176
     1
 40
1.0
176
     1
 90
        1
176
     1
 90
        6
176
     1
 90
        2
176
     1
 62
     7
176
     1
 90
        5
176
     1
 90
        0
176
     1
 90
        0
176
     1
290
     0
176
     1
 90
        1
176
     1
 40
0.0
176
     1
 90
        0
176
     1
290
     0
176
     1
290
     1
176
     1
290
     1
176
     1
290
     0
176
     1
290
     0
176
     1
290
     0
176
     1
290
     0
176
     1
290
     0
176
     1
290
     0
176
     1
 90
       50
176
     1
 40
0.0
176
     1
 40
1.0
176
     1
 90
        0
176
     1
 62
    18
420
        0
176
     1
 90
       50
176
     1
 90
        3
176
     1
 62
     5
420
      255
176
     1
290
     0
176
     1
 90
       50
176
     1
 90
       50
176
     1
 90
       50
176
     1
290
     0
176
     1
 90
       50
176
     1
 62
   256
176
     0
 40
1.0
176
     0
 90
        2
176
     1
  1
strokes_ogs.tif
176
     1
290
     0
176
     1
 40
1.0
176
     1
 40
1.0
176
     1
  0
VISUALSTYLE
  5
34
102
{ACAD_REACTORS
330
2A
102
}
330
2A
100
AcDbVisualStyle
  2
Conceptual
 70
     9
177
     3
291
     0
 70
    58
 90
        3
176
     1
 90
        2
176
     1
 90
        0
176
     1
 90
        0
176
     1
 40
0.6
176
     1
 40
30.0
176
     1
 62
     7
420
 16777215
176
     1
 90
        2
176
     1
 90
        2
176
     1
 62
     7
176
     1
 62
   257
176
     1
 90
        1
176
     1
 90
        1
176
     1
 40
179.0
176
     1
 90
        8
176
     1
 62
     7
176
     1
 40
1.0
176
     1
 90
        1
176
     1
 90
        6
176
     1
 90
        2
176
     1
 62
     7
176
     1
 90
        3
176
     1
 90
        0
176
     1
 90
        0
176
     1
290
     0
176
     1
 90
        1
176
     1
 40
0.0
176
     1
 90
        0
176
     1
290
     0
176
     1
290
     1
176
     1
290
     1
176
     1
290
     0
176
     1
290
     0
176
     1
290
     0
176
     1
290
     0
176
     1
290
     0
176
     1
290
     0
176
     1
 90
       50
176
     1
 40
0.0
176
     1
 40
1.0
176
     1
 90
        0
176
     1
 62
    18
420
        0
176
     1
 90
       50
176
     1
 90
        3
176
     1
 62
     5
420
      255
176
     1
290
     0
176
     1
 90
       50
176
     1
 90
       50
176
     1
 90
       50
176
     1
290
     0
176
     1
 90
       50
176
     1
 62
   256
176
     0
 40
1.0
176
     0
 90
        2
176
     1
  1
strokes_ogs.tif
176
     1
290
     0
176
     1
 40
1.0
176
     1
 40
1.0
176
     1
  0
VISUALSTYLE
  5
35
102
{ACAD_REACTORS
330
2A
102
}
330
2A
100
AcDbVisualStyle
  2
Dim
 70
    11
177
     3
291
     1
 70
    58
 90
        2
176
     1
 90
        2
176
     1
 90
        0
176
     1
 90
        0
176
     1
 40
0.6
176
     1
 40
30.0
176
     1
 62
     7
420
 16777215
176
     1
 90
        1
176
     1
 90
        4
176
     1
 62
     7
176
     1
 62
   257
176
     1
 90
        1
176
     1
 90
        1
176
     1
 40
1.0
176
     1
 90
        8
176
     1
 62
     7
176
     1
 40
1.0
176
     1
 90
        1
176
     1
 90
        6
176
     1
 90
        2
176
     1
 62
     7
176
     1
 90
        5
176
     1
 90
        0
176
     1
 90
        0
176
     1
290
     0
176
     1
 90
        1
176
     1
 40
-50.0
176
     1
 90
        0
176
     1
290
     0
176
     1
290
     1
176
     1
290
     1
176
     1
290
     0
176
     1
290
     0
176
     1
290
     0
176
     1
290
     0
176
     1
290
     0
176
     1
290
     0
176
     1
 90
       50
176
     1
 40
0.0
176
     1
 40
1.0
176
     1
 90
        0
176
     1
 62
    18
420
        0
176
     1
 90
       50
176
     1
 90
        3
176
     1
 62
     5
420
      255
176
     1
290
     0
176
     1
 90
       50
176
     1
 90
       50
176
     1
 90
       50
176
     1
290
     0
176
     1
 90
       50
176
     1
 62
   256
176
     0
 40
1.0
176
     0
 90
        2
176
     1
  1
strokes_ogs.tif
176
     1
290
     0
176
     1
 40
1.0
176
     1
 40
1.0
176
     1
  0
VISUALSTYLE
  5
3D
102
{ACAD_REACTORS
330
2A
102
}
330
2A
100
AcDbVisualStyle
  2
EdgeColorOff
 70
    22
177
     3
291
     1
 70
    58
 90
        2
176
     0
 90
        2
176
     0
 90
        0
176
     0
 90
        0
176
     0
 40
0.6
176
     0
 40
30.0
176
     0
 62
     7
420
 16777215
176
     0
 90
        1
176
     0
 90
        4
176
     0
 62
     7
176
     0
 62
   257
176
     0
 90
        1
176
     0
 90
        1
176
     0
 40
1.0
176
     0
 90
        8
176
     2
 62
     7
176
     0
 40
1.0
176
     0
 90
        1
176
     0
 90
        6
176
     0
 90
        2
176
     0
 62
     7
176
     0
 90
        5
176
     0
 90
        0
176
     0
 90
        0
176
     0
290
     0
176
     0
 90
        1
176
     0
 40
0.0
176
     0
 90
        0
176
     0
290
     0
176
     0
290
     1
176
     0
290
     1
176
     0
290
     0
176
     0
290
     0
176
     0
290
     0
176
     0
290
     0
176
     0
290
     0
176
     0
290
     0
176
     0
 90
       50
176
     0
 40
0.0
176
     0
 40
1.0
176
     0
 90
        0
176
     0
 62
    18
420
        0
176
     0
 90
       50
176
     0
 90
        3
176
     0
 62
     5
420
      255
176
     0
290
     0
176
     0
 90
       50
176
     0
 90
       50
176
     0
 90
       50
176
     0
290
     0
176
     0
 90
       50
176
     0
 62
   256
176
     0
 40
1.0
176
     0
 90
        2
176
     0
  1
strokes_ogs.tif
176
     0
290
     0
176
     0
 40
1.0
176
     0
 40
1.0
176
     0
  0
VISUALSTYLE
  5
39
102
{ACAD_REACTORS
330
2A
102
}
330
2A
100
AcDbVisualStyle
  2
Facepattern
 70
    15
177
     3
291
     1
 70
    58
 90
        2
176
     1
 90
        2
176
     1
 90
        0
176
     1
 90
        0
176
     1
 40
0.6
176
     1
 40
30.0
176
     1
 62
     7
420
 16777215
176
     1
 90
        1
176
     1
 90
        4
176
     1
 62
     7
176
     1
 62
   257
176
     1
 90
        1
176
     1
 90
        1
176
     1
 40
1.0
176
     1
 90
        8
176
     1
 62
     7
176
     1
 40
1.0
176
     1
 90
        1
176
     1
 90
        6
176
     1
 90
        2
176
     1
 62
     7
176
     1
 90
        5
176
     1
 90
        0
176
     1
 90
        0
176
     1
290
     0
176
     1
 90
        1
176
     1
 40
0.0
176
     1
 90
        0
176
     1
290
     0
176
     1
290
     1
176
     1
290
     1
176
     1
290
     0
176
     1
290
     0
176
     1
290
     0
176
     1
290
     0
176
     1
290
     0
176
     1
290
     0
176
     1
 90
       50
176
     1
 40
0.0
176
     1
 40
1.0
176
     1
 90
        0
176
     1
 62
    18
420
        0
176
     1
 90
       50
176
     1
 90
        3
176
     1
 62
     5
420
      255
176
     1
290
     0
176
     1
 90
       50
176
     1
 90
       50
176
     1
 90
       50
176
     1
290
     0
176
     1
 90
       50
176
     1
 62
   256
176
     0
 40
1.0
176
     0
 90
        2
176
     1
  1
strokes_ogs.tif
176
     1
290
     0
176
     1
 40
1.0
176
     1
 40
1.0
176
     1
  0
VISUALSTYLE
  5
2B
102
{ACAD_REACTORS
330
2A
102
}
330
2A
100
AcDbVisualStyle
  2
Flat
 70
     0
177
     3
291
     1
 70
    58
 90
        2
176
     1
 90
        1
176
     1
 90
        1
176
     1
 90
        2
176
     1
 40
0.6
176
     1
 40
30.0
176
     1
 62
     7
420
 16777215
176
     1
 90
        0
176
     1
 90
        0
176
     1
 62
     7
176
     1
 62
   257
176
     1
 90
        1
176
     1
 90
        1
176
     1
 40
1.0
176
     1
 90
        8
176
     1
 62
     7
176
     1
 40
1.0
176
     1
 90
        1
176
     1
 90
        6
176
     1
 90
        2
176
     1
 62
     7
176
     1
 90
        5
176
     1
 90
        0
176
     1
 90
        0
176
     1
290
     0
176
     1
 90
       13
176
     1
 40
0.0
176
     1
 90
        0
176
     1
290
     0
176
     1
290
     1
176
     1
290
     1
176
     1
290
     0
176
     1
290
     0
176
     1
290
     0
176
     1
290
     0
176
     1
290
     0
176
     1
290
     0
176
     1
 90
       50
176
     1
 40
0.0
176
     1
 40
1.0
176
     1
 90
        0
176
     1
 62
    18
420
        0
176
     1
 90
       50
176
     1
 90
        3
176
     1
 62
     5
420
      255
176
     1
290
     0
176
     1
 90
       50
176
     1
 90
       50
176
     1
 90
       50
176
     1
290
     0
176
     1
 90
       50
176
     1
 62
   256
176
     0
 40
1.0
176
     0
 90
        2
176
     1
  1
strokes_ogs.tif
176
     1
290
     0
176
     1
 40
1.0
176
     1
 40
1.0
176
     1
  0
VISUALSTYLE
  5
2C
102
{ACAD_REACTORS
330
2A
102
}
330
2A
100
AcDbVisualStyle
  2
FlatWithEdges
 70
     1
177
     3
291
     1
 70
    58
 90
        2
176
     1
 90
        1
176
     1
 90
        1
176
     1
 90
        2
176
     1
 40
0.6
176
     1
 40
30.0
176
     1
 62
     7
420
 16777215
176
     1
 90
        1
176
     1
 90
        0
176
     1
 62
     7
176
     1
 62
   257
176
     1
 90
        1
176
     1
 90
        1
176
     1
 40
1.0
176
     1
 90
        0
176
     1
 62
   257
176
     1
 40
1.0
176
     1
 90
        1
176
     1
 90
        6
176
     1
 90
        2
176
     1
 62
     7
176
     1
 90
        5
176
     1
 90
        0
176
     1
 90
        0
176
     1
290
     0
176
     1
 90
       13
176
     1
 40
0.0
176
     1
 90
        0
176
     1
290
     0
176
     1
290
     1
176
     1
290
     1
176
     1
290
     0
176
     1
290
     0
176
     1
290
     0
176
     1
290
     0
176
     1
290
     0
176
     1
290
     0
176
     1
 90
       50
176
     1
 40
0.0
176
     1
 40
1.0
176
     1
 90
        0
176
     1
 62
    18
420
        0
176
     1
 90
       50
176
     1
 90
        3
176
     1
 62
     5
420
      255
176
     1
290
     0
176
     1
 90
       50
176
     1
 90
       50
176
     1
 90
       50
176
     1
290
     0
176
     1
 90
       50
176
     1
 62
   256
176
     0
 40
1.0
176
     0
 90
        2
176
     1
  1
strokes_ogs.tif
176
     1
290
     0
176
     1
 40
1.0
176
     1
 40
1.0
176
     1
  0
VISUALSTYLE
  5
2D
102
{ACAD_REACTORS
330
2A
102
}
330
2A
100
AcDbVisualStyle
  2
Gouraud
 70
     2
177
     3
291
     1
 70
    58
 90
        2
176
     1
 90
        2
176
     1
 90
        1
176
     1
 90
        2
176
     1
 40
0.6
176
     1
 40
30.0
176
     1
 62
     7
420
 16777215
176
     1
 90
        0
176
     1
 90
        0
176
     1
 62
     7
176
     1
 62
   257
176
     1
 90
        1
176
     1
 90
        1
176
     1
 40
1.0
176
     1
 90
        0
176
     1
 62
     7
176
     1
 40
1.0
176
     1
 90
        1
176
     1
 90
        6
176
     1
 90
        2
176
     1
 62
     7
176
     1
 90
        5
176
     1
 90
        0
176
     1
 90
        0
176
     1
290
     0
176
     1
 90
       13
176
     1
 40
0.0
176
     1
 90
        0
176
     1
290
     0
176
     1
290
     1
176
     1
290
     1
176
     1
290
     0
176
     1
290
     0
176
     1
290
     0
176
     1
290
     0
176
     1
290
     0
176
     1
290
     0
176
     1
 90
       50
176
     1
 40
0.0
176
     1
 40
1.0
176
     1
 90
        0
176
     1
 62
    18
420
        0
176
     1
 90
       50
176
     1
 90
        3
176
     1
 62
     5
420
      255
176
     1
290
     0
176
     1
 90
       50
176
     1
 90
       50
176
     1
 90
       50
176
     1
290
     0
176
     1
 90
       50
176
     1
 62
   256
176
     0
 40
1.0
176
     0
 90
        2
176
     1
  1
strokes_ogs.tif
176
     1
290
     0
176
     1
 40
1.0
176
     1
 40
1.0
176
     1
  0
VISUALSTYLE
  5
2E
102
{ACAD_REACTORS
330
2A
102
}
330
2A
100
AcDbVisualStyle
  2
GouraudWithEdges
 70
     3
177
     3
291
     1
 70
    58
 90
        2
176
     1
 90
        2
176
     1
 90
        1
176
     1
 90
        2
176
     1
 40
0.6
176
     1
 40
30.0
176
     1
 62
     7
420
 16777215
176
     1
 90
        1
176
     1
 90
        0
176
     1
 62
     7
176
     1
 62
   257
176
     1
 90
        1
176
     1
 90
        1
176
     1
 40
1.0
176
     1
 90
        0
176
     1
 62
   257
176
     1
 40
1.0
176
     1
 90
        1
176
     1
 90
        6
176
     1
 90
        2
176
     1
 62
     7
176
     1
 90
        5
176
     1
 90
        0
176
     1
 90
        0
176
     1
290
     0
176
     1
 90
       13
176
     1
 40
0.0
176
     1
 90
        0
176
     1
290
     0
176
     1
290
     1
176
     1
290
     1
176
     1
290
     0
176
     1
290
     0
176
     1
290
     0
176
     1
290
     0
176
     1
290
     0
176
     1
290
     0
176
     1
 90
       50
176
     1
 40
0.0
176
     1
 40
1.0
176
     1
 90
        0
176
     1
 62
    18
420
        0
176
     1
 90
       50
176
     1
 90
        3
176
     1
 62
     5
420
      255
176
     1
290
     0
176
     1
 90
       50
176
     1
 90
       50
176
     1
 90
       50
176
     1
290
     0
176
     1
 90
       50
176
     1
 62
   256
176
     0
 40
1.0
176
     0
 90
        2
176
     1
  1
strokes_ogs.tif
176
     1
290
     0
176
     1
 40
1.0
176
     1
 40
1.0
176
     1
  0
VISUALSTYLE
  5
31
102
{ACAD_REACTORS
330
2A
102
}
330
2A
100
AcDbVisualStyle
  2
Hidden
 70
     6
177
     3
291
     0
 70
    58
 90
        1
176
     1
 90
        2
176
     1
 90
        2
176
     1
 90
        0
176
     1
 40
0.6
176
     1
 40
30.0
176
     1
 62
     7
420
 16777215
176
     1
 90
        2
176
     1
 90
        2
176
     1
 62
     7
176
     1
 62
   257
176
     1
 90
        2
176
     1
 90
        1
176
     1
 40
40.0
176
     1
 90
        0
176
     1
 62
   257
176
     1
 40
1.0
176
     1
 90
        1
176
     1
 90
        6
176
     1
 90
        2
176
     1
 62
     7
176
     1
 90
        3
176
     1
 90
        0
176
     1
 90
        0
176
     1
290
     0
176
     1
 90
        1
176
     1
 40
0.0
176
     1
 90
        0
176
     1
290
     0
176
     1
290
     1
176
     1
290
     1
176
     1
290
     0
176
     1
290
     0
176
     1
290
     0
176
     1
290
     0
176
     1
290
     0
176
     1
290
     0
176
     1
 90
       50
176
     1
 40
0.0
176
     1
 40
1.0
176
     1
 90
        0
176
     1
 62
    18
420
        0
176
     1
 90
       50
176
     1
 90
        3
176
     1
 62
     5
420
      255
176
     1
290
     0
176
     1
 90
       50
176
     1
 90
       50
176
     1
 90
       50
176
     1
290
     0
176
     1
 90
       50
176
     1
 62
   256
176
     0
 40
1.0
176
     0
 90
        2
176
     1
  1
strokes_ogs.tif
176
     1
290
     0
176
     1
 40
1.0
176
     1
 40
1.0
176
     1
  0
VISUALSTYLE
  5
3B
102
{ACAD_REACTORS
330
2A
102
}
330
2A
100
AcDbVisualStyle
  2
JitterOff
 70
    20
177
     3
291
     1
 70
    58
 90
        2
176
     0
 90
        2
176
     0
 90
        0
176
     0
 90
        0
176
     0
 40
0.6
176
     0
 40
30.0
176
     0
 62
     7
420
 16777215
176
     0
 90
        1
176
     0
 90
        4
176
     0
 62
     7
176
     0
 62
   257
176
     0
 90
        1
176
     0
 90
        1
176
     0
 40
1.0
176
     0
 90
       10
176
     2
 62
     7
176
     0
 40
1.0
176
     0
 90
        1
176
     0
 90
        6
176
     0
 90
        2
176
     0
 62
     7
176
     0
 90
        5
176
     0
 90
        0
176
     0
 90
        0
176
     0
290
     0
176
     0
 90
        1
176
     0
 40
0.0
176
     0
 90
        0
176
     0
290
     0
176
     0
290
     1
176
     0
290
     1
176
     0
290
     0
176
     0
290
     0
176
     0
290
     0
176
     0
290
     0
176
     0
290
     0
176
     0
290
     0
176
     0
 90
       50
176
     0
 40
0.0
176
     0
 40
1.0
176
     0
 90
        0
176
     0
 62
    18
420
        0
176
     0
 90
       50
176
     0
 90
        3
176
     0
 62
     5
420
      255
176
     0
290
     0
176
     0
 90
       50
176
     0
 90
       50
176
     0
 90
       50
176
     0
290
     0
176
     0
 90
       50
176
     0
 62
   256
176
     0
 40
1.0
176
     0
 90
        2
176
     0
  1
strokes_ogs.tif
176
     0
290
     0
176
     0
 40
1.0
176
     0
 40
1.0
176
     0
  0
VISUALSTYLE
  5
38
102
{ACAD_REACTORS
330
2A
102
}
330
2A
100
AcDbVisualStyle
  2
Linepattern
 70
    14
177
     3
291
     1
 70
    58
 90
        2
176
     1
 90
        2
176
     1
 90
        0
176
     1
 90
        0
176
     1
 40
0.6
176
     1
 40
30.0
176
     1
 62
     7
420
 16777215
176
     1
 90
        1
176
     1
 90
        4
176
     1
 62
     7
176
     1
 62
   257
176
     1
 90
        7
176
     1
 90
        7
176
     1
 40
1.0
176
     1
 90
        8
176
     1
 62
     7
176
     1
 40
1.0
176
     1
 90
        1
176
     1
 90
        6
176
     1
 90
        2
176
     1
 62
     7
176
     1
 90
        5
176
     1
 90
        0
176
     1
 90
        0
176
     1
290
     0
176
     1
 90
        1
176
     1
 40
0.0
176
     1
 90
        0
176
     1
290
     0
176
     1
290
     1
176
     1
290
     1
176
     1
290
     0
176
     1
290
     0
176
     1
290
     0
176
     1
290
     0
176
     1
290
     0
176
     1
290
     0
176
     1
 90
       50
176
     1
 40
0.0
176
     1
 40
1.0
176
     1
 90
        0
176
     1
 62
    18
420
        0
176
     1
 90
       50
176
     1
 90
        3
176
     1
 62
     5
420
      255
176
     1
290
     0
176
     1
 90
       50
176
     1
 90
       50
176
     1
 90
       50
176
     1
290
     0
176
     1
 90
       50
176
     1
 62
   256
176
     0
 40
1.0
176
     0
 90
        2
176
     1
  1
strokes_ogs.tif
176
     1
290
     0
176
     1
 40
1.0
176
     1
 40
1.0
176
     1
  0
VISUALSTYLE
  5
3C
102
{ACAD_REACTORS
330
2A
102
}
330
2A
100
AcDbVisualStyle
  2
OverhangOff
 70
    21
177
     3
291
     1
 70
    58
 90
        2
176
     0
 90
        2
176
     0
 90
        0
176
     0
 90
        0
176
     0
 40
0.6
176
     0
 40
30.0
176
     0
 62
     7
420
 16777215
176
     0
 90
        1
176
     0
 90
        4
176
     0
 62
     7
176
     0
 62
   257
176
     0
 90
        1
176
     0
 90
        1
176
     0
 40
1.0
176
     0
 90
        9
176
     2
 62
     7
176
     0
 40
1.0
176
     0
 90
        1
176
     0
 90
        6
176
     0
 90
        2
176
     0
 62
     7
176
     0
 90
        5
176
     0
 90
        0
176
     0
 90
        0
176
     0
290
     0
176
     0
 90
        1
176
     0
 40
0.0
176
     0
 90
        0
176
     0
290
     0
176
     0
290
     1
176
     0
290
     1
176
     0
290
     0
176
     0
290
     0
176
     0
290
     0
176
     0
290
     0
176
     0
290
     0
176
     0
290
     0
176
     0
 90
       50
176
     0
 40
0.0
176
     0
 40
1.0
176
     0
 90
        0
176
     0
 62
    18
420
        0
176
     0
 90
       50
176
     0
 90
        3
176
     0
 62
     5
420
      255
176
     0
290
     0
176
     0
 90
       50
176
     0
 90
       50
176
     0
 90
       50
176
     0
290
     0
176
     0
 90
       50
176
     0
 62
   256
176
     0
 40
1.0
176
     0
 90
        2
176
     0
  1
strokes_ogs.tif
176
     0
290
     0
176
     0
 40
1.0
176
     0
 40
1.0
176
     0
  0
VISUALSTYLE
  5
33
102
{ACAD_REACTORS
330
2A
102
}
330
2A
100
AcDbVisualStyle
  2
Realistic
 70
     8
177
     3
291
     0
 70
    58
 90
        2
176
     1
 90
        3
176
     1
 90
        0
176
     1
 90
        2
176
     1
 40
0.6
176
     1
 40
30.0
176
     1
 62
     7
420
 16777215
176
     1
 90
        0
176
     1
 90
        0
176
     1
 62
     7
176
     1
 62
   257
176
     1
 90
        1
176
     1
 90
        1
176
     1
 40
1.0
176
     1
 90
        8
176
     1
 62
   257
176
     1
 40
1.0
176
     1
 90
        1
176
     1
 90
        6
176
     1
 90
        2
176
     1
 62
     7
176
     1
 90
        3
176
     1
 90
        0
176
     1
 90
        0
176
     1
290
     0
176
     1
 90
       13
176
     1
 40
0.0
176
     1
 90
        0
176
     1
290
     0
176
     1
290
     1
176
     1
290
     1
176
     1
290
     0
176
     1
290
     0
176
     1
290
     0
176
     1
290
     0
176
     1
290
     0
176
     1
290
     0
176
     1
 90
       50
176
     1
 40
0.0
176
     1
 40
1.0
176
     1
 90
        0
176
     1
 62
    18
420
        0
176
     1
 90
       50
176
     1
 90
        3
176
     1
 62
     5
420
      255
176
     1
290
     0
176
     1
 90
       50
176
     1
 90
       50
176
     1
 90
       50
176
     1
290
     0
176
     1
 90
       50
176
     1
 62
   256
176
     0
 40
1.0
176
     0
 90
        2
176
     1
  1
strokes_ogs.tif
176
     1
290
     0
176
     1
 40
1.0
176
     1
 40
1.0
176
     1
  0
VISUALSTYLE
  5
42
102
{ACAD_REACTORS
330
2A
102
}
330
2A
100
AcDbVisualStyle
  2
Shaded
 70
    27
177
     3
291
     0
 70
    58
 90
        2
176
     1
 90
        2
176
     1
 90
        1
176
     1
 90
        2
176
     1
 40
0.6
176
     1
 40
30.0
176
     1
 62
     7
420
 16777215
176
     1
 90
        0
176
     1
 90
        4
176
     1
 62
     7
176
     1
 62
   257
176
     1
 90
        1
176
     1
 90
        1
176
     1
 40
1.0
176
     1
 90
        8
176
     1
 62
   257
176
     1
 40
1.0
176
     1
 90
        1
176
     1
 90
        6
176
     1
 90
        2
176
     1
 62
     8
420
  7895160
176
     1
 90
        3
176
     1
 90
        0
176
     1
 90
        0
176
     1
290
     0
176
     1
 90
        5
176
     1
 40
0.0
176
     1
 90
        0
176
     1
290
     0
176
     1
290
     1
176
     1
290
     1
176
     1
290
     0
176
     1
290
     0
176
     1
290
     0
176
     1
290
     0
176
     1
290
     0
176
     1
290
     0
176
     1
 90
       50
176
     1
 40
0.0
176
     1
 40
1.0
176
     1
 90
        0
176
     1
 62
    18
420
        0
176
     1
 90
       50
176
     1
 90
        3
176
     1
 62
     5
420
      255
176
     1
290
     0
176
     1
 90
       50
176
     1
 90
       50
176
     1
 90
       50
176
     1
290
     0
176
     1
 90
       50
176
     1
 62
   256
176
     0
 40
1.0
176
     0
 90
        2
176
     1
  1
strokes_ogs.tif
176
     1
290
     0
176
     1
 40
1.0
176
     1
 40
1.0
176
     1
  0
VISUALSTYLE
  5
41
102
{ACAD_REACTORS
330
2A
102
}
330
2A
100
AcDbVisualStyle
  2
Shaded with edges
 70
    26
177
     3
291
     0
 70
    58
 90
        2
176
     1
 90
        2
176
     1
 90
        1
176
     1
 90
        2
176
     1
 40
0.6
176
     1
 40
30.0
176
     1
 62
     7
420
 16777215
176
     1
 90
        1
176
     1
 90
       10
176
     1
 62
     7
176
     1
 62
   257
176
     1
 90
        2
176
     1
 90
        1
176
     1
 40
1.0
176
     1
 90
        8
176
     1
 62
   257
176
     1
 40
1.0
176
     1
 90
        1
176
     1
 90
        6
176
     1
 90
        2
176
     1
 62
     7
176
     1
 90
        3
176
     1
 90
        0
176
     1
 90
        0
176
     1
290
     0
176
     1
 90
        5
176
     1
 40
0.0
176
     1
 90
        0
176
     1
290
     0
176
     1
290
     1
176
     1
290
     1
176
     1
290
     0
176
     1
290
     0
176
     1
290
     0
176
     1
290
     0
176
     1
290
     0
176
     1
290
     0
176
     1
 90
       50
176
     1
 40
0.0
176
     1
 40
1.0
176
     1
 90
        0
176
     1
 62
    18
420
        0
176
     1
 90
       50
176
     1
 90
        3
176
     1
 62
     5
420
      255
176
     1
290
     0
176
     1
 90
       50
176
     1
 90
       50
176
     1
 90
       50
176
     1
290
     0
176
     1
 90
       50
176
     1
 62
   256
176
     0
 40
1.0
176
     0
 90
        2
176
     1
  1
strokes_ogs.tif
176
     1
290
     0
176
     1
 40
1.0
176
     1
 40
1.0
176
     1
  0
VISUALSTYLE
  5
3E
102
{ACAD_REACTORS
330
2A
102
}
330
2A
100
AcDbVisualStyle
  2
Shades of Gray
 70
    23
177
     3
291
     0
 70
    58
 90
        2
176
     1
 90
        2
176
     1
 90
        3
176
     1
 90
        0
176
     1
 40
0.6
176
     1
 40
30.0
176
     1
 62
     7
420
 16777215
176
     1
 90
        2
176
     1
 90
        2
176
     1
 62
     7
176
     1
 62
     7
176
     1
 90
        1
176
     1
 90
        1
176
     1
 40
40.0
176
     1
 90
        8
176
     1
 62
     7
176
     1
 40
1.0
176
     1
 90
        1
176
     1
 90
        6
176
     1
 90
        2
176
     1
 62
     7
176
     1
 90
        3
176
     1
 90
        0
176
     1
 90
        0
176
     1
290
     0
176
     1
 90
        1
176
     1
 40
0.0
176
     1
 90
        0
176
     1
290
     0
176
     1
290
     1
176
     1
290
     1
176
     1
290
     0
176
     1
290
     0
176
     1
290
     0
176
     1
290
     0
176
     1
290
     0
176
     1
290
     0
176
     1
 90
       50
176
     1
 40
0.0
176
     1
 40
1.0
176
     1
 90
        0
176
     1
 62
    18
420
        0
176
     1
 90
       50
176
     1
 90
        3
176
     1
 62
     5
420
      255
176
     1
290
     0
176
     1
 90
       50
176
     1
 90
       50
176
     1
 90
       50
176
     1
290
     0
176
     1
 90
       50
176
     1
 62
   256
176
     0
 40
1.0
176
     0
 90
        2
176
     1
  1
strokes_ogs.tif
176
     1
290
     0
176
     1
 40
1.0
176
     1
 40
1.0
176
     1
  0
VISUALSTYLE
  5
3F
102
{ACAD_REACTORS
330
2A
102
}
330
2A
100
AcDbVisualStyle
  2
Sketchy
 70
    24
177
     3
291
     0
 70
    58
 90
        1
176
     1
 90
        2
176
     1
 90
        2
176
     1
 90
        0
176
     1
 40
0.6
176
     1
 40
30.0
176
     1
 62
     7
420
 16777215
176
     1
 90
        2
176
     1
 90
        2
176
     1
 62
     7
176
     1
 62
     7
176
     1
 90
        1
176
     1
 90
        1
176
     1
 40
40.0
176
     1
 90
       11
176
     1
 62
     7
176
     1
 40
1.0
176
     1
 90
        1
176
     1
 90
        6
176
     1
 90
        2
176
     1
 62
     7
176
     1
 90
        6
176
     1
 90
        0
176
     1
 90
        0
176
     1
290
     0
176
     1
 90
        1
176
     1
 40
0.0
176
     1
 90
        0
176
     1
290
     0
176
     1
290
     1
176
     1
290
     1
176
     1
290
     0
176
     1
290
     0
176
     1
290
     0
176
     1
290
     0
176
     1
290
     0
176
     1
290
     0
176
     1
 90
       50
176
     1
 40
0.0
176
     1
 40
1.0
176
     1
 90
        0
176
     1
 62
    18
420
        0
176
     1
 90
       50
176
     1
 90
        3
176
     1
 62
     5
420
      255
176
     1
290
     0
176
     1
 90
       50
176
     1
 90
       50
176
     1
 90
       50
176
     1
290
     0
176
     1
 90
       50
176
     1
 62
   256
176
     0
 40
1.0
176
     0
 90
        2
176
     1
  1
strokes_ogs.tif
176
     1
290
     0
176
     1
 40
1.0
176
     1
 40
1.0
176
     1
  0
VISUALSTYLE
  5
37
102
{ACAD_REACTORS
330
2A
102
}
330
2A
100
AcDbVisualStyle
  2
Thicken
 70
    13
177
     3
291
     1
 70
    58
 90
        2
176
     1
 90
        2
176
     1
 90
        0
176
     1
 90
        0
176
     1
 40
0.6
176
     1
 40
30.0
176
     1
 62
     7
420
 16777215
176
     1
 90
        1
176
     1
 90
        4
176
     1
 62
     7
176
     1
 62
   257
176
     1
 90
        1
176
     1
 90
        1
176
     1
 40
1.0
176
     1
 90
       12
176
     1
 62
     7
176
     1
 40
1.0
176
     1
 90
        1
176
     1
 90
        6
176
     1
 90
        2
176
     1
 62
     7
176
     1
 90
        5
176
     1
 90
        0
176
     1
 90
        0
176
     1
290
     0
176
     1
 90
        1
176
     1
 40
0.0
176
     1
 90
        0
176
     1
290
     0
176
     1
290
     1
176
     1
290
     1
176
     1
290
     0
176
     1
290
     0
176
     1
290
     0
176
     1
290
     0
176
     1
290
     0
176
     1
290
     0
176
     1
 90
       50
176
     1
 40
0.0
176
     1
 40
1.0
176
     1
 90
        0
176
     1
 62
    18
420
        0
176
     1
 90
       50
176
     1
 90
        3
176
     1
 62
     5
420
      255
176
     1
290
     0
176
     1
 90
       50
176
     1
 90
       50
176
     1
 90
       50
176
     1
290
     0
176
     1
 90
       50
176
     1
 62
   256
176
     0
 40
1.0
176
     0
 90
        2
176
     1
  1
strokes_ogs.tif
176
     1
290
     0
176
     1
 40
1.0
176
     1
 40
1.0
176
     1
  0
VISUALSTYLE
  5
30
102
{ACAD_REACTORS
330
2A
102
}
330
2A
100
AcDbVisualStyle
  2
Wireframe
 70
     5
177
     3
291
     0
 70
    58
 90
        0
176
     1
 90
        2
176
     1
 90
        0
176
     1
 90
        0
176
     1
 40
0.6
176
     1
 40
30.0
176
     1
 62
     7
420
 16777215
176
     1
 90
        1
176
     1
 90
        4
176
     1
 62
     7
176
     1
 62
   257
176
     1
 90
        1
176
     1
 90
        1
176
     1
 40
1.0
176
     1
 90
        0
176
     1
 62
   257
176
     1
 40
1.0
176
     1
 90
        1
176
     1
 90
        6
176
     1
 90
        2
176
     1
 62
     7
176
     1
 90
        3
176
     1
 90
        0
176
     1
 90
        0
176
     1
290
     0
176
     1
 90
        1
176
     1
 40
0.0
176
     1
 90
        0
176
     1
290
     0
176
     1
290
     1
176
     1
290
     1
176
     1
290
     0
176
     1
290
     0
176
     1
290
     0
176
     1
290
     0
176
     1
290
     0
176
     1
290
     0
176
     1
 90
       50
176
     1
 40
0.0
176
     1
 40
1.0
176
     1
 90
        0
176
     1
 62
    18
420
        0
176
     1
 90
       50
176
     1
 90
        3
176
     1
 62
     5
420
      255
176
     1
290
     0
176
     1
 90
       50
176
     1
 90
       50
176
     1
 90
       50
176
     1
290
     0
176
     1
 90
       50
176
     1
 62
   256
176
     0
 40
1.0
176
     0
 90
        2
176
     1
  1
strokes_ogs.tif
176
     1
290
     0
176
     1
 40
1.0
176
     1
 40
1.0
176
     1
  0
VISUALSTYLE
  5
40
102
{ACAD_REACTORS
330
2A
102
}
330
2A
100
AcDbVisualStyle
  2
X-Ray
 70
    25
177
     3
291
     0
 70
    58
 90
        2
176
     1
 90
        2
176
     1
 90
        1
176
     1
 90
        1
176
     1
 40
0.5
176
     1
 40
30.0
176
     1
 62
     7
420
 16777215
176
     1
 90
        1
176
     1
 90
        0
176
     1
 62
     7
176
     1
 62
   257
176
     1
 90
        1
176
     1
 90
        1
176
     1
 40
1.0
176
     1
 90
        8
176
     1
 62
     7
176
     1
 40
1.0
176
     1
 90
        1
176
     1
 90
        6
176
     1
 90
        2
176
     1
 62
     7
176
     1
 90
        3
176
     1
 90
        0
176
     1
 90
        0
176
     1
290
     0
176
     1
 90
       13
176
     1
 40
0.0
176
     1
 90
        0
176
     1
290
     0
176
     1
290
     1
176
     1
290
     1
176
     1
290
     0
176
     1
290
     0
176
     1
290
     0
176
     1
290
     0
176
     1
290
     0
176
     1
290
     0
176
     1
 90
       50
176
     1
 40
0.0
176
     1
 40
1.0
176
     1
 90
        0
176
     1
 62
    18
420
        0
176
     1
 90
       50
176
     1
 90
        3
176
     1
 62
     5
420
      255
176
     1
290
     0
176
     1
 90
       50
176
     1
 90
       50
176
     1
 90
       50
176
     1
290
     0
176
     1
 90
       50
176
     1
 62
   256
176
     0
 40
1.0
176
     0
 90
        2
176
     1
  1
strokes_ogs.tif
176
     1
290
     0
176
     1
 40
1.0
176
     1
 40
1.0
176
     1
  0
DICTIONARYVAR
  5
A2
102
{ACAD_REACTORS
330
A1
102
}
330
A1
100
DictionaryVariables
280
     0
  1
1:1
  0
DICTIONARYVAR
  5
A7
102
{ACAD_REACTORS
330
A1
102
}
330
A1
100
DictionaryVariables
280
     0
  1
Standard
  0
DICTIONARYVAR
  5
A6
102
{ACAD_REACTORS
330
A1
102
}
330
A1
100
DictionaryVariables
280
     0
  1
Standard
  0
DICTIONARY
  5
A3
330
5A
100
AcDbDictionary
280
     1
281
     1
  3
ACAD_ROUNDTRIP_2008_TABLESTYLE_CELLSTYLEMAP
360
A4
  0
CELLSTYLEMAP
  5
A4
102
{ACAD_REACTORS
330
A3
102
}
330
A3
100
AcDbCellStyleMap
 90
        3
300
CELLSTYLE
  1
TABLEFORMAT_BEGIN
 90
        5
170
     1
 91
        0
 92
    32768
 62
   257
 93
        1
300
CONTENTFORMAT
  1
CONTENTFORMAT_BEGIN
 90
        0
 91
        0
 92
        4
 93
        0
300

 40
0.0
140
1.0
 94
        5
 62
     0
340
11
144
0.25
309
CONTENTFORMAT_END
171
     1
301
MARGIN
  1
CELLMARGIN_BEGIN
 40
0.06
 40
0.06
 40
0.06
 40
0.06
 40
0.06
 40
0.06
309
CELLMARGIN_END
 94
        6
 95
        1
302
GRIDFORMAT
  1
GRIDFORMAT_BEGIN
 90
        0
 91
        1
 62
     0
 92
       -2
340
14
 93
        0
 40
0.045
309
GRIDFORMAT_END
 95
        2
302
GRIDFORMAT
  1
GRIDFORMAT_BEGIN
 90
        0
 91
        1
 62
     0
 92
       -2
340
14
 93
        0
 40
0.045
309
GRIDFORMAT_END
 95
        4
302
GRIDFORMAT
  1
GRIDFORMAT_BEGIN
 90
        0
 91
        1
 62
     0
 92
       -2
340
14
 93
        0
 40
0.045
309
GRIDFORMAT_END
 95
        8
302
GRIDFORMAT
  1
GRIDFORMAT_BEGIN
 90
        0
 91
        1
 62
     0
 92
       -2
340
14
 93
        0
 40
0.045
309
GRIDFORMAT_END
 95
       16
302
GRIDFORMAT
  1
GRIDFORMAT_BEGIN
 90
        0
 91
        1
 62
     0
 92
       -2
340
14
 93
        0
 40
0.045
309
GRIDFORMAT_END
 95
       32
302
GRIDFORMAT
  1
GRIDFORMAT_BEGIN
 90
        0
 91
        1
 62
     0
 92
       -2
340
14
 93
        0
 40
0.045
309
GRIDFORMAT_END
309
TABLEFORMAT_END
  1
CELLSTYLE_BEGIN
 90
        1
 91
        1
300
_TITLE
309
CELLSTYLE_END
300
CELLSTYLE
  1
TABLEFORMAT_BEGIN
 90
        5
170
     1
 91
        0
 92
        0
 62
   257
 93
        1
300
CONTENTFORMAT
  1
CONTENTFORMAT_BEGIN
 90
        0
 91
        0
 92
        4
 93
        0
300

 40
0.0
140
1.0
 94
        5
 62
     0
340
11
144
0.18
309
CONTENTFORMAT_END
171
     1
301
MARGIN
  1
CELLMARGIN_BEGIN
 40
0.06
 40
0.06
 40
0.06
 40
0.06
 40
0.06
 40
0.06
309
CELLMARGIN_END
 94
        6
 95
        1
302
GRIDFORMAT
  1
GRIDFORMAT_BEGIN
 90
        0
 91
        1
 62
     0
 92
       -2
340
14
 93
        0
 40
0.045
309
GRIDFORMAT_END
 95
        2
302
GRIDFORMAT
  1
GRIDFORMAT_BEGIN
 90
        0
 91
        1
 62
     0
 92
       -2
340
14
 93
        0
 40
0.045
309
GRIDFORMAT_END
 95
        4
302
GRIDFORMAT
  1
GRIDFORMAT_BEGIN
 90
        0
 91
        1
 62
     0
 92
       -2
340
14
 93
        0
 40
0.045
309
GRIDFORMAT_END
 95
        8
302
GRIDFORMAT
  1
GRIDFORMAT_BEGIN
 90
        0
 91
        1
 62
     0
 92
       -2
340
14
 93
        0
 40
0.045
309
GRIDFORMAT_END
 95
       16
302
GRIDFORMAT
  1
GRIDFORMAT_BEGIN
 90
        0
 91
        1
 62
     0
 92
       -2
340
14
 93
        0
 40
0.045
309
GRIDFORMAT_END
 95
       32
302
GRIDFORMAT
  1
GRIDFORMAT_BEGIN
 90
        0
 91
        1
 62
     0
 92
       -2
340
14
 93
        0
 40
0.045
309
GRIDFORMAT_END
309
TABLEFORMAT_END
  1
CELLSTYLE_BEGIN
 90
        2
 91
        1
300
_HEADER
309
CELLSTYLE_END
300
CELLSTYLE
  1
TABLEFORMAT_BEGIN
 90
        5
170
     1
 91
        0
 92
        0
 62
   257
 93
        1
300
CONTENTFORMAT
  1
CONTENTFORMAT_BEGIN
 90
        0
 91
        0
 92
        4
 93
        0
300

 40
0.0
140
1.0
 94
        2
 62
     0
340
11
144
0.18
309
CONTENTFORMAT_END
171
     1
301
MARGIN
  1
CELLMARGIN_BEGIN
 40
0.06
 40
0.06
 40
0.06
 40
0.06
 40
0.06
 40
0.06
309
CELLMARGIN_END
 94
        6
 95
        1
302
GRIDFORMAT
  1
GRIDFORMAT_BEGIN
 90
        0
 91
        1
 62
     0
 92
       -2
340
14
 93
        0
 40
0.045
309
GRIDFORMAT_END
 95
        2
302
GRIDFORMAT
  1
GRIDFORMAT_BEGIN
 90
        0
 91
        1
 62
     0
 92
       -2
340
14
 93
        0
 40
0.045
309
GRIDFORMAT_END
 95
        4
302
GRIDFORMAT
  1
GRIDFORMAT_BEGIN
 90
        0
 91
        1
 62
     0
 92
       -2
340
14
 93
        0
 40
0.045
309
GRIDFORMAT_END
 95
        8
302
GRIDFORMAT
  1
GRIDFORMAT_BEGIN
 90
        0
 91
        1
 62
     0
 92
       -2
340
14
 93
        0
 40
0.045
309
GRIDFORMAT_END
 95
       16
302
GRIDFORMAT
  1
GRIDFORMAT_BEGIN
 90
        0
 91
        1
 62
     0
 92
       -2
340
14
 93
        0
 40
0.045
309
GRIDFORMAT_END
 95
       32
302
GRIDFORMAT
  1
GRIDFORMAT_BEGIN
 90
        0
 91
        1
 62
     0
 92
       -2
340
14
 93
        0
 40
0.045
309
GRIDFORMAT_END
309
TABLEFORMAT_END
  1
CELLSTYLE_BEGIN
 90
        3
 91
        2
300
_DATA
309
CELLSTYLE_END
  0
ENDSEC
  0
EOF
