  0
SECTION
  2
HEADER
  9
$ACADVER
  1
AC1027
  9
$ACADMAINTVER
 70
   105
  9
$DWGCODEPAGE
  3
ANSI_1252
  9
$LASTSAVEDBY
  1
Office Desk
  9
$REQUIREDVERSIONS
160
                 0
  9
$INSBASE
 10
0.0
 20
0.0
 30
0.0
  9
$EXTMIN
 10
-229.3316
 20
-204.7598
 30
0.0
  9
$EXTMAX
 10
273.3686
 20
246.2956
 30
0.0
  9
$LIMMIN
 10
0.0
 20
0.0
  9
$LIMMAX
 10
12.0
 20
9.0
  9
$ORTHOMODE
 70
     0
  9
$REGENMODE
 70
     1
  9
$FILLMODE
 70
     1
  9
$QTEXTMODE
 70
     0
  9
$MIRRTEXT
 70
     1
  9
$LTSCALE
 40
1.0
  9
$ATTMODE
 70
     1
  9
$TEXTSIZE
 40
0.2
  9
$TRACEWID
 40
0.05
  9
$TEXTSTYLE
  7
Standard
  9
$CLAYER
  8
0
  9
$CELTYPE
  6
ByLayer
  9
$CECOLOR
 62
   256
  9
$CELTSCALE
 40
1.0
  9
$DISPSILH
 70
     0
  9
$DIMSCALE
 40
1.0
  9
$DIMASZ
 40
0.18
  9
$DIMEXO
 40
0.0625
  9
$DIMDLI
 40
0.38
  9
$DIMRND
 40
0.0
  9
$DIMDLE
 40
0.0
  9
$DIMEXE
 40
0.18
  9
$DIMTP
 40
0.0
  9
$DIMTM
 40
0.0
  9
$DIMTXT
 40
0.18
  9
$DIMCEN
 40
0.09
  9
$DIMTSZ
 40
0.0
  9
$DIMTOL
 70
     0
  9
$DIMLIM
 70
     0
  9
$DIMTIH
 70
     1
  9
$DIMTOH
 70
     1
  9
$DIMSE1
 70
     0
  9
$DIMSE2
 70
     0
  9
$DIMTAD
 70
     0
  9
$DIMZIN
 70
     0
  9
$DIMBLK
  1

  9
$DIMASO
 70
     1
  9
$DIMSHO
 70
     1
  9
$DIMPOST
  1

  9
$DIMAPOST
  1

  9
$DIMALT
 70
     0
  9
$DIMALTD
 70
     2
  9
$DIMALTF
 40
25.4
  9
$DIMLFAC
 40
1.0
  9
$DIMTOFL
 70
     0
  9
$DIMTVP
 40
0.0
  9
$DIMTIX
 70
     0
  9
$DIMSOXD
 70
     0
  9
$DIMSAH
 70
     0
  9
$DIMBLK1
  1

  9
$DIMBLK2
  1

  9
$DIMSTYLE
  2
Standard
  9
$DIMCLRD
 70
     0
  9
$DIMCLRE
 70
     0
  9
$DIMCLRT
 70
     0
  9
$DIMTFAC
 40
1.0
  9
$DIMGAP
 40
0.09
  9
$DIMJUST
 70
     0
  9
$DIMSD1
 70
     0
  9
$DIMSD2
 70
     0
  9
$DIMTOLJ
 70
     1
  9
$DIMTZIN
 70
     0
  9
$DIMALTZ
 70
     0
  9
$DIMALTTZ
 70
     0
  9
$DIMUPT
 70
     0
  9
$DIMDEC
 70
     4
  9
$DIMTDEC
 70
     4
  9
$DIMALTU
 70
     2
  9
$DIMALTTD
 70
     2
  9
$DIMTXSTY
  7
Standard
  9
$DIMAUNIT
 70
     0
  9
$DIMADEC
 70
     0
  9
$DIMALTRND
 40
0.0
  9
$DIMAZIN
 70
     0
  9
$DIMDSEP
 70
    46
  9
$DIMATFIT
 70
     3
  9
$DIMFRAC
 70
     0
  9
$DIMLDRBLK
  1

  9
$DIMLUNIT
 70
     2
  9
$DIMLWD
 70
    -2
  9
$DIMLWE
 70
    -2
  9
$DIMTMOVE
 70
     0
  9
$DIMFXL
 40
1.0
  9
$DIMFXLON
 70
     0
  9
$DIMJOGANG
 40
0.7853981633974483
  9
$DIMTFILL
 70
     0
  9
$DIMTFILLCLR
 70
     0
  9
$DIMARCSYM
 70
     0
  9
$DIMLTYPE
  6

  9
$DIMLTEX1
  6

  9
$DIMLTEX2
  6

  9
$DIMTXTDIRECTION
 70
     0
  9
$LUNITS
 70
     2
  9
$LUPREC
 70
     4
  9
$SKETCHINC
 40
0.1
  9
$FILLETRAD
 40
0.0
  9
$AUNITS
 70
     0
  9
$AUPREC
 70
     0
  9
$MENU
  1
.
  9
$ELEVATION
 40
0.0
  9
$PELEVATION
 40
0.0
  9
$THICKNESS
 40
0.0
  9
$LIMCHECK
 70
     0
  9
$CHAMFERA
 40
0.0
  9
$CHAMFERB
 40
0.0
  9
$CHAMFERC
 40
0.0
  9
$CHAMFERD
 40
0.0
  9
$SKPOLY
 70
     0
  9
$TDCREATE
 40
2460999.767582558
  9
$TDUCREATE
 40
2460999.538415891
  9
$TDUPDATE
 40
2460999.767582732
  9
$TDUUPDATE
 40
2460999.538416065
  9
$TDINDWG
 40
0.0000000116
  9
$TDUSRTIMER
 40
0.0000000116
  9
$USRTIMER
 70
     1
  9
$ANGBASE
 50
0.0
  9
$ANGDIR
 70
     0
  9
$PDMODE
 70
     0
  9
$PDSIZE
 40
0.0
  9
$PLINEWID
 40
0.0
  9
$SPLFRAME
 70
     0
  9
$SPLINETYPE
 70
     6
  9
$SPLINESEGS
 70
     8
  9
$HANDSEED
  5
F0
  9
$SURFTAB1
 70
     6
  9
$SURFTAB2
 70
     6
  9
$SURFTYPE
 70
     6
  9
$SURFU
 70
     6
  9
$SURFV
 70
     6
  9
$UCSBASE
  2

  9
$UCSNAME
  2

  9
$UCSORG
 10
0.0
 20
0.0
 30
0.0
  9
$UCSXDIR
 10
1.0
 20
0.0
 30
0.0
  9
$UCSYDIR
 10
0.0
 20
1.0
 30
0.0
  9
$UCSORTHOREF
  2

  9
$UCSORTHOVIEW
 70
     0
  9
$UCSORGTOP
 10
0.0
 20
0.0
 30
0.0
  9
$UCSORGBOTTOM
 10
0.0
 20
0.0
 30
0.0
  9
$UCSORGLEFT
 10
0.0
 20
0.0
 30
0.0
  9
$UCSORGRIGHT
 10
0.0
 20
0.0
 30
0.0
  9
$UCSORGFRONT
 10
0.0
 20
0.0
 30
0.0
  9
$UCSORGBACK
 10
0.0
 20
0.0
 30
0.0
  9
$PUCSBASE
  2

  9
$PUCSNAME
  2

  9
$PUCSORG
 10
0.0
 20
0.0
 30
0.0
  9
$PUCSXDIR
 10
1.0
 20
0.0
 30
0.0
  9
$PUCSYDIR
 10
0.0
 20
1.0
 30
0.0
  9
$PUCSORTHOREF
  2

  9
$PUCSORTHOVIEW
 70
     0
  9
$PUCSORGTOP
 10
0.0
 20
0.0
 30
0.0
  9
$PUCSORGBOTTOM
 10
0.0
 20
0.0
 30
0.0
  9
$PUCSORGLEFT
 10
0.0
 20
0.0
 30
0.0
  9
$PUCSORGRIGHT
 10
0.0
 20
0.0
 30
0.0
  9
$PUCSORGFRONT
 10
0.0
 20
0.0
 30
0.0
  9
$PUCSORGBACK
 10
0.0
 20
0.0
 30
0.0
  9
$USERI1
 70
     0
  9
$USERI2
 70
     0
  9
$USERI3
 70
     0
  9
$USERI4
 70
     0
  9
$USERI5
 70
     0
  9
$USERR1
 40
0.0
  9
$USERR2
 40
0.0
  9
$USERR3
 40
0.0
  9
$USERR4
 40
0.0
  9
$USERR5
 40
0.0
  9
$WORLDVIEW
 70
     1
  9
$SHADEDGE
 70
     3
  9
$SHADEDIF
 70
    70
  9
$TILEMODE
 70
     1
  9
$MAXACTVP
 70
    64
  9
$PINSBASE
 10
0.0
 20
0.0
 30
0.0
  9
$PLIMCHECK
 70
     0
  9
$PEXTMIN
 10
1.000000000000000E+20
 20
1.000000000000000E+20
 30
1.000000000000000E+20
  9
$PEXTMAX
 10
-1.000000000000000E+20
 20
-1.000000000000000E+20
 30
-1.000000000000000E+20
  9
$PLIMMIN
 10
0.0
 20
0.0
  9
$PLIMMAX
 10
12.0
 20
9.0
  9
$UNITMODE
 70
     0
  9
$VISRETAIN
 70
     1
  9
$PLINEGEN
 70
     0
  9
$PSLTSCALE
 70
     1
  9
$TREEDEPTH
 70
  3020
  9
$CMLSTYLE
  2
Standard
  9
$CMLJUST
 70
     0
  9
$CMLSCALE
 40
1.0
  9
$PROXYGRAPHICS
 70
     1
  9
$MEASUREMENT
 70
     0
  9
$CELWEIGHT
370
    -1
  9
$ENDCAPS
280
     0
  9
$JOINSTYLE
280
     0
  9
$LWDISPLAY
290
     0
  9
$INSUNITS
 70
     4
  9
$HYPERLINKBASE
  1

  9
$STYLESHEET
  1

  9
$XEDIT
290
     1
  9
$CEPSNTYPE
380
     0
  9
$PSTYLEMODE
290
     1
  9
$FINGERPRINTGUID
  2
{b40f2a7f-974e-40c7-b397-478642c2867e}
  9
$VERSIONGUID
  2
{FAEB1C32-E019-11D5-929B-00C0DF256EC4}
  9
$EXTNAMES
290
     1
  9
$PSVPSCALE
 40
0.0
  9
$OLESTARTUP
290
     0
  9
$SORTENTS
280
   127
  9
$INDEXCTL
280
     0
  9
$HIDETEXT
280
     1
  9
$XCLIPFRAME
280
     2
  9
$HALOGAP
280
     0
  9
$OBSCOLOR
 70
   257
  9
$OBSLTYPE
280
     0
  9
$INTERSECTIONDISPLAY
280
     0
  9
$INTERSECTIONCOLOR
 70
   257
  9
$DIMASSOC
280
     2
  9
$PROJECTNAME
  1

  9
$CAMERADISPLAY
290
     0
  9
$LENSLENGTH
 40
50.0
  9
$CAMERAHEIGHT
 40
0.0
  9
$STEPSPERSEC
 40
2.0
  9
$STEPSIZE
 40
6.0
  9
$3DDWFPREC
 40
2.0
  9
$PSOLWIDTH
 40
0.25
  9
$PSOLHEIGHT
 40
4.0
  9
$LOFTANG1
 40
1.570796326794897
  9
$LOFTANG2
 40
1.570796326794897
  9
$LOFTMAG1
 40
0.0
  9
$LOFTMAG2
 40
0.0
  9
$LOFTPARAM
 70
     7
  9
$LOFTNORMALS
280
     1
  9
$LATITUDE
 40
37.795
  9
$LONGITUDE
 40
-122.394
  9
$NORTHDIRECTION
 40
0.0
  9
$TIMEZONE
 70
 -8000
  9
$LIGHTGLYPHDISPLAY
280
     1
  9
$TILEMODELIGHTSYNCH
280
     1
  9
$CMATERIAL
347
44
  9
$SOLIDHIST
280
     0
  9
$SHOWHIST
280
     1
  9
$DWFFRAME
280
     2
  9
$DGNFRAME
280
     2
  9
$REALWORLDSCALE
290
     1
  9
$INTERFERECOLOR
 62
   256
  9
$CSHADOW
280
     0
  9
$SHADOWPLANELOCATION
 40
0.0
  0
ENDSEC
  0
SECTION
  2
CLASSES
  0
CLASS
  1
ACDBDICTIONARYWDFLT
  2
AcDbDictionaryWithDefault
  3
ObjectDBX Classes
 90
        0
 91
        3
280
     0
281
     0
  0
CLASS
  1
VISUALSTYLE
  2
AcDbVisualStyle
  3
ObjectDBX Classes
 90
     4095
 91
        3
280
     0
281
     0
  0
CLASS
  1
MATERIAL
  2
AcDbMaterial
  3
ObjectDBX Classes
 90
     1153
 91
        3
280
     0
281
     0
  0
CLASS
  1
SCALE
  2
AcDbScale
  3
ObjectDBX Classes
 90
     1153
 91
        3
280
     0
281
     0
  0
CLASS
  1
TABLESTYLE
  2
AcDbTableStyle
  3
ObjectDBX Classes
 90
     4095
 91
        3
280
     0
281
     0
  0
CLASS
  1
MLEADERSTYLE
  2
AcDbMLeaderStyle
  3
ACDB_MLEADERSTYLE_CLASS
 90
     4095
 91
        3
280
     0
281
     0
  0
CLASS
  1
SUN
  2
AcDbSun
  3
SCENEOE
 90
     1153
 91
        3
280
     0
281
     0
  0
CLASS
  1
DICTIONARYVAR
  2
AcDbDictionaryVar
  3
ObjectDBX Classes
 90
        0
 91
        3
280
     0
281
     0
  0
CLASS
  1
CELLSTYLEMAP
  2
AcDbCellStyleMap
  3
ObjectDBX Classes
 90
     1152
 91
        3
280
     0
281
     0
  0
ENDSEC
  0
SECTION
  2
TABLES
  0
TABLE
  2
VPORT
  5
8
330
0
100
AcDbSymbolTable
 70
     1
  0
VPORT
  5
29
330
8
100
AcDbSymbolTableRecord
100
AcDbViewportTableRecord
  2
*Active
 70
     0
 10
0.0
 20
0.0
 11
1.0
 21
1.0
 12
10.42990654205607
 22
4.5
 13
0.0
 23
0.0
 14
0.5
 24
0.5
 15
0.5
 25
0.5
 16
0.0
 26
0.0
 36
1.0
 17
0.0
 27
0.0
 37
0.0
 40
9.0
 41
1.972972972850329
 42
50.0
 43
0.0
 44
0.0
 50
0.0
 51
0.0
 71
     0
 72
   100
 73
     1
 74
     3
 75
     0
 76
     0
 77
     0
 78
     0
281
     0
 65
     1
110
0.0
120
0.0
130
0.0
111
1.0
121
0.0
131
0.0
112
0.0
122
1.0
132
0.0
 79
     0
146
0.0
348
2F
 60
     3
 61
     5
292
     1
282
     1
141
0.0
142
0.0
 63
   250
361
5D
  0
ENDTAB
  0
TABLE
  2
LTYPE
  5
5
330
0
100
AcDbSymbolTable
 70
     1
  0
LTYPE
  5
14
330
5
100
AcDbSymbolTableRecord
100
AcDbLinetypeTableRecord
  2
ByBlock
 70
     0
  3

 72
    65
 73
     0
 40
0.0
  0
LTYPE
  5
15
330
5
100
AcDbSymbolTableRecord
100
AcDbLinetypeTableRecord
  2
ByLayer
 70
     0
  3

 72
    65
 73
     0
 40
0.0
  0
LTYPE
  5
16
330
5
100
AcDbSymbolTableRecord
100
AcDbLinetypeTableRecord
  2
Continuous
 70
     0
  3
Solid line
 72
    65
 73
     0
 40
0.0
  0
ENDTAB
  0
TABLE
  2
LAYER
  5
2
330
0
100
AcDbSymbolTable
 70
     2
  0
LAYER
  5
10
330
2
100
AcDbSymbolTableRecord
100
AcDbLayerTableRecord
  2
0
 70
     0
 62
     7
  6
Continuous
370
    -3
390
F
347
46
348
0
  0
LAYER
  5
5F
330
2
100
AcDbSymbolTableRecord
100
AcDbLayerTableRecord
  2
Layer 1
 70
     0
 62
     7
  6
Continuous
370
    -3
390
F
347
46
348
0
  0
ENDTAB
  0
TABLE
  2
STYLE
  5
3
330
0
100
AcDbSymbolTable
 70
     1
  0
STYLE
  5
11
330
3
100
AcDbSymbolTableRecord
100
AcDbTextStyleTableRecord
  2
Standard
 70
     0
 40
0.0
 41
1.0
 50
0.0
 71
     0
 42
0.2
  3
txt
  4

  0
ENDTAB
  0
TABLE
  2
VIEW
  5
6
330
0
100
AcDbSymbolTable
 70
     0
  0
ENDTAB
  0
TABLE
  2
UCS
  5
7
330
0
100
AcDbSymbolTable
 70
     0
  0
ENDTAB
  0
TABLE
  2
APPID
  5
9
330
0
100
AcDbSymbolTable
 70
     2
  0
APPID
  5
12
330
9
100
AcDbSymbolTableRecord
100
AcDbRegAppTableRecord
  2
ACAD
 70
     0
  0
APPID
  5
5E
330
9
100
AcDbSymbolTableRecord
100
AcDbRegAppTableRecord
  2
ODA
 70
     0
  0
ENDTAB
  0
TABLE
  2
DIMSTYLE
  5
A
330
0
100
AcDbSymbolTable
 70
     1
100
AcDbDimStyleTable
  0
DIMSTYLE
105
27
330
A
100
AcDbSymbolTableRecord
100
AcDbDimStyleTableRecord
  2
Standard
 70
     0
178
     0
340
11
  0
ENDTAB
  0
TABLE
  2
BLOCK_RECORD
  5
1
330
0
100
AcDbSymbolTable
 70
     1
  0
BLOCK_RECORD
  5
1F
330
1
100
AcDbSymbolTableRecord
100
AcDbBlockTableRecord
  2
*Model_Space
340
22
 70
     0
280
     1
281
     0
  0
BLOCK_RECORD
  5
1B
330
1
100
AcDbSymbolTableRecord
100
AcDbBlockTableRecord
  2
*Paper_Space
340
1E
 70
     0
280
     1
281
     0
  0
BLOCK_RECORD
  5
23
330
1
100
AcDbSymbolTableRecord
100
AcDbBlockTableRecord
  2
*Paper_Space0
340
26
 70
     0
280
     1
281
     0
  0
ENDTAB
  0
ENDSEC
  0
SECTION
  2
BLOCKS
  0
BLOCK
  5
20
330
1F
100
AcDbEntity
  8
0
100
AcDbBlockBegin
  2
*Model_Space
 70
     0
 10
0.0
 20
0.0
 30
0.0
  3
*Model_Space
  1

  0
ENDBLK
  5
21
330
1F
100
AcDbEntity
  8
0
100
AcDbBlockEnd
  0
BLOCK
  5
1C
330
1B
100
AcDbEntity
 67
     1
  8
0
100
AcDbBlockBegin
  2
*Paper_Space
 70
     0
 10
0.0
 20
0.0
 30
0.0
  3
*Paper_Space
  1

  0
ENDBLK
  5
1D
330
1B
100
AcDbEntity
 67
     1
  8
0
100
AcDbBlockEnd
  0
BLOCK
  5
24
330
23
100
AcDbEntity
  8
0
100
AcDbBlockBegin
  2
*Paper_Space0
 70
     0
 10
0.0
 20
0.0
 30
0.0
  3
*Paper_Space0
  1

  0
ENDBLK
  5
25
330
23
100
AcDbEntity
  8
0
100
AcDbBlockEnd
  0
ENDSEC
  0
SECTION
  2
ENTITIES
  0
LWPOLYLINE
  5
60
330
1F
100
AcDbEntity
  8
Layer 1
 62
   251
370
     9
100
AcDbPolyline
 90
       37
 70
     1
 43
0.0
 10
212.6061
 20
-204.7217
 10
-221.1932
 20
-204.7217
 10
-222.8252
 20
-204.557
 10
-224.3459
 20
-204.0838
 10
-225.7218
 20
-203.3355
 10
-226.9206
 20
-202.3435
 10
-227.9101
 20
-201.1424
 10
-228.6572
 20
-199.7636
 10
-229.1292
 20
-198.2398
 10
-229.2935
 20
-196.6037
 10
-229.2935
 20
187.1595
 10
-229.1292
 20
188.7957
 10
-228.6572
 20
190.3195
 10
-227.9101
 20
191.6989
 10
-226.9206
 20
192.9
 10
-225.7218
 20
193.8913
 10
-224.3459
 20
194.6403
 10
-222.8252
 20
195.1135
 10
-221.1932
 20
195.2783
 10
212.6061
 20
195.2783
 10
214.2388
 20
195.1135
 10
215.7588
 20
194.6403
 10
217.1348
 20
193.8913
 10
218.3342
 20
192.9
 10
219.323
 20
191.6989
 10
220.0701
 20
190.3195
 10
220.5421
 20
188.7957
 10
220.7065
 20
187.1595
 10
220.7065
 20
-196.6037
 10
220.5421
 20
-198.2398
 10
220.0701
 20
-199.7636
 10
219.323
 20
-201.1424
 10
218.3342
 20
-202.3435
 10
217.1348
 20
-203.3355
 10
215.7588
 20
-204.0838
 10
214.2388
 20
-204.557
 10
212.6061
 20
-204.7217
  0
LWPOLYLINE
  5
61
330
1F
100
AcDbEntity
  8
Layer 1
 62
   250
370
     9
100
AcDbPolyline
 90
        5
 70
     1
 43
0.0
 10
-68.6441
 20
-119.1128
 10
-68.3263
 20
-119.1128
 10
-68.3263
 20
-119.4315
 10
-68.6441
 20
-119.4315
 10
-68.6441
 20
-119.1128
  0
LWPOLYLINE
  5
62
330
1F
100
AcDbEntity
  8
Layer 1
 62
   250
370
    25
100
AcDbPolyline
 90
        3
 70
     0
 43
0.0
 10
-228.6266
 20
-199.5103
 10
-227.036
 20
-202.9971
 10
-223.5356
 20
-204.5917
  0
LWPOLYLINE
  5
63
330
1F
100
AcDbEntity
  8
Layer 1
 62
   250
370
    25
100
AcDbPolyline
 90
        3
 70
     0
 43
0.0
 10
-223.5356
 20
194.8296
 10
-227.036
 20
193.5543
 10
-228.6266
 20
190.0648
  0
LWPOLYLINE
  5
64
330
1F
100
AcDbEntity
  8
Layer 1
 62
   250
370
    25
100
AcDbPolyline
 90
        3
 70
     0
 43
0.0
 10
220.3581
 20
190.0669
 10
219.0846
 20
193.5529
 10
215.5856
 20
194.8309
  0
LWPOLYLINE
  5
65
330
1F
100
AcDbEntity
  8
Layer 1
 62
   250
370
    25
100
AcDbPolyline
 90
        3
 70
     0
 43
0.0
 10
215.5856
 20
-204.5924
 10
219.0846
 20
-202.9978
 10
220.3581
 20
-199.5117
  0
LWPOLYLINE
  5
66
330
1F
100
AcDbEntity
  8
Layer 1
370
    25
100
AcDbPolyline
 90
        8
 70
     1
 43
0.0
 10
176.549
 20
-129.5956
 10
175.9126
 20
-131.1895
 10
174.0035
 20
-131.8275
 10
172.7307
 20
-130.5522
 10
172.7307
 20
-128.9576
 10
174.0035
 20
-127.7034
 10
175.9126
 20
-128.3196
 10
176.549
 20
-129.5956
  0
LWPOLYLINE
  5
67
330
1F
100
AcDbEntity
  8
Layer 1
370
    25
100
AcDbPolyline
 90
       16
 70
     1
 43
0.0
 10
-37.7818
 20
-101.9521
 10
-38.736
 20
-105.7575
 10
-40.963
 20
-108.946
 10
-44.4634
 20
-111.1596
 10
-48.2626
 20
-111.4782
 10
-52.0781
 20
-110.2213
 10
-54.9441
 20
-107.6728
 10
-56.5354
 20
-103.8654
 10
-56.5354
 20
-100.0389
 10
-54.9441
 20
-96.5494
 10
-52.0781
 20
-93.7006
 10
-48.2626
 20
-92.4253
 10
-44.4634
 20
-93.0626
 10
-40.963
 20
-94.9548
 10
-38.736
 20
-98.146
 10
-37.7818
 20
-101.9521
  0
LWPOLYLINE
  5
68
330
1F
100
AcDbEntity
  8
Layer 1
370
    25
100
AcDbPolyline
 90
        8
 70
     1
 43
0.0
 10
-45.4176
 20
-74.3087
 10
-46.054
 20
-75.9033
 10
-47.9447
 20
-76.2219
 10
-49.2148
 20
-74.9466
 10
-49.2148
 20
-73.352
 10
-47.9447
 20
-72.3954
 10
-46.054
 20
-72.7147
 10
-45.4176
 20
-74.3087
  0
LWPOLYLINE
  5
69
330
1F
100
AcDbEntity
  8
Layer 1
370
    25
100
AcDbPolyline
 90
        8
 70
     1
 43
0.0
 10
-45.4176
 20
-46.3466
 10
-46.054
 20
-47.9412
 10
-47.9447
 20
-48.2598
 10
-49.2148
 20
-47.3032
 10
-49.2148
 20
-45.7079
 10
-47.9447
 20
-44.4326
 10
-46.054
 20
-44.7513
 10
-45.4176
 20
-46.3466
  0
LWPOLYLINE
  5
6A
330
1F
100
AcDbEntity
  8
Layer 1
370
    25
100
AcDbPolyline
 90
        8
 70
     1
 43
0.0
 10
-45.4176
 20
-18.7038
 10
-46.054
 20
-20.2977
 10
-47.9447
 20
-20.6171
 10
-49.2148
 20
-19.6604
 10
-49.2148
 20
-17.7472
 10
-47.9447
 20
-16.7906
 10
-46.054
 20
-17.1085
 10
-45.4176
 20
-18.7038
  0
LWPOLYLINE
  5
6B
330
1F
100
AcDbEntity
  8
Layer 1
370
    25
100
AcDbPolyline
 90
        8
 70
     1
 43
0.0
 10
-45.4176
 20
8.9396
 10
-46.054
 20
7.3457
 10
-47.9447
 20
7.0482
 10
-49.2148
 20
8.303
 10
-49.2148
 20
9.8969
 10
-47.9447
 20
11.1729
 10
-46.054
 20
10.5349
 10
-45.4176
 20
8.9396
  0
LWPOLYLINE
  5
6C
330
1F
100
AcDbEntity
  8
Layer 1
370
    25
100
AcDbPolyline
 90
        8
 70
     1
 43
0.0
 10
-45.4176
 20
36.9017
 10
-46.054
 20
35.3085
 10
-47.9447
 20
34.9885
 10
-49.2148
 20
35.9451
 10
-49.2148
 20
37.5404
 10
-47.9447
 20
38.8157
 10
-46.054
 20
38.497
 10
-45.4176
 20
36.9017
  0
LWPOLYLINE
  5
6D
330
1F
100
AcDbEntity
  8
Layer 1
370
    25
100
AcDbPolyline
 90
        8
 70
     1
 43
0.0
 10
-45.4176
 20
64.5459
 10
-46.054
 20
62.9506
 10
-47.9447
 20
62.6319
 10
-49.2148
 20
63.5892
 10
-49.2148
 20
65.5025
 10
-47.9447
 20
66.4591
 10
-46.054
 20
66.1405
 10
-45.4176
 20
64.5459
  0
LWPOLYLINE
  5
6E
330
1F
100
AcDbEntity
  8
Layer 1
370
    25
100
AcDbPolyline
 90
       16
 70
     1
 43
0.0
 10
-37.7818
 20
92.1893
 10
-38.736
 20
88.3832
 10
-40.963
 20
85.2131
 10
-44.4634
 20
83.2998
 10
-48.2626
 20
82.9812
 10
-52.0781
 20
84.2565
 10
-54.9441
 20
86.7886
 10
-56.5354
 20
90.2972
 10
-56.5354
 20
94.4212
 10
-54.9441
 20
97.91
 10
-52.0781
 20
100.4585
 10
-48.2626
 20
101.7365
 10
-44.4634
 20
101.4151
 10
-40.963
 20
99.5046
 10
-38.736
 20
96.3345
 10
-37.7818
 20
92.1893
  0
LWPOLYLINE
  5
6F
330
1F
100
AcDbEntity
  8
Layer 1
370
    25
100
AcDbPolyline
 90
        8
 70
     1
 43
0.0
 10
-73.0396
 20
36.9017
 10
-73.9938
 20
35.3085
 10
-75.5844
 20
35.0075
 10
-76.8368
 20
35.9451
 10
-76.8368
 20
37.5404
 10
-75.5844
 20
38.8157
 10
-73.9938
 20
38.497
 10
-73.0396
 20
36.9017
  0
LWPOLYLINE
  5
70
330
1F
100
AcDbEntity
  8
Layer 1
370
    25
100
AcDbPolyline
 90
        8
 70
     1
 43
0.0
 10
-73.0396
 20
8.9396
 10
-73.9938
 20
7.3457
 10
-75.5844
 20
7.0482
 10
-76.8368
 20
8.303
 10
-76.8368
 20
9.8969
 10
-75.5844
 20
11.1729
 10
-73.9938
 20
10.5349
 10
-73.0396
 20
8.9396
  0
LWPOLYLINE
  5
71
330
1F
100
AcDbEntity
  8
Layer 1
370
    25
100
AcDbPolyline
 90
        8
 70
     1
 43
0.0
 10
-73.0396
 20
-18.7038
 10
-73.9938
 20
-20.2977
 10
-75.5844
 20
-20.6171
 10
-76.8368
 20
-19.6604
 10
-76.8368
 20
-17.7472
 10
-75.5844
 20
-16.7906
 10
-73.9938
 20
-17.1085
 10
-73.0396
 20
-18.7038
  0
LWPOLYLINE
  5
72
330
1F
100
AcDbEntity
  8
Layer 1
370
    25
100
AcDbPolyline
 90
        8
 70
     1
 43
0.0
 10
-73.0396
 20
-46.3466
 10
-73.9938
 20
-47.9412
 10
-75.5844
 20
-48.2387
 10
-76.8368
 20
-47.3032
 10
-76.8368
 20
-45.7079
 10
-75.5844
 20
-44.4326
 10
-73.9938
 20
-44.7513
 10
-73.0396
 20
-46.3466
  0
LWPOLYLINE
  5
73
330
1F
100
AcDbEntity
  8
Layer 1
370
    25
100
AcDbPolyline
 90
        8
 70
     1
 43
0.0
 10
-45.4176
 20
120.1514
 10
-46.054
 20
118.5568
 10
-47.9447
 20
118.2382
 10
-49.2148
 20
119.1948
 10
-49.2148
 20
121.108
 10
-47.9447
 20
122.0647
 10
-46.054
 20
121.7453
 10
-45.4176
 20
120.1514
  0
LWPOLYLINE
  5
74
330
1F
100
AcDbEntity
  8
Layer 1
370
    25
100
AcDbPolyline
 90
        8
 70
     1
 43
0.0
 10
-73.0396
 20
-129.5956
 10
-73.9938
 20
-131.1895
 10
-75.5844
 20
-131.8275
 10
-76.8368
 20
-130.5522
 10
-76.8368
 20
-128.9576
 10
-75.5844
 20
-127.7
 10
-73.9938
 20
-128.3196
 10
-73.0396
 20
-129.5956
  0
LWPOLYLINE
  5
75
330
1F
100
AcDbEntity
  8
Layer 1
370
    25
100
AcDbPolyline
 90
        8
 70
     1
 43
0.0
 10
-73.0396
 20
-101.9521
 10
-73.9938
 20
-103.5467
 10
-75.5844
 20
-103.8654
 10
-76.8368
 20
-102.9087
 10
-76.8368
 20
-100.9955
 10
-75.5844
 20
-100.0389
 10
-73.9938
 20
-100.3575
 10
-73.0396
 20
-101.9521
  0
LWPOLYLINE
  5
76
330
1F
100
AcDbEntity
  8
Layer 1
370
    25
100
AcDbPolyline
 90
        8
 70
     1
 43
0.0
 10
-73.0396
 20
-74.3087
 10
-73.9938
 20
-75.9033
 10
-75.5844
 20
-76.2219
 10
-76.8368
 20
-74.9466
 10
-76.8368
 20
-73.352
 10
-75.5844
 20
-72.3954
 10
-73.9938
 20
-72.7147
 10
-73.0396
 20
-74.3087
  0
LWPOLYLINE
  5
77
330
1F
100
AcDbEntity
  8
Layer 1
370
    25
100
AcDbPolyline
 90
        8
 70
     1
 43
0.0
 10
10.1634
 20
120.1514
 10
9.527
 20
118.5568
 10
7.6369
 20
118.2382
 10
6.3641
 20
119.1948
 10
6.3641
 20
121.108
 10
7.6369
 20
122.0647
 10
9.527
 20
121.7453
 10
10.1634
 20
120.1514
  0
LWPOLYLINE
  5
78
330
1F
100
AcDbEntity
  8
Layer 1
370
    25
100
AcDbPolyline
 90
        8
 70
     1
 43
0.0
 10
-17.4777
 20
-129.5956
 10
-18.1147
 20
-131.1895
 10
-20.0239
 20
-131.8275
 10
-21.2959
 20
-130.5522
 10
-21.2959
 20
-128.9576
 10
-20.0239
 20
-127.7034
 10
-18.1147
 20
-128.3196
 10
-17.4777
 20
-129.5956
  0
LWPOLYLINE
  5
79
330
1F
100
AcDbEntity
  8
Layer 1
370
    25
100
AcDbPolyline
 90
        8
 70
     1
 43
0.0
 10
-17.4777
 20
-101.9521
 10
-18.1147
 20
-103.5467
 10
-20.0048
 20
-103.8654
 10
-21.2749
 20
-102.9087
 10
-21.2749
 20
-100.9955
 10
-20.0048
 20
-100.0389
 10
-18.1147
 20
-100.3575
 10
-17.4777
 20
-101.9521
  0
LWPOLYLINE
  5
7A
330
1F
100
AcDbEntity
  8
Layer 1
370
    25
100
AcDbPolyline
 90
        8
 70
     1
 43
0.0
 10
-17.4777
 20
-74.3087
 10
-18.1147
 20
-75.9033
 10
-20.0048
 20
-76.2219
 10
-21.2749
 20
-74.9466
 10
-21.2749
 20
-73.352
 10
-20.0048
 20
-72.3954
 10
-18.1147
 20
-72.7147
 10
-17.4777
 20
-74.3087
  0
LWPOLYLINE
  5
7B
330
1F
100
AcDbEntity
  8
Layer 1
370
    25
100
AcDbPolyline
 90
        8
 70
     1
 43
0.0
 10
10.1634
 20
92.1893
 10
9.527
 20
90.9351
 10
7.6179
 20
90.2972
 10
6.3451
 20
91.5724
 10
6.3451
 20
93.1459
 10
7.6179
 20
94.4212
 10
9.527
 20
93.7832
 10
10.1634
 20
92.1893
  0
LWPOLYLINE
  5
7C
330
1F
100
AcDbEntity
  8
Layer 1
370
    25
100
AcDbPolyline
 90
        8
 70
     1
 43
0.0
 10
10.1634
 20
64.5459
 10
9.527
 20
62.9506
 10
7.6369
 20
62.6319
 10
6.3641
 20
63.5892
 10
6.3641
 20
65.5025
 10
7.6369
 20
66.4591
 10
9.527
 20
66.1405
 10
10.1634
 20
64.5459
  0
LWPOLYLINE
  5
7D
330
1F
100
AcDbEntity
  8
Layer 1
370
    25
100
AcDbPolyline
 90
        8
 70
     1
 43
0.0
 10
10.1634
 20
36.9017
 10
9.527
 20
35.3085
 10
7.6369
 20
34.9885
 10
6.3641
 20
35.9451
 10
6.3641
 20
37.5404
 10
7.6369
 20
38.8157
 10
9.527
 20
38.497
 10
10.1634
 20
36.9017
  0
LWPOLYLINE
  5
7E
330
1F
100
AcDbEntity
  8
Layer 1
370
    25
100
AcDbPolyline
 90
        8
 70
     1
 43
0.0
 10
10.1634
 20
8.9396
 10
9.527
 20
7.3457
 10
7.6369
 20
7.0482
 10
6.3641
 20
8.303
 10
6.3641
 20
9.8969
 10
7.6369
 20
11.1729
 10
9.527
 20
10.5349
 10
10.1634
 20
8.9396
  0
LWPOLYLINE
  5
7F
330
1F
100
AcDbEntity
  8
Layer 1
370
    25
100
AcDbPolyline
 90
        8
 70
     1
 43
0.0
 10
-17.4777
 20
64.5459
 10
-18.1147
 20
62.9506
 10
-20.0048
 20
62.6319
 10
-21.2749
 20
63.5892
 10
-21.2749
 20
65.5025
 10
-20.0048
 20
66.4591
 10
-18.1147
 20
66.1405
 10
-17.4777
 20
64.5459
  0
LWPOLYLINE
  5
80
330
1F
100
AcDbEntity
  8
Layer 1
370
    25
100
AcDbPolyline
 90
        8
 70
     1
 43
0.0
 10
-17.4777
 20
92.1893
 10
-18.4136
 20
90.9351
 10
-20.0048
 20
90.2972
 10
-21.2749
 20
91.5724
 10
-21.2749
 20
93.1459
 10
-20.0048
 20
94.4212
 10
-18.4136
 20
93.7832
 10
-17.4777
 20
92.1893
  0
LWPOLYLINE
  5
81
330
1F
100
AcDbEntity
  8
Layer 1
370
    25
100
AcDbPolyline
 90
        8
 70
     1
 43
0.0
 10
-17.4777
 20
120.1514
 10
-18.1147
 20
118.5568
 10
-20.0048
 20
118.2382
 10
-21.2749
 20
119.1948
 10
-21.2749
 20
121.108
 10
-20.0048
 20
122.0647
 10
-18.1147
 20
121.7453
 10
-17.4777
 20
120.1514
  0
LWPOLYLINE
  5
82
330
1F
100
AcDbEntity
  8
Layer 1
370
    25
100
AcDbPolyline
 90
        8
 70
     1
 43
0.0
 10
-45.4176
 20
-129.5956
 10
-46.054
 20
-131.1895
 10
-47.9631
 20
-131.8275
 10
-49.2358
 20
-130.5522
 10
-49.2358
 20
-128.9576
 10
-47.9631
 20
-127.7
 10
-46.054
 20
-128.3196
 10
-45.4176
 20
-129.5956
  0
LWPOLYLINE
  5
83
330
1F
100
AcDbEntity
  8
Layer 1
370
    25
100
AcDbPolyline
 90
        8
 70
     1
 43
0.0
 10
-17.4777
 20
36.9017
 10
-18.1147
 20
35.3085
 10
-20.0048
 20
34.9885
 10
-21.2749
 20
35.9451
 10
-21.2749
 20
37.5404
 10
-20.0048
 20
38.8157
 10
-18.1147
 20
38.497
 10
-17.4777
 20
36.9017
  0
LWPOLYLINE
  5
84
330
1F
100
AcDbEntity
  8
Layer 1
370
    25
100
AcDbPolyline
 90
        8
 70
     1
 43
0.0
 10
10.1634
 20
-18.7024
 10
9.527
 20
-20.2977
 10
7.6369
 20
-20.6164
 10
6.3641
 20
-19.6598
 10
6.3641
 20
-17.7458
 10
7.6369
 20
-16.7892
 10
9.527
 20
-17.1085
 10
10.1634
 20
-18.7024
  0
LWPOLYLINE
  5
85
330
1F
100
AcDbEntity
  8
Layer 1
370
    25
100
AcDbPolyline
 90
        8
 70
     1
 43
0.0
 10
10.1634
 20
-46.3466
 10
9.527
 20
-47.9412
 10
7.6369
 20
-48.2598
 10
6.3641
 20
-47.3032
 10
6.3641
 20
-45.7079
 10
7.6369
 20
-44.4326
 10
9.527
 20
-44.7513
 10
10.1634
 20
-46.3466
  0
LWPOLYLINE
  5
86
330
1F
100
AcDbEntity
  8
Layer 1
370
    25
100
AcDbPolyline
 90
        8
 70
     1
 43
0.0
 10
10.1634
 20
-74.3087
 10
9.527
 20
-75.9033
 10
7.6369
 20
-76.2219
 10
6.3641
 20
-74.9466
 10
6.3641
 20
-73.352
 10
7.6369
 20
-72.3954
 10
9.527
 20
-72.7147
 10
10.1634
 20
-74.3087
  0
LWPOLYLINE
  5
87
330
1F
100
AcDbEntity
  8
Layer 1
370
    25
100
AcDbPolyline
 90
        8
 70
     1
 43
0.0
 10
10.1634
 20
-101.9521
 10
9.527
 20
-103.5467
 10
7.6369
 20
-103.8654
 10
6.3641
 20
-102.9087
 10
6.3641
 20
-100.9955
 10
7.6369
 20
-100.0389
 10
9.527
 20
-100.3575
 10
10.1634
 20
-101.9521
  0
LWPOLYLINE
  5
88
330
1F
100
AcDbEntity
  8
Layer 1
370
    25
100
AcDbPolyline
 90
        8
 70
     1
 43
0.0
 10
37.7854
 20
64.5459
 10
37.1484
 20
62.973
 10
35.5578
 20
62.653
 10
33.9672
 20
63.5892
 10
33.9672
 20
65.5025
 10
35.5578
 20
66.4591
 10
37.1484
 20
66.1405
 10
37.7854
 20
64.5459
  0
LWPOLYLINE
  5
89
330
1F
100
AcDbEntity
  8
Layer 1
370
    25
100
AcDbPolyline
 90
        8
 70
     1
 43
0.0
 10
37.7854
 20
92.1893
 10
37.1484
 20
90.9351
 10
35.5578
 20
90.2972
 10
33.9672
 20
91.5724
 10
33.9672
 20
93.1459
 10
35.5578
 20
94.4212
 10
37.1484
 20
93.7832
 10
37.7854
 20
92.1893
  0
LWPOLYLINE
  5
8A
330
1F
100
AcDbEntity
  8
Layer 1
370
    25
100
AcDbPolyline
 90
        8
 70
     1
 43
0.0
 10
37.7854
 20
120.1514
 10
37.1484
 20
118.5779
 10
35.5578
 20
118.2593
 10
33.9672
 20
119.1948
 10
33.9672
 20
121.108
 10
35.5578
 20
122.0647
 10
37.1484
 20
121.7453
 10
37.7854
 20
120.1514
  0
LWPOLYLINE
  5
8B
330
1F
100
AcDbEntity
  8
Layer 1
370
    25
100
AcDbPolyline
 90
        8
 70
     1
 43
0.0
 10
10.1634
 20
-129.5956
 10
9.527
 20
-131.1895
 10
7.6179
 20
-131.8275
 10
6.3451
 20
-130.5522
 10
6.3451
 20
-128.9576
 10
7.6179
 20
-127.7034
 10
9.527
 20
-128.3196
 10
10.1634
 20
-129.5956
  0
LWPOLYLINE
  5
8C
330
1F
100
AcDbEntity
  8
Layer 1
370
    25
100
AcDbPolyline
 90
        8
 70
     1
 43
0.0
 10
93.346
 20
64.5459
 10
92.7096
 20
62.9506
 10
90.8195
 20
62.6319
 10
89.5488
 20
63.5892
 10
89.5488
 20
65.5025
 10
90.8195
 20
66.4591
 10
92.7096
 20
66.1405
 10
93.346
 20
64.5459
  0
LWPOLYLINE
  5
8D
330
1F
100
AcDbEntity
  8
Layer 1
370
    25
100
AcDbPolyline
 90
        8
 70
     1
 43
0.0
 10
93.346
 20
92.1893
 10
92.7096
 20
90.9351
 10
90.8005
 20
90.2972
 10
89.5277
 20
91.5724
 10
89.5277
 20
93.1459
 10
90.8005
 20
94.4212
 10
92.7096
 20
93.7832
 10
93.346
 20
92.1893
  0
LWPOLYLINE
  5
8E
330
1F
100
AcDbEntity
  8
Layer 1
370
    25
100
AcDbPolyline
 90
        8
 70
     1
 43
0.0
 10
93.346
 20
120.1514
 10
92.7096
 20
118.5568
 10
90.8195
 20
118.2382
 10
89.5488
 20
119.1948
 10
89.5488
 20
121.108
 10
90.8195
 20
122.0647
 10
92.7096
 20
121.7453
 10
93.346
 20
120.1514
  0
LWPOLYLINE
  5
8F
330
1F
100
AcDbEntity
  8
Layer 1
370
    25
100
AcDbPolyline
 90
        8
 70
     1
 43
0.0
 10
65.7253
 20
-129.5956
 10
64.7704
 20
-131.1895
 10
63.1791
 20
-131.8275
 10
61.9247
 20
-130.5522
 10
61.9247
 20
-128.9576
 10
63.1791
 20
-127.7034
 10
64.7704
 20
-128.3196
 10
65.7253
 20
-129.5956
  0
LWPOLYLINE
  5
90
330
1F
100
AcDbEntity
  8
Layer 1
370
    25
100
AcDbPolyline
 90
        8
 70
     1
 43
0.0
 10
93.346
 20
8.9396
 10
92.7096
 20
7.3457
 10
90.8195
 20
7.0482
 10
89.5488
 20
8.303
 10
89.5488
 20
9.8969
 10
90.8195
 20
11.1729
 10
92.7096
 20
10.5349
 10
93.346
 20
8.9396
  0
LWPOLYLINE
  5
91
330
1F
100
AcDbEntity
  8
Layer 1
370
    25
100
AcDbPolyline
 90
        8
 70
     1
 43
0.0
 10
93.346
 20
-18.7024
 10
92.7096
 20
-20.2977
 10
90.8195
 20
-20.6164
 10
89.5488
 20
-19.6598
 10
89.5488
 20
-17.7458
 10
90.8195
 20
-16.7892
 10
92.7096
 20
-17.1085
 10
93.346
 20
-18.7024
  0
LWPOLYLINE
  5
92
330
1F
100
AcDbEntity
  8
Layer 1
370
    25
100
AcDbPolyline
 90
        8
 70
     1
 43
0.0
 10
93.346
 20
-46.3466
 10
92.7096
 20
-47.9412
 10
90.8195
 20
-48.2598
 10
89.5488
 20
-47.3032
 10
89.5488
 20
-45.7079
 10
90.8195
 20
-44.4326
 10
92.7096
 20
-44.7513
 10
93.346
 20
-46.3466
  0
LWPOLYLINE
  5
93
330
1F
100
AcDbEntity
  8
Layer 1
370
    25
100
AcDbPolyline
 90
        8
 70
     1
 43
0.0
 10
65.7253
 20
-101.9521
 10
64.7704
 20
-103.5467
 10
63.1791
 20
-103.8654
 10
61.9247
 20
-102.9087
 10
61.9247
 20
-100.9955
 10
63.1791
 20
-100.0389
 10
64.7704
 20
-100.3575
 10
65.7253
 20
-101.9521
  0
LWPOLYLINE
  5
94
330
1F
100
AcDbEntity
  8
Layer 1
370
    25
100
AcDbPolyline
 90
        8
 70
     1
 43
0.0
 10
65.7253
 20
-74.3087
 10
64.7704
 20
-75.9033
 10
63.1791
 20
-76.2219
 10
61.9247
 20
-74.9466
 10
61.9247
 20
-73.352
 10
63.1791
 20
-72.3954
 10
64.7704
 20
-72.7147
 10
65.7253
 20
-74.3087
  0
LWPOLYLINE
  5
95
330
1F
100
AcDbEntity
  8
Layer 1
370
    25
100
AcDbPolyline
 90
        8
 70
     1
 43
0.0
 10
65.7253
 20
-46.3466
 10
64.7704
 20
-47.9412
 10
63.1791
 20
-48.2387
 10
61.9247
 20
-47.3032
 10
61.9247
 20
-45.7079
 10
63.1791
 20
-44.4326
 10
64.7704
 20
-44.7513
 10
65.7253
 20
-46.3466
  0
LWPOLYLINE
  5
96
330
1F
100
AcDbEntity
  8
Layer 1
370
    25
100
AcDbPolyline
 90
        8
 70
     1
 43
0.0
 10
65.7253
 20
-18.7024
 10
64.7704
 20
-20.2977
 10
63.1791
 20
-20.6164
 10
61.9247
 20
-19.6598
 10
61.9247
 20
-17.7458
 10
63.1791
 20
-16.7892
 10
64.7704
 20
-17.1085
 10
65.7253
 20
-18.7024
  0
LWPOLYLINE
  5
97
330
1F
100
AcDbEntity
  8
Layer 1
370
    25
100
AcDbPolyline
 90
        8
 70
     1
 43
0.0
 10
65.7239
 20
8.9396
 10
64.7697
 20
7.3457
 10
63.1784
 20
7.0454
 10
61.9247
 20
8.303
 10
61.9247
 20
9.8969
 10
63.1784
 20
11.1729
 10
64.7697
 20
10.5349
 10
65.7239
 20
8.9396
  0
LWPOLYLINE
  5
98
330
1F
100
AcDbEntity
  8
Layer 1
370
    25
100
AcDbPolyline
 90
        8
 70
     1
 43
0.0
 10
65.7253
 20
36.9017
 10
64.7704
 20
35.3085
 10
63.1791
 20
35.0109
 10
61.9247
 20
35.9451
 10
61.9247
 20
37.5404
 10
63.1791
 20
38.8157
 10
64.7704
 20
38.497
 10
65.7253
 20
36.9017
  0
LWPOLYLINE
  5
99
330
1F
100
AcDbEntity
  8
Layer 1
370
    25
100
AcDbPolyline
 90
        8
 70
     1
 43
0.0
 10
65.7253
 20
64.5459
 10
64.7704
 20
62.9506
 10
63.1791
 20
62.6319
 10
61.9247
 20
63.5892
 10
61.9247
 20
65.5025
 10
63.1791
 20
66.4591
 10
64.7704
 20
66.1405
 10
65.7253
 20
64.5459
  0
LWPOLYLINE
  5
9A
330
1F
100
AcDbEntity
  8
Layer 1
370
    25
100
AcDbPolyline
 90
        8
 70
     1
 43
0.0
 10
65.7253
 20
92.1893
 10
64.7887
 20
90.9351
 10
63.1981
 20
90.2972
 10
61.9247
 20
91.5724
 10
61.9247
 20
93.1459
 10
63.1981
 20
94.4212
 10
64.7887
 20
93.7832
 10
65.7253
 20
92.1893
  0
LWPOLYLINE
  5
9B
330
1F
100
AcDbEntity
  8
Layer 1
370
    25
100
AcDbPolyline
 90
        8
 70
     1
 43
0.0
 10
93.346
 20
36.9017
 10
92.7096
 20
35.3085
 10
90.8195
 20
34.9885
 10
89.5488
 20
35.9451
 10
89.5488
 20
37.5404
 10
90.8195
 20
38.8157
 10
92.7096
 20
38.497
 10
93.346
 20
36.9017
  0
LWPOLYLINE
  5
9C
330
1F
100
AcDbEntity
  8
Layer 1
 62
   250
370
    25
100
AcDbPolyline
 90
        2
 70
     0
 43
0.0
 10
215.5856
 20
-204.5924
 10
-223.5356
 20
-204.5924
  0
LWPOLYLINE
  5
9D
330
1F
100
AcDbEntity
  8
Layer 1
370
    25
100
AcDbPolyline
 90
       10
 70
     1
 43
0.0
 10
-194.6415
 20
158.2973
 10
-195.5957
 20
156.0654
 10
-197.5049
 20
154.7895
 10
-200.0503
 20
155.1088
 10
-201.3231
 20
157.022
 10
-201.3231
 20
159.2328
 10
-200.0503
 20
161.1488
 10
-197.5049
 20
161.4681
 10
-195.5957
 20
160.5115
 10
-194.6415
 20
158.2973
  0
LWPOLYLINE
  5
9E
330
1F
100
AcDbEntity
  8
Layer 1
370
    25
100
AcDbPolyline
 90
       10
 70
     1
 43
0.0
 10
-194.6415
 20
-167.7211
 10
-195.5957
 20
-169.9543
 10
-197.5049
 20
-171.2296
 10
-200.0503
 20
-170.9109
 10
-201.3231
 20
-168.9977
 10
-201.3231
 20
-166.4669
 10
-200.0503
 20
-164.8702
 10
-197.5049
 20
-164.235
 10
-195.5957
 20
-165.5082
 10
-194.6415
 20
-167.7211
  0
LWPOLYLINE
  5
9F
330
1F
100
AcDbEntity
  8
Layer 1
370
    25
100
AcDbPolyline
 90
       10
 70
     1
 43
0.0
 10
193.6909
 20
158.2973
 10
192.736
 20
156.0654
 10
190.5091
 20
154.7895
 10
188.2814
 20
155.1088
 10
186.6908
 20
157.022
 10
186.6908
 20
159.2328
 10
188.2814
 20
161.1488
 10
190.5091
 20
161.4681
 10
192.736
 20
160.5115
 10
193.6909
 20
158.2973
  0
LWPOLYLINE
  5
A0
330
1F
100
AcDbEntity
  8
Layer 1
370
    25
100
AcDbPolyline
 90
       10
 70
     1
 43
0.0
 10
193.6909
 20
-167.7211
 10
192.736
 20
-169.9543
 10
190.5091
 20
-171.2296
 10
188.2814
 20
-170.9109
 10
186.6908
 20
-168.9977
 10
186.6908
 20
-166.4648
 10
188.2814
 20
-164.8702
 10
190.5091
 20
-164.235
 10
192.736
 20
-165.5082
 10
193.6909
 20
-167.7211
  0
LWPOLYLINE
  5
A1
330
1F
100
AcDbEntity
  8
Layer 1
 62
   250
370
    25
100
AcDbPolyline
 90
        2
 70
     0
 43
0.0
 10
220.3581
 20
190.0669
 10
220.3581
 20
-199.5097
  0
LWPOLYLINE
  5
A2
330
1F
100
AcDbEntity
  8
Layer 1
 62
   250
370
    25
100
AcDbPolyline
 90
        2
 70
     0
 43
0.0
 10
-223.5356
 20
194.8296
 10
215.5856
 20
194.8296
  0
LWPOLYLINE
  5
A3
330
1F
100
AcDbEntity
  8
Layer 1
 62
   250
370
    25
100
AcDbPolyline
 90
        2
 70
     0
 43
0.0
 10
-228.6266
 20
-199.5103
 10
-228.6266
 20
190.0648
  0
LWPOLYLINE
  5
A4
330
1F
100
AcDbEntity
  8
Layer 1
370
    25
100
AcDbPolyline
 90
        8
 70
     1
 43
0.0
 10
37.7854
 20
-74.3087
 10
37.1484
 20
-75.9033
 10
35.2583
 20
-76.2219
 10
33.9882
 20
-74.9466
 10
33.9882
 20
-73.352
 10
35.2583
 20
-72.3954
 10
37.1484
 20
-72.7147
 10
37.7854
 20
-74.3087
  0
LWPOLYLINE
  5
A5
330
1F
100
AcDbEntity
  8
Layer 1
370
    25
100
AcDbPolyline
 90
        8
 70
     1
 43
0.0
 10
37.7854
 20
-101.9521
 10
37.1484
 20
-103.5249
 10
35.5578
 20
-103.8443
 10
33.9672
 20
-102.9087
 10
33.9672
 20
-100.9955
 10
35.5578
 20
-100.0389
 10
37.1484
 20
-100.3575
 10
37.7854
 20
-101.9521
  0
LWPOLYLINE
  5
A6
330
1F
100
AcDbEntity
  8
Layer 1
370
    25
100
AcDbPolyline
 90
        8
 70
     1
 43
0.0
 10
37.7854
 20
-129.5956
 10
37.1484
 20
-131.1895
 10
35.5578
 20
-131.8275
 10
33.9672
 20
-130.5522
 10
33.9672
 20
-128.9576
 10
35.5578
 20
-127.7034
 10
37.1484
 20
-128.3196
 10
37.7854
 20
-129.5956
  0
LWPOLYLINE
  5
A7
330
1F
100
AcDbEntity
  8
Layer 1
370
    25
100
AcDbPolyline
 90
        8
 70
     1
 43
0.0
 10
65.7253
 20
120.1514
 10
64.7704
 20
118.5568
 10
63.1791
 20
118.2382
 10
61.9247
 20
119.1948
 10
61.9247
 20
121.108
 10
63.1791
 20
122.0647
 10
64.7704
 20
121.7453
 10
65.7253
 20
120.1514
  0
LWPOLYLINE
  5
A8
330
1F
100
AcDbEntity
  8
Layer 1
370
    25
100
AcDbPolyline
 90
        8
 70
     1
 43
0.0
 10
37.7854
 20
-46.3466
 10
37.1484
 20
-47.9412
 10
35.5578
 20
-48.2598
 10
33.9672
 20
-47.3032
 10
33.9672
 20
-45.7079
 10
35.5578
 20
-44.4326
 10
37.1484
 20
-44.7513
 10
37.7854
 20
-46.3466
  0
LWPOLYLINE
  5
A9
330
1F
100
AcDbEntity
  8
Layer 1
370
    25
100
AcDbPolyline
 90
        8
 70
     1
 43
0.0
 10
37.7854
 20
-18.7024
 10
37.1484
 20
-20.2766
 10
35.5578
 20
-20.598
 10
33.9672
 20
-19.6598
 10
33.9672
 20
-17.7458
 10
35.5578
 20
-16.7892
 10
37.1484
 20
-17.1085
 10
37.7854
 20
-18.7024
  0
LWPOLYLINE
  5
AA
330
1F
100
AcDbEntity
  8
Layer 1
370
    25
100
AcDbPolyline
 90
        8
 70
     1
 43
0.0
 10
37.7854
 20
8.9396
 10
37.1484
 20
7.3457
 10
35.2583
 20
7.0482
 10
33.9882
 20
8.303
 10
33.9882
 20
9.8969
 10
35.2583
 20
11.1729
 10
37.1484
 20
10.5349
 10
37.7854
 20
8.9396
  0
LWPOLYLINE
  5
AB
330
1F
100
AcDbEntity
  8
Layer 1
370
    25
100
AcDbPolyline
 90
        8
 70
     1
 43
0.0
 10
37.7854
 20
36.9017
 10
37.1484
 20
35.3085
 10
35.5578
 20
34.9885
 10
33.9672
 20
35.9451
 10
33.9672
 20
37.5404
 10
35.5578
 20
38.8157
 10
37.1484
 20
38.497
 10
37.7854
 20
36.9017
  0
LWPOLYLINE
  5
AC
330
1F
100
AcDbEntity
  8
Layer 1
370
    25
100
AcDbPolyline
 90
        8
 70
     1
 43
0.0
 10
148.9079
 20
-74.3087
 10
147.953
 20
-75.9033
 10
146.3617
 20
-76.2219
 10
145.1073
 20
-74.9466
 10
145.1073
 20
-73.352
 10
146.3617
 20
-72.3954
 10
147.953
 20
-72.7147
 10
148.9079
 20
-74.3087
  0
LWPOLYLINE
  5
AD
330
1F
100
AcDbEntity
  8
Layer 1
370
    25
100
AcDbPolyline
 90
       16
 70
     1
 43
0.0
 10
156.2251
 20
-101.9521
 10
155.5895
 20
-105.7575
 10
153.044
 20
-108.946
 10
149.8621
 20
-111.1596
 10
145.7444
 20
-111.4782
 10
142.244
 20
-110.2213
 10
139.0628
 20
-107.6708
 10
137.4933
 20
-103.8654
 10
137.4933
 20
-100.0389
 10
139.0628
 20
-96.5494
 10
142.244
 20
-93.7006
 10
145.7444
 20
-92.4253
 10
149.8621
 20
-93.0626
 10
153.044
 20
-94.9548
 10
155.5895
 20
-98.146
 10
156.2251
 20
-101.9521
  0
LWPOLYLINE
  5
AE
330
1F
100
AcDbEntity
  8
Layer 1
370
    25
100
AcDbPolyline
 90
        8
 70
     1
 43
0.0
 10
148.9079
 20
-129.5956
 10
147.953
 20
-131.1895
 10
146.3617
 20
-131.8275
 10
145.1073
 20
-130.5522
 10
145.1073
 20
-128.9576
 10
146.3617
 20
-127.7034
 10
147.953
 20
-128.3196
 10
148.9079
 20
-129.5956
  0
LWPOLYLINE
  5
AF
330
1F
100
AcDbEntity
  8
Layer 1
370
    25
100
AcDbPolyline
 90
        8
 70
     1
 43
0.0
 10
176.549
 20
120.1514
 10
175.9126
 20
118.5568
 10
174.0218
 20
118.2382
 10
172.7497
 20
119.1948
 10
172.7497
 20
121.108
 10
174.0218
 20
122.0647
 10
175.9126
 20
121.7453
 10
176.549
 20
120.1514
  0
LWPOLYLINE
  5
B0
330
1F
100
AcDbEntity
  8
Layer 1
370
    25
100
AcDbPolyline
 90
        8
 70
     1
 43
0.0
 10
148.9079
 20
-46.3466
 10
147.953
 20
-47.9412
 10
146.3617
 20
-48.2387
 10
145.1073
 20
-47.3032
 10
145.1073
 20
-45.7079
 10
146.3617
 20
-44.4326
 10
147.953
 20
-44.7513
 10
148.9079
 20
-46.3466
  0
LWPOLYLINE
  5
B1
330
1F
100
AcDbEntity
  8
Layer 1
370
    25
100
AcDbPolyline
 90
        8
 70
     1
 43
0.0
 10
148.9079
 20
-18.7024
 10
147.953
 20
-20.2977
 10
146.3617
 20
-20.6164
 10
145.1073
 20
-19.6598
 10
145.1073
 20
-17.7458
 10
146.3617
 20
-16.7892
 10
147.953
 20
-17.1085
 10
148.9079
 20
-18.7024
  0
LWPOLYLINE
  5
B2
330
1F
100
AcDbEntity
  8
Layer 1
370
    25
100
AcDbPolyline
 90
        8
 70
     1
 43
0.0
 10
148.9079
 20
8.9396
 10
147.953
 20
7.3457
 10
146.3617
 20
7.0454
 10
145.1073
 20
8.303
 10
145.1073
 20
9.8969
 10
146.3617
 20
11.1729
 10
147.953
 20
10.5349
 10
148.9079
 20
8.9396
  0
LWPOLYLINE
  5
B3
330
1F
100
AcDbEntity
  8
Layer 1
370
    25
100
AcDbPolyline
 90
        8
 70
     1
 43
0.0
 10
148.9079
 20
36.9017
 10
147.953
 20
35.3085
 10
146.3617
 20
35.0109
 10
145.1073
 20
35.9451
 10
145.1073
 20
37.5404
 10
146.3617
 20
38.8157
 10
147.953
 20
38.497
 10
148.9079
 20
36.9017
  0
LWPOLYLINE
  5
B4
330
1F
100
AcDbEntity
  8
Layer 1
370
    25
100
AcDbPolyline
 90
        8
 70
     1
 43
0.0
 10
176.549
 20
92.1893
 10
175.9126
 20
90.9351
 10
174.0035
 20
90.2972
 10
172.7307
 20
91.5724
 10
172.7307
 20
93.1459
 10
174.0035
 20
94.4212
 10
175.9126
 20
93.7832
 10
176.549
 20
92.1893
  0
LWPOLYLINE
  5
B5
330
1F
100
AcDbEntity
  8
Layer 1
370
    25
100
AcDbPolyline
 90
        8
 70
     1
 43
0.0
 10
176.549
 20
64.5459
 10
175.9126
 20
62.9506
 10
174.0218
 20
62.6319
 10
172.7497
 20
63.5892
 10
172.7497
 20
65.5025
 10
174.0218
 20
66.4591
 10
175.9126
 20
66.1405
 10
176.549
 20
64.5459
  0
LWPOLYLINE
  5
B6
330
1F
100
AcDbEntity
  8
Layer 1
370
    25
100
AcDbPolyline
 90
        8
 70
     1
 43
0.0
 10
176.549
 20
36.9017
 10
175.9126
 20
35.3085
 10
174.0218
 20
34.9885
 10
172.7497
 20
35.9451
 10
172.7497
 20
37.5404
 10
174.0218
 20
38.8157
 10
175.9126
 20
38.497
 10
176.549
 20
36.9017
  0
LWPOLYLINE
  5
B7
330
1F
100
AcDbEntity
  8
Layer 1
370
    25
100
AcDbPolyline
 90
        8
 70
     1
 43
0.0
 10
176.549
 20
8.9396
 10
175.9126
 20
7.3457
 10
174.0218
 20
7.0482
 10
172.7497
 20
8.303
 10
172.7497
 20
9.8969
 10
174.0218
 20
11.1729
 10
175.9126
 20
10.5349
 10
176.549
 20
8.9396
  0
LWPOLYLINE
  5
B8
330
1F
100
AcDbEntity
  8
Layer 1
370
    25
100
AcDbPolyline
 90
        8
 70
     1
 43
0.0
 10
176.549
 20
-18.7024
 10
175.9126
 20
-20.2977
 10
174.0218
 20
-20.6164
 10
172.7497
 20
-19.6598
 10
172.7497
 20
-17.7458
 10
174.0218
 20
-16.7892
 10
175.9126
 20
-17.1085
 10
176.549
 20
-18.7024
  0
LWPOLYLINE
  5
B9
330
1F
100
AcDbEntity
  8
Layer 1
370
    25
100
AcDbPolyline
 90
        8
 70
     1
 43
0.0
 10
176.549
 20
-46.3466
 10
175.9126
 20
-47.9412
 10
174.0218
 20
-48.2598
 10
172.7497
 20
-47.3032
 10
172.7497
 20
-45.7079
 10
174.0218
 20
-44.4326
 10
175.9126
 20
-44.7513
 10
176.549
 20
-46.3466
  0
LWPOLYLINE
  5
BA
330
1F
100
AcDbEntity
  8
Layer 1
370
    25
100
AcDbPolyline
 90
        8
 70
     1
 43
0.0
 10
176.549
 20
-74.3087
 10
175.9126
 20
-75.9033
 10
174.0218
 20
-76.2219
 10
172.7497
 20
-74.9466
 10
172.7497
 20
-73.352
 10
174.0218
 20
-72.3954
 10
175.9126
 20
-72.7147
 10
176.549
 20
-74.3087
  0
LWPOLYLINE
  5
BB
330
1F
100
AcDbEntity
  8
Layer 1
370
    25
100
AcDbPolyline
 90
        8
 70
     1
 43
0.0
 10
176.549
 20
-101.9521
 10
175.9126
 20
-103.5467
 10
174.0218
 20
-103.8654
 10
172.7497
 20
-102.9087
 10
172.7497
 20
-100.9955
 10
174.0218
 20
-100.0389
 10
175.9126
 20
-100.3575
 10
176.549
 20
-101.9521
  0
LWPOLYLINE
  5
BC
330
1F
100
AcDbEntity
  8
Layer 1
370
    25
100
AcDbPolyline
 90
        8
 70
     1
 43
0.0
 10
120.968
 20
8.9396
 10
120.331
 20
7.3457
 10
118.4409
 20
7.0482
 10
117.1681
 20
8.303
 10
117.1681
 20
9.8969
 10
118.4409
 20
11.1729
 10
120.331
 20
10.5349
 10
120.968
 20
8.9396
  0
LWPOLYLINE
  5
BD
330
1F
100
AcDbEntity
  8
Layer 1
370
    25
100
AcDbPolyline
 90
        8
 70
     1
 43
0.0
 10
120.968
 20
36.9017
 10
120.331
 20
35.3085
 10
118.7404
 20
34.9885
 10
117.1498
 20
35.9451
 10
117.1498
 20
37.5404
 10
118.7404
 20
38.8157
 10
120.331
 20
38.497
 10
120.968
 20
36.9017
  0
LWPOLYLINE
  5
BE
330
1F
100
AcDbEntity
  8
Layer 1
370
    25
100
AcDbPolyline
 90
        8
 70
     1
 43
0.0
 10
120.968
 20
64.5459
 10
120.331
 20
62.973
 10
118.7404
 20
62.653
 10
117.1498
 20
63.5892
 10
117.1498
 20
65.5025
 10
118.7404
 20
66.4591
 10
120.331
 20
66.1405
 10
120.968
 20
64.5459
  0
LWPOLYLINE
  5
BF
330
1F
100
AcDbEntity
  8
Layer 1
370
    25
100
AcDbPolyline
 90
        8
 70
     1
 43
0.0
 10
120.968
 20
92.1893
 10
120.331
 20
90.9351
 10
118.7404
 20
90.2972
 10
117.1498
 20
91.5724
 10
117.1498
 20
93.1459
 10
118.7404
 20
94.4212
 10
120.331
 20
93.7832
 10
120.968
 20
92.1893
  0
LWPOLYLINE
  5
C0
330
1F
100
AcDbEntity
  8
Layer 1
370
    25
100
AcDbPolyline
 90
        8
 70
     1
 43
0.0
 10
93.346
 20
-74.3087
 10
92.7096
 20
-75.9033
 10
90.8195
 20
-76.2219
 10
89.5488
 20
-74.9466
 10
89.5488
 20
-73.352
 10
90.8195
 20
-72.3954
 10
92.7096
 20
-72.7147
 10
93.346
 20
-74.3087
  0
LWPOLYLINE
  5
C1
330
1F
100
AcDbEntity
  8
Layer 1
370
    25
100
AcDbPolyline
 90
        8
 70
     1
 43
0.0
 10
93.346
 20
-101.9521
 10
92.7096
 20
-103.5467
 10
90.8195
 20
-103.8654
 10
89.5488
 20
-102.9087
 10
89.5488
 20
-100.9955
 10
90.8195
 20
-100.0389
 10
92.7096
 20
-100.3575
 10
93.346
 20
-101.9521
  0
LWPOLYLINE
  5
C2
330
1F
100
AcDbEntity
  8
Layer 1
370
    25
100
AcDbPolyline
 90
        8
 70
     1
 43
0.0
 10
93.346
 20
-129.5956
 10
92.7096
 20
-131.1895
 10
90.8005
 20
-131.8275
 10
89.5277
 20
-130.5522
 10
89.5277
 20
-128.9576
 10
90.8005
 20
-127.7034
 10
92.7096
 20
-128.3196
 10
93.346
 20
-129.5956
  0
LWPOLYLINE
  5
C3
330
1F
100
AcDbEntity
  8
Layer 1
370
    25
100
AcDbPolyline
 90
        8
 70
     1
 43
0.0
 10
120.968
 20
120.1514
 10
120.331
 20
118.5779
 10
118.7404
 20
118.2593
 10
117.1498
 20
119.1948
 10
117.1498
 20
121.108
 10
118.7404
 20
122.0647
 10
120.331
 20
121.7453
 10
120.968
 20
120.1514
  0
LWPOLYLINE
  5
C4
330
1F
100
AcDbEntity
  8
Layer 1
370
    25
100
AcDbPolyline
 90
        8
 70
     1
 43
0.0
 10
120.968
 20
-129.5956
 10
120.331
 20
-131.1895
 10
118.7404
 20
-131.8275
 10
117.1498
 20
-130.5522
 10
117.1498
 20
-128.9576
 10
118.7404
 20
-127.7034
 10
120.331
 20
-128.3196
 10
120.968
 20
-129.5956
  0
LWPOLYLINE
  5
C5
330
1F
100
AcDbEntity
  8
Layer 1
370
    25
100
AcDbPolyline
 90
        8
 70
     1
 43
0.0
 10
148.9079
 20
120.1514
 10
147.953
 20
118.5568
 10
146.3617
 20
118.2382
 10
145.1073
 20
119.1948
 10
145.1073
 20
121.108
 10
146.3617
 20
122.0647
 10
147.953
 20
121.7453
 10
148.9079
 20
120.1514
  0
LWPOLYLINE
  5
C6
330
1F
100
AcDbEntity
  8
Layer 1
370
    25
100
AcDbPolyline
 90
       16
 70
     1
 43
0.0
 10
156.2251
 20
92.1893
 10
155.5895
 20
88.3832
 10
153.044
 20
85.2131
 10
149.8621
 20
83.2998
 10
145.7444
 20
82.9812
 10
142.244
 20
84.2565
 10
139.0628
 20
86.7886
 10
137.4933
 20
90.2972
 10
137.4933
 20
94.4212
 10
139.0628
 20
97.91
 10
142.244
 20
100.4612
 10
145.7444
 20
101.7365
 10
149.8621
 20
101.4179
 10
153.044
 20
99.5046
 10
155.5895
 20
96.3345
 10
156.2251
 20
92.1893
  0
LWPOLYLINE
  5
C7
330
1F
100
AcDbEntity
  8
Layer 1
370
    25
100
AcDbPolyline
 90
        8
 70
     1
 43
0.0
 10
148.9079
 20
64.5459
 10
147.953
 20
62.9506
 10
146.3617
 20
62.6319
 10
145.1073
 20
63.5892
 10
145.1073
 20
65.5025
 10
146.3617
 20
66.4591
 10
147.953
 20
66.1405
 10
148.9079
 20
64.5459
  0
LWPOLYLINE
  5
C8
330
1F
100
AcDbEntity
  8
Layer 1
370
    25
100
AcDbPolyline
 90
        8
 70
     1
 43
0.0
 10
120.968
 20
-101.9521
 10
120.331
 20
-103.5249
 10
118.7404
 20
-103.8443
 10
117.1498
 20
-102.9087
 10
117.1498
 20
-100.9955
 10
118.7404
 20
-100.0389
 10
120.331
 20
-100.3575
 10
120.968
 20
-101.9521
  0
LWPOLYLINE
  5
C9
330
1F
100
AcDbEntity
  8
Layer 1
370
    25
100
AcDbPolyline
 90
        8
 70
     1
 43
0.0
 10
120.968
 20
-74.3087
 10
120.331
 20
-75.9033
 10
118.4409
 20
-76.2219
 10
117.1681
 20
-74.9466
 10
117.1681
 20
-73.352
 10
118.4409
 20
-72.3954
 10
120.331
 20
-72.7147
 10
120.968
 20
-74.3087
  0
LWPOLYLINE
  5
CA
330
1F
100
AcDbEntity
  8
Layer 1
370
    25
100
AcDbPolyline
 90
        8
 70
     1
 43
0.0
 10
120.968
 20
-46.3466
 10
120.331
 20
-47.9412
 10
118.7404
 20
-48.2598
 10
117.1498
 20
-47.3032
 10
117.1498
 20
-45.7079
 10
118.7404
 20
-44.4326
 10
120.331
 20
-44.7513
 10
120.968
 20
-46.3466
  0
LWPOLYLINE
  5
CB
330
1F
100
AcDbEntity
  8
Layer 1
370
    25
100
AcDbPolyline
 90
        8
 70
     1
 43
0.0
 10
120.968
 20
-18.7024
 10
120.331
 20
-20.2766
 10
118.7404
 20
-20.598
 10
117.1498
 20
-19.6598
 10
117.1498
 20
-17.7458
 10
118.7404
 20
-16.7892
 10
120.331
 20
-17.1085
 10
120.968
 20
-18.7024
  0
LWPOLYLINE
  5
CC
330
1F
100
AcDbEntity
  8
Layer 1
370
    25
100
AcDbPolyline
 90
        8
 70
     1
 43
0.0
 10
-73.0396
 20
120.1514
 10
-73.9938
 20
118.5568
 10
-75.5844
 20
118.2382
 10
-76.8368
 20
119.1948
 10
-76.8368
 20
121.108
 10
-75.5844
 20
122.0647
 10
-73.9938
 20
121.7453
 10
-73.0396
 20
120.1514
  0
LWPOLYLINE
  5
CD
330
1F
100
AcDbEntity
  8
Layer 1
370
    25
100
AcDbPolyline
 90
        8
 70
     1
 43
0.0
 10
-73.0396
 20
92.1893
 10
-73.9755
 20
90.9351
 10
-75.5661
 20
90.2972
 10
-76.8368
 20
91.5724
 10
-76.8368
 20
93.1459
 10
-75.5661
 20
94.4212
 10
-73.9755
 20
93.7832
 10
-73.0396
 20
92.1893
  0
LWPOLYLINE
  5
CE
330
1F
100
AcDbEntity
  8
Layer 1
370
    25
100
AcDbPolyline
 90
        8
 70
     1
 43
0.0
 10
-73.0396
 20
64.5459
 10
-73.9938
 20
62.9506
 10
-75.5844
 20
62.6319
 10
-76.8368
 20
63.5892
 10
-76.8368
 20
65.5025
 10
-75.5844
 20
66.4591
 10
-73.9938
 20
66.1405
 10
-73.0396
 20
64.5459
  0
LWPOLYLINE
  5
CF
330
1F
100
AcDbEntity
  8
Layer 1
370
    25
100
AcDbPolyline
 90
        8
 70
     1
 43
0.0
 10
-17.4777
 20
-46.3466
 10
-18.1147
 20
-47.9412
 10
-20.0048
 20
-48.2598
 10
-21.2749
 20
-47.3032
 10
-21.2749
 20
-45.7079
 10
-20.0048
 20
-44.4326
 10
-18.1147
 20
-44.7513
 10
-17.4777
 20
-46.3466
  0
LWPOLYLINE
  5
D0
330
1F
100
AcDbEntity
  8
Layer 1
370
    25
100
AcDbPolyline
 90
        8
 70
     1
 43
0.0
 10
-17.4777
 20
-18.7024
 10
-18.1147
 20
-20.2977
 10
-20.0048
 20
-20.6164
 10
-21.2749
 20
-19.6598
 10
-21.2749
 20
-17.7458
 10
-20.0048
 20
-16.7892
 10
-18.1147
 20
-17.1085
 10
-17.4777
 20
-18.7024
  0
LWPOLYLINE
  5
D1
330
1F
100
AcDbEntity
  8
Layer 1
370
    25
100
AcDbPolyline
 90
        8
 70
     1
 43
0.0
 10
-17.477
 20
8.9396
 10
-18.4319
 20
7.3457
 10
-20.0225
 20
7.0454
 10
-21.2769
 20
8.303
 10
-21.2769
 20
9.8969
 10
-20.0225
 20
11.1729
 10
-18.4319
 20
10.5349
 10
-17.477
 20
8.9396
  0
LWPOLYLINE
  5
D2
330
1F
100
AcDbEntity
  8
Layer 1
370
    25
100
AcDbPolyline
 90
        5
 70
     1
 43
0.0
 10
-122.2548
 20
-64.4278
 10
-126.6687
 20
-71.9031
 10
-126.6687
 20
62.459
 10
-122.2548
 20
54.9837
 10
-122.2548
 20
-64.4278
  0
LWPOLYLINE
  5
D3
330
1F
100
AcDbEntity
  8
Layer 1
370
    25
100
AcDbPolyline
 90
        5
 70
     1
 43
0.0
 10
-136.0628
 20
99.585
 10
-136.0628
 20
-109.0291
 10
-112.8573
 20
-97.425
 10
-112.8573
 20
87.9795
 10
-136.0628
 20
99.585
  0
LWPOLYLINE
  5
D4
330
1F
100
AcDbEntity
  8
Layer 1
 62
   250
370
    18
100
AcDbPolyline
 90
        9
 70
     1
 43
0.0
 10
234.2769
 20
186.0786
 10
273.2786
 20
186.0786
 10
273.2786
 20
181.9198
 10
255.8584
 20
181.9198
 10
255.8584
 20
47.0167
 10
251.6984
 20
47.0167
 10
251.6984
 20
181.9198
 10
234.2769
 20
181.9198
 10
234.2769
 20
186.0786
  0
LWPOLYLINE
  5
D5
330
1F
100
AcDbEntity
  8
Layer 1
 62
   250
370
    18
100
AcDbPolyline
 90
        9
 70
     1
 43
0.0
 10
-223.8466
 20
206.8201
 10
-223.8466
 20
246.2056
 10
-219.6444
 20
246.2056
 10
-219.6444
 20
228.6143
 10
-68.2091
 20
228.6143
 10
-68.2091
 20
224.4127
 10
-219.6444
 20
224.4127
 10
-219.6444
 20
206.8201
 10
-223.8466
 20
206.8201
  0
LWPOLYLINE
  5
D6
330
1F
100
AcDbEntity
  8
Layer 1
 62
   250
370
    18
100
AcDbPolyline
 90
        9
 70
     1
 43
0.0
 10
234.2769
 20
-201.5703
 10
273.2786
 20
-201.5703
 10
273.2786
 20
-197.4115
 10
255.8584
 20
-197.4115
 10
255.8584
 20
-66.4132
 10
251.6984
 20
-66.4132
 10
251.6984
 20
-197.4115
 10
234.2769
 20
-197.4115
 10
234.2769
 20
-201.5703
  0
LWPOLYLINE
  5
D7
330
1F
100
AcDbEntity
  8
Layer 1
 62
   250
370
    18
100
AcDbPolyline
 90
        9
 70
     1
 43
0.0
 10
219.5615
 20
206.8201
 10
219.5615
 20
246.2056
 10
215.3593
 20
246.2056
 10
215.3593
 20
228.6143
 10
51.43
 20
228.6143
 10
51.43
 20
224.4127
 10
215.3593
 20
224.4127
 10
215.3593
 20
206.8201
 10
219.5615
 20
206.8201
  0
LWPOLYLINE
  5
D8
330
1F
100
AcDbEntity
  8
Layer 1
 62
   250
370
    18
100
AcDbPolyline
 90
        4
 70
     1
 43
0.0
 10
-41.6754
 20
234.774
 10
-41.6754
 20
223.6022
 10
-49.0666
 20
223.6022
 10
-41.6754
 20
234.774
  0
LWPOLYLINE
  5
D9
330
1F
100
AcDbEntity
  8
Layer 1
 62
   250
370
    18
100
AcDbPolyline
 90
       11
 70
     1
 43
0.0
 10
-39.6005
 20
221.5555
 10
-37.1556
 20
221.5555
 10
-37.1556
 20
223.6022
 10
-39.6005
 20
223.6022
 10
-39.6287
 20
236.9342
 10
-42.4147
 20
236.9342
 10
-52.5913
 20
221.5555
 10
-41.6754
 20
221.5555
 10
-41.6754
 20
217.6044
 10
-39.6005
 20
217.6044
 10
-39.6005
 20
221.5555
  0
LWPOLYLINE
  5
DA
330
1F
100
AcDbEntity
  8
Layer 1
 62
   250
370
    18
100
AcDbPolyline
 90
      101
 70
     1
 43
0.0
 10
-30.7313
 20
229.7713
 10
-29.4239
 20
234.9445
 10
-22.4309
 20
234.9445
 10
-22.4309
 20
236.9342
 10
-30.9308
 20
236.9342
 10
-33.148
 20
228.2644
 10
-30.9872
 20
227.2982
 10
-30.3452
 20
227.6964
 10
-29.6408
 20
227.9804
 10
-28.8739
 20
228.1503
 10
-28.0453
 20
228.2074
 10
-27.6209
 20
228.1866
 10
-27.21
 20
228.1241
 10
-26.8138
 20
228.0193
 10
-26.4324
 20
227.8736
 10
-26.0644
 20
227.6856
 10
-25.7105
 20
227.456
 10
-25.3714
 20
227.1847
 10
-25.0464
 20
226.8718
 10
-24.7402
 20
226.5226
 10
-24.4743
 20
226.16
 10
-24.2493
 20
225.7853
 10
-24.0653
 20
225.3971
 10
-23.9223
 20
224.9963
 10
-23.8202
 20
224.5826
 10
-23.7585
 20
224.1562
 10
-23.7383
 20
223.7164
 10
-23.7591
 20
223.2618
 10
-23.8216
 20
222.8253
 10
-23.9263
 20
222.407
 10
-24.0727
 20
222.0067
 10
-24.2607
 20
221.6253
 10
-24.4904
 20
221.2614
 10
-24.7617
 20
220.9162
 10
-25.0746
 20
220.5892
 10
-26.5103
 20
219.637
 10
-26.938
 20
219.4812
 10
-27.4128
 20
219.3704
 10
-27.9332
 20
219.304
 10
-28.4999
 20
219.2818
 10
-29.0888
 20
219.3315
 10
-29.6764
 20
219.4806
 10
-30.2619
 20
219.7297
 10
-30.8455
 20
220.0775
 10
-31.3854
 20
220.5059
 10
-31.84
 20
220.9941
 10
-32.21
 20
221.5434
 10
-32.494
 20
222.1525
 10
-34.4273
 20
221.5273
 10
-34.2372
 20
221.0593
 10
-34.0156
 20
220.6147
 10
-33.7631
 20
220.1944
 10
-33.4784
 20
219.7968
 10
-33.1621
 20
219.4228
 10
-32.815
 20
219.073
 10
-32.4356
 20
218.7459
 10
-32.0253
 20
218.4431
 10
-31.5888
 20
218.1664
 10
-31.1423
 20
217.9267
 10
-30.6857
 20
217.7239
 10
-30.2196
 20
217.5581
 10
-29.7442
 20
217.4291
 10
-29.2587
 20
217.3371
 10
-28.7632
 20
217.2814
 10
-28.2582
 20
217.2633
 10
-27.5853
 20
217.2935
 10
-26.938
 20
217.3848
 10
-26.3169
 20
217.5372
 10
-25.7213
 20
217.7501
 10
-25.1518
 20
218.0241
 10
-24.6072
 20
218.3585
 10
-24.0895
 20
218.754
 10
-23.5966
 20
219.2106
 10
-23.1501
 20
219.7062
 10
-22.7633
 20
220.2259
 10
-22.4356
 20
220.7705
 10
-22.1677
 20
221.3393
 10
-21.9595
 20
221.9322
 10
-21.8104
 20
222.55
 10
-21.7211
 20
223.1919
 10
-21.6916
 20
223.8581
 10
-21.7211
 20
224.5208
 10
-21.8091
 20
225.1561
 10
-21.9555
 20
225.7631
 10
-22.161
 20
226.3419
 10
-22.4249
 20
226.8926
 10
-22.7472
 20
227.4157
 10
-23.1279
 20
227.9112
 10
-23.5678
 20
228.3779
 10
-24.0264
 20
228.7822
 10
-24.5199
 20
229.1421
 10
-25.0498
 20
229.457
 10
-25.6145
 20
229.7283
 10
-26.2027
 20
229.9459
 10
-26.801
 20
230.1017
 10
-27.4094
 20
230.195
 10
-28.0265
 20
230.2259
 10
-28.6644
 20
230.1977
 10
-29.3272
 20
230.1124
 10
-30.0162
 20
229.9701
 10
-30.7313
 20
229.7713
  0
LWPOLYLINE
  5
DB
330
1F
100
AcDbEntity
  8
Layer 1
 62
   250
370
    18
100
AcDbPolyline
 90
       54
 70
     1
 43
0.0
 10
-10.677
 20
234.6887
 10
-10.3486
 20
234.4657
 10
-10.0424
 20
234.2126
 10
-9.7584
 20
233.9292
 10
-9.4972
 20
233.6156
 10
-9.2574
 20
233.2718
 10
-9.0405
 20
232.8978
 10
-8.8451
 20
232.4936
 10
-8.6725
 20
232.0591
 10
-8.312
 20
230.8981
 10
-8.0541
 20
229.7035
 10
-7.8997
 20
228.4753
 10
-7.8479
 20
227.2129
 10
-7.9332
 20
225.8054
 10
-8.0319
 20
225.0412
 10
-8.1609
 20
224.3194
 10
-8.32
 20
223.6398
 10
-8.5094
 20
223.0019
 10
-8.7283
 20
222.4063
 10
-8.9781
 20
221.853
 10
-9.2581
 20
221.342
 10
-9.5683
 20
220.8732
 10
-9.851
 20
220.52
 10
-10.1492
 20
220.2145
 10
-10.4621
 20
219.9553
 10
-10.7905
 20
219.7438
 10
-11.1336
 20
219.5793
 10
-11.4922
 20
219.4611
 10
-11.8655
 20
219.3906
 10
-12.2543
 20
219.3671
 10
-12.6881
 20
219.3906
 10
-13.1011
 20
219.4604
 10
-13.4926
 20
219.5766
 10
-13.8639
 20
219.7398
 10
-14.2144
 20
219.9499
 10
-14.5435
 20
220.2064
 10
-14.8524
 20
220.5093
 10
-15.1398
 20
220.8591
 10
-15.9644
 20
222.366
 10
-16.4613
 20
224.0857
 10
-16.703
 20
225.7913
 10
-16.7742
 20
227.691
 10
-16.4613
 20
230.3535
 10
-15.9785
 20
232.0732
 10
-15.168
 20
233.6082
 10
-13.974
 20
234.7028
 10
-13.6101
 20
234.8834
 10
-13.2139
 20
235.0123
 10
-12.7855
 20
235.0896
 10
-12.3255
 20
235.1151
 10
-11.8649
 20
235.0882
 10
-11.4371
 20
235.0083
 10
-11.0409
 20
234.8754
 10
-10.677
 20
234.6887
  0
LWPOLYLINE
  5
DC
330
1F
100
AcDbEntity
  8
Layer 1
 62
   250
370
    18
100
AcDbPolyline
 90
       65
 70
     1
 43
0.0
 10
-12.2261
 20
217.3485
 10
-11.3962
 20
217.4009
 10
-10.6192
 20
217.5594
 10
-9.8947
 20
217.822
 10
-9.2232
 20
218.1906
 10
-8.6047
 20
218.664
 10
-8.0393
 20
219.2435
 10
-7.5263
 20
219.9271
 10
-7.0663
 20
220.7168
 10
-6.7433
 20
221.4057
 10
-6.4633
 20
222.133
 10
-6.2263
 20
222.8985
 10
-6.0329
 20
223.7016
 10
-5.8818
 20
224.5437
 10
-5.7737
 20
225.4233
 10
-5.7092
 20
226.3419
 10
-5.6877
 20
227.2982
 10
-5.7092
 20
228.2544
 10
-5.7737
 20
229.1723
 10
-5.8818
 20
230.052
 10
-6.0329
 20
230.894
 10
-6.2263
 20
231.6972
 10
-6.4633
 20
232.4627
 10
-6.7433
 20
233.1899
 10
-7.0663
 20
233.8789
 10
-7.5263
 20
234.6685
 10
-8.0393
 20
235.3528
 10
-8.6047
 20
235.9316
 10
-9.2232
 20
236.405
 10
-9.8947
 20
236.7737
 10
-10.6192
 20
237.0369
 10
-11.3962
 20
237.1947
 10
-12.2261
 20
237.2471
 10
-13.0561
 20
237.1947
 10
-13.833
 20
237.0369
 10
-14.5576
 20
236.7737
 10
-15.2291
 20
236.405
 10
-15.8475
 20
235.9316
 10
-16.4129
 20
235.3528
 10
-16.9253
 20
234.6685
 10
-17.3853
 20
233.8789
 10
-17.7083
 20
233.1899
 10
-17.9883
 20
232.4627
 10
-18.2253
 20
231.6972
 10
-18.4194
 20
230.894
 10
-18.5698
 20
230.052
 10
-18.6779
 20
229.1723
 10
-18.7424
 20
228.2544
 10
-18.7638
 20
227.2982
 10
-18.7424
 20
226.3419
 10
-18.6779
 20
225.4233
 10
-18.5698
 20
224.5437
 10
-18.4194
 20
223.7016
 10
-18.2253
 20
222.8985
 10
-17.9883
 20
222.133
 10
-17.7083
 20
221.4057
 10
-17.3853
 20
220.7168
 10
-16.9253
 20
219.9271
 10
-16.4129
 20
219.2435
 10
-15.8475
 20
218.664
 10
-15.2291
 20
218.1906
 10
-14.5576
 20
217.822
 10
-13.833
 20
217.5594
 10
-13.0561
 20
217.4009
 10
-12.2261
 20
217.3485
  0
LWPOLYLINE
  5
DD
330
1F
100
AcDbEntity
  8
Layer 1
 62
   250
370
    18
100
AcDbPolyline
 90
       93
 70
     1
 43
0.0
 10
13.7273
 20
217.6615
 10
15.717
 20
217.6615
 10
15.717
 20
225.4784
 10
15.7009
 20
225.9975
 10
15.6519
 20
226.4924
 10
15.5713
 20
226.9624
 10
15.4578
 20
227.4083
 10
15.3114
 20
227.8293
 10
15.1335
 20
228.2262
 10
14.9226
 20
228.5989
 10
14.6795
 20
228.9467
 10
13.3573
 20
230.0412
 10
12.9276
 20
230.2212
 10
12.4334
 20
230.3501
 10
11.876
 20
230.428
 10
11.2542
 20
230.4535
 10
10.621
 20
230.4092
 10
10.028
 20
230.2756
 10
9.4767
 20
230.0533
 10
8.9657
 20
229.7424
 10
8.5413
 20
229.3979
 10
8.1552
 20
229.0044
 10
7.8087
 20
228.5633
 10
7.5019
 20
228.0751
 10
6.9761
 20
228.9467
 10
5.6539
 20
230.0412
 10
5.2241
 20
230.2212
 10
4.7299
 20
230.3501
 10
4.1726
 20
230.428
 10
3.5508
 20
230.4535
 10
2.9169
 20
230.4092
 10
2.3246
 20
230.2756
 10
1.7726
 20
230.0533
 10
1.2623
 20
229.7424
 10
0.8574
 20
229.4154
 10
0.4874
 20
229.0454
 10
0.1536
 20
228.6318
 10
-0.1452
 20
228.1745
 10
-0.1452
 20
230.1688
 10
-2.1348
 20
230.1688
 10
-2.1348
 20
217.6615
 10
-0.1452
 20
217.6615
 10
-0.1452
 20
224.0622
 10
-0.0384
 20
224.7935
 10
0.1254
 20
225.467
 10
0.3457
 20
226.0834
 10
0.6224
 20
226.6441
 10
0.8695
 20
227.0242
 10
1.1555
 20
227.3687
 10
1.4812
 20
227.6782
 10
1.8452
 20
227.9515
 10
2.236
 20
228.1751
 10
2.6409
 20
228.3356
 10
3.0599
 20
228.431
 10
3.4937
 20
228.4632
 10
3.906
 20
228.4464
 10
4.2612
 20
228.3961
 10
4.5594
 20
228.3115
 10
4.8011
 20
228.1933
 10
5.0878
 20
227.9811
 10
5.3363
 20
227.7333
 10
5.5465
 20
227.4486
 10
5.7184
 20
227.1269
 10
5.852
 20
226.7697
 10
5.9473
 20
226.3755
 10
6.0051
 20
225.9451
 10
6.0239
 20
225.4784
 10
6.0239
 20
217.6615
 10
8.0135
 20
217.6615
 10
8.0135
 20
225.4784
 10
7.9994
 20
225.9572
 10
8.3265
 20
226.6441
 10
8.5729
 20
227.0242
 10
8.859
 20
227.3687
 10
9.1846
 20
227.6782
 10
9.5486
 20
227.9515
 10
9.9394
 20
228.1751
 10
10.3443
 20
228.3356
 10
10.7633
 20
228.431
 10
11.1971
 20
228.4632
 10
11.6094
 20
228.4464
 10
11.9647
 20
228.3961
 10
12.2628
 20
228.3115
 10
12.5045
 20
228.1933
 10
12.7913
 20
227.9811
 10
13.0397
 20
227.7333
 10
13.2499
 20
227.4486
 10
13.4218
 20
227.1269
 10
13.5554
 20
226.7697
 10
13.6508
 20
226.3755
 10
13.7085
 20
225.9451
 10
13.7273
 20
225.4784
 10
13.7273
 20
217.6615
  0
LWPOLYLINE
  5
DE
330
1F
100
AcDbEntity
  8
Layer 1
 62
   250
370
    18
100
AcDbPolyline
 90
       93
 70
     1
 43
0.0
 10
35.4168
 20
217.6615
 10
37.4064
 20
217.6615
 10
37.4064
 20
225.4784
 10
37.3903
 20
225.9975
 10
37.3413
 20
226.4924
 10
37.2607
 20
226.9624
 10
37.1472
 20
227.4083
 10
37.0009
 20
227.8293
 10
36.8229
 20
228.2262
 10
36.6121
 20
228.5989
 10
36.369
 20
228.9467
 10
35.0468
 20
230.0412
 10
34.617
 20
230.2212
 10
34.1228
 20
230.3501
 10
33.5655
 20
230.428
 10
32.9436
 20
230.4535
 10
32.3104
 20
230.4092
 10
31.7175
 20
230.2756
 10
31.1662
 20
230.0533
 10
30.6552
 20
229.7424
 10
30.2308
 20
229.3979
 10
29.8447
 20
229.0044
 10
29.4982
 20
228.5633
 10
29.1913
 20
228.0751
 10
28.6655
 20
228.9467
 10
27.3433
 20
230.0412
 10
26.9136
 20
230.2212
 10
26.4194
 20
230.3501
 10
25.862
 20
230.428
 10
25.2402
 20
230.4535
 10
24.6063
 20
230.4092
 10
24.014
 20
230.2756
 10
23.4621
 20
230.0533
 10
22.9517
 20
229.7424
 10
22.5468
 20
229.4154
 10
22.1768
 20
229.0454
 10
21.8431
 20
228.6318
 10
21.5443
 20
228.1745
 10
21.5443
 20
230.1688
 10
19.5546
 20
230.1688
 10
19.5546
 20
217.6615
 10
21.5443
 20
217.6615
 10
21.5443
 20
224.0622
 10
21.651
 20
224.7935
 10
21.8149
 20
225.467
 10
22.0351
 20
226.0834
 10
22.3118
 20
226.6441
 10
22.5589
 20
227.0242
 10
22.845
 20
227.3687
 10
23.1706
 20
227.6782
 10
23.5346
 20
227.9515
 10
23.9254
 20
228.1751
 10
24.3303
 20
228.3356
 10
24.7493
 20
228.431
 10
25.1831
 20
228.4632
 10
25.5954
 20
228.4464
 10
25.9507
 20
228.3961
 10
26.2488
 20
228.3115
 10
26.4905
 20
228.1933
 10
26.7773
 20
227.9811
 10
27.0257
 20
227.7333
 10
27.2359
 20
227.4486
 10
27.4078
 20
227.1269
 10
27.5414
 20
226.7697
 10
27.6368
 20
226.3755
 10
27.6945
 20
225.9451
 10
27.7133
 20
225.4784
 10
27.7133
 20
217.6615
 10
29.703
 20
217.6615
 10
29.703
 20
225.4784
 10
29.6889
 20
225.9572
 10
30.0159
 20
226.6441
 10
30.2624
 20
227.0242
 10
30.5484
 20
227.3687
 10
30.8741
 20
227.6782
 10
31.238
 20
227.9515
 10
31.6289
 20
228.1751
 10
32.0338
 20
228.3356
 10
32.4528
 20
228.431
 10
32.8866
 20
228.4632
 10
33.2989
 20
228.4464
 10
33.6541
 20
228.3961
 10
33.9522
 20
228.3115
 10
34.194
 20
228.1933
 10
34.4807
 20
227.9811
 10
34.7292
 20
227.7333
 10
34.9393
 20
227.4486
 10
35.1113
 20
227.1269
 10
35.2449
 20
226.7697
 10
35.3402
 20
226.3755
 10
35.398
 20
225.9451
 10
35.4168
 20
225.4784
 10
35.4168
 20
217.6615
  0
LWPOLYLINE
  5
DF
330
1F
100
AcDbEntity
  8
Layer 1
 62
   250
370
    18
100
AcDbPolyline
 90
        4
 70
     1
 43
0.0
 10
261.2211
 20
25.9956
 10
250.1614
 20
25.9956
 10
250.1614
 20
33.3126
 10
261.2211
 20
25.9956
  0
LWPOLYLINE
  5
E0
330
1F
100
AcDbEntity
  8
Layer 1
 62
   250
370
    18
100
AcDbPolyline
 90
       11
 70
     1
 43
0.0
 10
248.1352
 20
23.9414
 10
248.1352
 20
21.521
 10
250.1614
 20
21.521
 10
250.1614
 20
23.9414
 10
263.3596
 20
23.9694
 10
263.3596
 20
26.7275
 10
248.1352
 20
36.802
 10
248.1352
 20
25.9956
 10
244.2238
 20
25.9956
 10
244.2238
 20
23.9414
 10
248.1352
 20
23.9414
  0
LWPOLYLINE
  5
E1
330
1F
100
AcDbEntity
  8
Layer 1
 62
   250
370
    18
100
AcDbPolyline
 90
       54
 70
     1
 43
0.0
 10
261.1367
 20
10.7858
 10
260.916
 20
10.4607
 10
260.6654
 20
10.1576
 10
260.3848
 20
9.8764
 10
260.0744
 20
9.6178
 10
259.734
 20
9.3805
 10
259.3637
 20
9.1657
 10
258.9636
 20
8.9723
 10
258.5335
 20
8.8014
 10
257.3841
 20
8.4445
 10
256.2015
 20
8.1892
 10
254.9856
 20
8.0363
 10
253.7359
 20
7.9851
 10
252.3425
 20
8.0695
 10
251.586
 20
8.1673
 10
250.8714
 20
8.2949
 10
250.1987
 20
8.4524
 10
249.5671
 20
8.6399
 10
248.9775
 20
8.8566
 10
248.4297
 20
9.1039
 10
247.9238
 20
9.3811
 10
247.4598
 20
9.6882
 10
247.1102
 20
9.9681
 10
246.8077
 20
10.2633
 10
246.5511
 20
10.573
 10
246.3417
 20
10.8981
 10
246.1788
 20
11.2378
 10
246.0618
 20
11.5928
 10
245.992
 20
11.9624
 10
245.9688
 20
12.3473
 10
245.992
 20
12.7767
 10
246.0612
 20
13.1856
 10
246.1762
 20
13.5731
 10
246.3377
 20
13.9407
 10
246.5458
 20
14.2877
 10
246.7997
 20
14.6135
 10
247.0995
 20
14.9193
 10
247.4459
 20
15.2038
 10
248.9376
 20
16.0201
 10
250.6401
 20
16.512
 10
252.3286
 20
16.7514
 10
254.2092
 20
16.8218
 10
256.845
 20
16.512
 10
258.5474
 20
16.0341
 10
260.0671
 20
15.2317
 10
261.1506
 20
14.0498
 10
261.3295
 20
13.6895
 10
261.4571
 20
13.2972
 10
261.5335
 20
12.8731
 10
261.5588
 20
12.4178
 10
261.5322
 20
11.9617
 10
261.4531
 20
11.5383
 10
261.3215
 20
11.1461
 10
261.1367
 20
10.7858
  0
LWPOLYLINE
  5
E2
330
1F
100
AcDbEntity
  8
Layer 1
 62
   250
370
    18
100
AcDbPolyline
 90
       65
 70
     1
 43
0.0
 10
243.9705
 20
12.3194
 10
244.0223
 20
11.4977
 10
244.1786
 20
10.7286
 10
244.4391
 20
10.0113
 10
244.8041
 20
9.3466
 10
245.2728
 20
8.7343
 10
245.8458
 20
8.1746
 10
246.5232
 20
7.6667
 10
247.3049
 20
7.2113
 10
247.987
 20
6.8916
 10
248.7069
 20
6.6144
 10
249.4648
 20
6.3797
 10
250.2598
 20
6.1883
 10
251.0934
 20
6.0387
 10
251.9643
 20
5.9317
 10
252.8737
 20
5.8678
 10
253.8203
 20
5.8466
 10
254.7669
 20
5.8678
 10
255.6756
 20
5.9317
 10
256.5465
 20
6.0387
 10
257.3801
 20
6.1883
 10
258.1752
 20
6.3797
 10
258.933
 20
6.6144
 10
259.6529
 20
6.8916
 10
260.335
 20
7.2113
 10
261.1167
 20
7.6667
 10
261.7935
 20
8.1746
 10
262.3671
 20
8.7343
 10
262.8358
 20
9.3466
 10
263.2008
 20
10.0113
 10
263.4607
 20
10.7286
 10
263.6176
 20
11.4977
 10
263.6694
 20
12.3194
 10
263.6176
 20
13.141
 10
263.4607
 20
13.9102
 10
263.2008
 20
14.6274
 10
262.8358
 20
15.2922
 10
262.3671
 20
15.9044
 10
261.7935
 20
16.4642
 10
261.1167
 20
16.9714
 10
260.335
 20
17.4268
 10
259.6529
 20
17.7465
 10
258.933
 20
18.0237
 10
258.1752
 20
18.2584
 10
257.3801
 20
18.4505
 10
256.5465
 20
18.5994
 10
255.6756
 20
18.7064
 10
254.7669
 20
18.7702
 10
253.8203
 20
18.7915
 10
252.8737
 20
18.7702
 10
251.9643
 20
18.7064
 10
251.0934
 20
18.5994
 10
250.2598
 20
18.4505
 10
249.4648
 20
18.2584
 10
248.7069
 20
18.0237
 10
247.987
 20
17.7465
 10
247.3049
 20
17.4268
 10
246.5232
 20
16.9714
 10
245.8458
 20
16.4642
 10
245.2728
 20
15.9044
 10
244.8041
 20
15.2922
 10
244.4391
 20
14.6274
 10
244.1786
 20
13.9102
 10
244.0223
 20
13.141
 10
243.9705
 20
12.3194
  0
LWPOLYLINE
  5
E3
330
1F
100
AcDbEntity
  8
Layer 1
 62
   250
370
    18
100
AcDbPolyline
 90
       54
 70
     1
 43
0.0
 10
261.1367
 20
-4.9731
 10
260.916
 20
-5.2982
 10
260.6654
 20
-5.6013
 10
260.3848
 20
-5.8825
 10
260.0744
 20
-6.1411
 10
259.734
 20
-6.3784
 10
259.3637
 20
-6.5931
 10
258.9636
 20
-6.7866
 10
258.5335
 20
-6.9574
 10
257.3841
 20
-7.3144
 10
256.2015
 20
-7.5697
 10
254.9856
 20
-7.7226
 10
253.7359
 20
-7.7738
 10
252.3425
 20
-7.6893
 10
251.586
 20
-7.5916
 10
250.8714
 20
-7.464
 10
250.1987
 20
-7.3064
 10
249.5671
 20
-7.119
 10
248.9775
 20
-6.9023
 10
248.4297
 20
-6.655
 10
247.9238
 20
-6.3778
 10
247.4598
 20
-6.0706
 10
247.1102
 20
-5.7908
 10
246.8077
 20
-5.4956
 10
246.5511
 20
-5.1858
 10
246.3417
 20
-4.8608
 10
246.1788
 20
-4.5211
 10
246.0618
 20
-4.1661
 10
245.992
 20
-3.7965
 10
245.9688
 20
-3.4116
 10
245.992
 20
-2.9822
 10
246.0612
 20
-2.5733
 10
246.1762
 20
-2.1858
 10
246.3377
 20
-1.8182
 10
246.5458
 20
-1.4711
 10
246.7997
 20
-1.1454
 10
247.0995
 20
-0.8396
 10
247.4459
 20
-0.5551
 10
248.9376
 20
0.2612
 10
250.6401
 20
0.7532
 10
252.3286
 20
0.9925
 10
254.2092
 20
1.0629
 10
256.845
 20
0.7532
 10
258.5474
 20
0.2752
 10
260.0671
 20
-0.5272
 10
261.1506
 20
-1.7091
 10
261.3295
 20
-2.0694
 10
261.4571
 20
-2.4616
 10
261.5335
 20
-2.8858
 10
261.5588
 20
-3.3411
 10
261.5322
 20
-3.7972
 10
261.4531
 20
-4.2206
 10
261.3215
 20
-4.6128
 10
261.1367
 20
-4.9731
  0
LWPOLYLINE
  5
E4
330
1F
100
AcDbEntity
  8
Layer 1
 62
   250
370
    18
100
AcDbPolyline
 90
       65
 70
     1
 43
0.0
 10
243.9705
 20
-3.4395
 10
244.0223
 20
-4.2612
 10
244.1786
 20
-5.0303
 10
244.4391
 20
-5.7476
 10
244.8041
 20
-6.4123
 10
245.2728
 20
-7.0246
 10
245.8458
 20
-7.5843
 10
246.5232
 20
-8.0922
 10
247.3049
 20
-8.5476
 10
247.987
 20
-8.8673
 10
248.7069
 20
-9.1445
 10
249.4648
 20
-9.3792
 10
250.2598
 20
-9.5706
 10
251.0934
 20
-9.7202
 10
251.9643
 20
-9.8272
 10
252.8737
 20
-9.891
 10
253.8203
 20
-9.9123
 10
254.7669
 20
-9.891
 10
255.6756
 20
-9.8272
 10
256.5465
 20
-9.7202
 10
257.3801
 20
-9.5706
 10
258.1752
 20
-9.3792
 10
258.933
 20
-9.1445
 10
259.6529
 20
-8.8673
 10
260.335
 20
-8.5476
 10
261.1167
 20
-8.0922
 10
261.7935
 20
-7.5843
 10
262.3671
 20
-7.0246
 10
262.8358
 20
-6.4123
 10
263.2008
 20
-5.7476
 10
263.4607
 20
-5.0303
 10
263.6176
 20
-4.2612
 10
263.6694
 20
-3.4395
 10
263.6176
 20
-2.6179
 10
263.4607
 20
-1.8487
 10
263.2008
 20
-1.1315
 10
262.8358
 20
-0.4667
 10
262.3671
 20
0.1456
 10
261.7935
 20
0.7053
 10
261.1167
 20
1.2125
 10
260.335
 20
1.6679
 10
259.6529
 20
1.9876
 10
258.933
 20
2.2648
 10
258.1752
 20
2.4995
 10
257.3801
 20
2.6916
 10
256.5465
 20
2.8405
 10
255.6756
 20
2.9475
 10
254.7669
 20
3.0114
 10
253.8203
 20
3.0326
 10
252.8737
 20
3.0114
 10
251.9643
 20
2.9475
 10
251.0934
 20
2.8405
 10
250.2598
 20
2.6916
 10
249.4648
 20
2.4995
 10
248.7069
 20
2.2648
 10
247.987
 20
1.9876
 10
247.3049
 20
1.6679
 10
246.5232
 20
1.2125
 10
245.8458
 20
0.7053
 10
245.2728
 20
0.1456
 10
244.8041
 20
-0.4667
 10
244.4391
 20
-1.1315
 10
244.1786
 20
-1.8487
 10
244.0223
 20
-2.6179
 10
243.9705
 20
-3.4395
  0
LWPOLYLINE
  5
E5
330
1F
100
AcDbEntity
  8
Layer 1
 62
   250
370
    18
100
AcDbPolyline
 90
       93
 70
     1
 43
0.0
 10
244.2803
 20
-29.1326
 10
244.2803
 20
-31.1023
 10
252.0188
 20
-31.1023
 10
252.5326
 20
-31.0864
 10
253.0226
 20
-31.0378
 10
253.4879
 20
-30.9581
 10
253.9286
 20
-30.8457
 10
254.3461
 20
-30.7008
 10
254.739
 20
-30.5246
 10
255.1079
 20
-30.3159
 10
255.4523
 20
-30.0753
 10
256.5358
 20
-28.7663
 10
256.714
 20
-28.3409
 10
256.8416
 20
-27.8516
 10
256.9187
 20
-27.2999
 10
256.944
 20
-26.6843
 10
256.9001
 20
-26.0574
 10
256.7678
 20
-25.4704
 10
256.5478
 20
-24.9247
 10
256.24
 20
-24.4188
 10
255.899
 20
-23.9987
 10
255.5094
 20
-23.6164
 10
255.0727
 20
-23.2734
 10
254.5894
 20
-22.9696
 10
255.4523
 20
-22.4491
 10
256.5358
 20
-21.1402
 10
256.714
 20
-20.7147
 10
256.8416
 20
-20.2255
 10
256.9187
 20
-19.6737
 10
256.944
 20
-19.0581
 10
256.9001
 20
-18.4306
 10
256.7678
 20
-17.8443
 10
256.5478
 20
-17.2978
 10
256.24
 20
-16.7926
 10
255.9163
 20
-16.3918
 10
255.55
 20
-16.0255
 10
255.1405
 20
-15.6951
 10
254.6878
 20
-15.3993
 10
256.6621
 20
-15.3993
 10
256.6621
 20
-13.4296
 10
244.2803
 20
-13.4296
 10
244.2803
 20
-15.3993
 10
250.6168
 20
-15.3993
 10
251.3407
 20
-15.505
 10
252.0075
 20
-15.6672
 10
252.6177
 20
-15.8852
 10
253.1728
 20
-16.1591
 10
253.5491
 20
-16.4037
 10
253.8901
 20
-16.6869
 10
254.1965
 20
-17.0093
 10
254.4671
 20
-17.3696
 10
254.6885
 20
-17.7565
 10
254.8467
 20
-18.1574
 10
254.9417
 20
-18.5722
 10
254.9736
 20
-19.0016
 10
254.957
 20
-19.4098
 10
254.9065
 20
-19.7615
 10
254.8234
 20
-20.0566
 10
254.7064
 20
-20.2959
 10
254.4963
 20
-20.5798
 10
254.2511
 20
-20.8257
 10
253.9692
 20
-21.0338
 10
253.6508
 20
-21.204
 10
253.2971
 20
-21.3363
 10
252.9069
 20
-21.4307
 10
252.4808
 20
-21.4878
 10
252.0188
 20
-21.5065
 10
244.2803
 20
-21.5065
 10
244.2803
 20
-23.4762
 10
252.0188
 20
-23.4762
 10
252.4928
 20
-23.4622
 10
253.1728
 20
-23.7859
 10
253.5491
 20
-24.0299
 10
253.8901
 20
-24.3131
 10
254.1965
 20
-24.6355
 10
254.4671
 20
-24.9958
 10
254.6885
 20
-25.3827
 10
254.8467
 20
-25.7835
 10
254.9417
 20
-26.1984
 10
254.9736
 20
-26.6278
 10
254.957
 20
-27.036
 10
254.9065
 20
-27.3876
 10
254.8234
 20
-27.6828
 10
254.7064
 20
-27.9221
 10
254.4963
 20
-28.2059
 10
254.2511
 20
-28.4519
 10
253.9692
 20
-28.66
 10
253.6508
 20
-28.8302
 10
253.2971
 20
-28.9624
 10
252.9069
 20
-29.0568
 10
252.4808
 20
-29.114
 10
252.0188
 20
-29.1326
 10
244.2803
 20
-29.1326
  0
LWPOLYLINE
  5
E6
330
1F
100
AcDbEntity
  8
Layer 1
 62
   250
370
    18
100
AcDbPolyline
 90
       93
 70
     1
 43
0.0
 10
244.2803
 20
-50.6045
 10
244.2803
 20
-52.5742
 10
252.0188
 20
-52.5742
 10
252.5326
 20
-52.5582
 10
253.0226
 20
-52.5097
 10
253.4879
 20
-52.4299
 10
253.9286
 20
-52.3176
 10
254.3461
 20
-52.1727
 10
254.739
 20
-51.9965
 10
255.1079
 20
-51.7878
 10
255.4523
 20
-51.5471
 10
256.5358
 20
-50.2382
 10
256.714
 20
-49.8128
 10
256.8416
 20
-49.3235
 10
256.9187
 20
-48.7717
 10
256.944
 20
-48.1562
 10
256.9001
 20
-47.5293
 10
256.7678
 20
-46.9423
 10
256.5478
 20
-46.3965
 10
256.24
 20
-45.8906
 10
255.899
 20
-45.4705
 10
255.5094
 20
-45.0883
 10
255.0727
 20
-44.7453
 10
254.5894
 20
-44.4415
 10
255.4523
 20
-43.921
 10
256.5358
 20
-42.612
 10
256.714
 20
-42.1866
 10
256.8416
 20
-41.6973
 10
256.9187
 20
-41.1456
 10
256.944
 20
-40.53
 10
256.9001
 20
-39.9025
 10
256.7678
 20
-39.3161
 10
256.5478
 20
-38.7697
 10
256.24
 20
-38.2645
 10
255.9163
 20
-37.8636
 10
255.55
 20
-37.4973
 10
255.1405
 20
-37.167
 10
254.6878
 20
-36.8711
 10
256.6621
 20
-36.8711
 10
256.6621
 20
-34.9014
 10
244.2803
 20
-34.9014
 10
244.2803
 20
-36.8711
 10
250.6168
 20
-36.8711
 10
251.3407
 20
-36.9768
 10
252.0075
 20
-37.139
 10
252.6177
 20
-37.3571
 10
253.1728
 20
-37.631
 10
253.5491
 20
-37.8756
 10
253.8901
 20
-38.1588
 10
254.1965
 20
-38.4812
 10
254.4671
 20
-38.8415
 10
254.6885
 20
-39.2284
 10
254.8467
 20
-39.6292
 10
254.9417
 20
-40.0441
 10
254.9736
 20
-40.4735
 10
254.957
 20
-40.8817
 10
254.9065
 20
-41.2333
 10
254.8234
 20
-41.5285
 10
254.7064
 20
-41.7678
 10
254.4963
 20
-42.0516
 10
254.2511
 20
-42.2976
 10
253.9692
 20
-42.5057
 10
253.6508
 20
-42.6759
 10
253.2971
 20
-42.8081
 10
252.9069
 20
-42.9025
 10
252.4808
 20
-42.9597
 10
252.0188
 20
-42.9783
 10
244.2803
 20
-42.9783
 10
244.2803
 20
-44.948
 10
252.0188
 20
-44.948
 10
252.4928
 20
-44.9341
 10
253.1728
 20
-45.2578
 10
253.5491
 20
-45.5018
 10
253.8901
 20
-45.785
 10
254.1965
 20
-46.1074
 10
254.4671
 20
-46.4677
 10
254.6885
 20
-46.8546
 10
254.8467
 20
-47.2554
 10
254.9417
 20
-47.6702
 10
254.9736
 20
-48.0997
 10
254.957
 20
-48.5078
 10
254.9065
 20
-48.8595
 10
254.8234
 20
-49.1546
 10
254.7064
 20
-49.394
 10
254.4963
 20
-49.6778
 10
254.2511
 20
-49.9238
 10
253.9692
 20
-50.1318
 10
253.6508
 20
-50.302
 10
253.2971
 20
-50.4343
 10
252.9069
 20
-50.5287
 10
252.4808
 20
-50.5859
 10
252.0188
 20
-50.6045
 10
244.2803
 20
-50.6045
  0
ENDSEC
  0
SECTION
  2
OBJECTS
  0
DICTIONARY
  5
C
330
0
100
AcDbDictionary
281
     1
  3
ACAD_DETAILVIEWSTYLE
350
EE
  3
ACAD_GROUP
350
D
  3
ACAD_LAYOUT
350
1A
  3
ACAD_MATERIAL
350
43
  3
ACAD_MLEADERSTYLE
350
5B
  3
ACAD_MLINESTYLE
350
17
  3
ACAD_PLOTSETTINGS
350
19
  3
ACAD_PLOTSTYLENAME
350
E
  3
ACAD_SCALELIST
350
47
  3
ACAD_SECTIONVIEWSTYLE
350
EF
  3
ACAD_TABLESTYLE
350
59
  3
ACAD_VISUALSTYLE
350
2A
  3
ACDB_RECOMPOSE_DATA
350
EB
  3
AcDbVariableDictionary
350
E7
  0
SUN
  5
5D
330
29
100
AcDbSun
 90
        1
290
     0
 63
     7
421
 16777215
 40
1.0
291
     1
 91
  2455826
 92
 54000000
292
     0
 70
     2
 71
   256
280
     1
  0
DICTIONARY
  5
EE
102
{ACAD_REACTORS
330
C
102
}
330
C
100
AcDbDictionary
281
     1
  0
DICTIONARY
  5
D
102
{ACAD_REACTORS
330
C
102
}
330
C
100
AcDbDictionary
281
     1
  0
DICTIONARY
  5
1A
102
{ACAD_REACTORS
330
C
102
}
330
C
100
AcDbDictionary
281
     1
  3
Layout1
350
1E
  3
Layout2
350
26
  3
Model
350
22
  0
DICTIONARY
  5
43
102
{ACAD_REACTORS
330
C
102
}
330
C
100
AcDbDictionary
281
     1
  3
ByBlock
350
45
  3
ByLayer
350
44
  3
Global
350
46
  0
DICTIONARY
  5
5B
102
{ACAD_REACTORS
330
C
102
}
330
C
100
AcDbDictionary
281
     1
  3
Standard
350
5C
  0
DICTIONARY
  5
17
102
{ACAD_REACTORS
330
C
102
}
330
C
100
AcDbDictionary
281
     1
  3
Standard
350
18
  0
DICTIONARY
  5
19
102
{ACAD_REACTORS
330
C
102
}
330
C
100
AcDbDictionary
281
     1
  0
ACDBDICTIONARYWDFLT
  5
E
102
{ACAD_REACTORS
330
C
102
}
330
C
100
AcDbDictionary
281
     1
  3
Normal
350
F
100
AcDbDictionaryWithDefault
340
F
  0
DICTIONARY
  5
47
102
{ACAD_REACTORS
330
C
102
}
330
C
100
AcDbDictionary
281
     1
  3
A0
350
48
  3
A1
350
49
  3
A2
350
4A
  3
A3
350
4B
  3
A4
350
4C
  3
A5
350
4D
  3
A6
350
4E
  3
A7
350
4F
  3
A8
350
50
  3
A9
350
51
  3
B1
350
52
  3
B2
350
53
  3
B3
350
54
  3
B4
350
55
  3
B5
350
56
  3
B6
350
57
  3
B7
350
58
  0
DICTIONARY
  5
EF
102
{ACAD_REACTORS
330
C
102
}
330
C
100
AcDbDictionary
281
     1
  0
DICTIONARY
  5
59
102
{ACAD_REACTORS
330
C
102
}
330
C
100
AcDbDictionary
281
     1
  3
Standard
350
5A
  0
DICTIONARY
  5
2A
102
{ACAD_REACTORS
330
C
102
}
330
C
100
AcDbDictionary
281
     1
  3
2dWireframe
350
2F
  3
Basic
350
32
  3
Brighten
350
36
  3
ColorChange
350
3A
  3
Conceptual
350
34
  3
Dim
350
35
  3
EdgeColorOff
350
3D
  3
Facepattern
350
39
  3
Flat
350
2B
  3
FlatWithEdges
350
2C
  3
Gouraud
350
2D
  3
GouraudWithEdges
350
2E
  3
Hidden
350
31
  3
JitterOff
350
3B
  3
Linepattern
350
38
  3
OverhangOff
350
3C
  3
Realistic
350
33
  3
Shaded
350
42
  3
Shaded with edges
350
41
  3
Shades of Gray
350
3E
  3
Sketchy
350
3F
  3
Thicken
350
37
  3
Wireframe
350
30
  3
X-Ray
350
40
  0
XRECORD
  5
EB
102
{ACAD_REACTORS
330
C
102
}
330
C
100
AcDbXrecord
280
     1
 90
        1
330
5A
  0
DICTIONARY
  5
E7
102
{ACAD_REACTORS
330
C
102
}
330
C
100
AcDbDictionary
281
     1
  3
CANNOSCALE
350
E8
  3
CMLEADERSTYLE
350
ED
  3
CTABLESTYLE
350
EC
  0
LAYOUT
  5
1E
102
{ACAD_REACTORS
330
1A
102
}
330
1A
100
AcDbPlotSettings
  1

  2
none_device
  4

  6

 40
0.0
 41
0.0
 42
0.0
 43
0.0
 44
0.0
 45
0.0
 46
0.0
 47
0.0
 48
0.0
 49
0.0
140
0.0
141
0.0
142
1.0
143
1.0
 70
   688
 72
     0
 73
     0
 74
     5
  7

 75
    16
 76
     0
 77
     2
 78
   300
147
1.0
148
0.0
149
0.0
100
AcDbLayout
  1
Layout1
 70
     1
 71
     1
 10
0.0
 20
0.0
 11
12.0
 21
9.0
 12
0.0
 22
0.0
 32
0.0
 14
1.000000000000000E+20
 24
1.000000000000000E+20
 34
1.000000000000000E+20
 15
-1.000000000000000E+20
 25
-1.000000000000000E+20
 35
-1.000000000000000E+20
146
0.0
 13
0.0
 23
0.0
 33
0.0
 16
1.0
 26
0.0
 36
0.0
 17
0.0
 27
1.0
 37
0.0
 76
     0
330
1B
  0
LAYOUT
  5
26
102
{ACAD_REACTORS
330
1A
102
}
330
1A
100
AcDbPlotSettings
  1

  2
none_device
  4

  6

 40
0.0
 41
0.0
 42
0.0
 43
0.0
 44
0.0
 45
0.0
 46
0.0
 47
0.0
 48
0.0
 49
0.0
140
0.0
141
0.0
142
1.0
143
1.0
 70
   688
 72
     0
 73
     0
 74
     5
  7

 75
    16
 76
     0
 77
     2
 78
   300
147
1.0
148
0.0
149
0.0
100
AcDbLayout
  1
Layout2
 70
     1
 71
     2
 10
0.0
 20
0.0
 11
0.0
 21
0.0
 12
0.0
 22
0.0
 32
0.0
 14
0.0
 24
0.0
 34
0.0
 15
0.0
 25
0.0
 35
0.0
146
0.0
 13
0.0
 23
0.0
 33
0.0
 16
1.0
 26
0.0
 36
0.0
 17
0.0
 27
1.0
 37
0.0
 76
     0
330
23
  0
LAYOUT
  5
22
102
{ACAD_REACTORS
330
1A
102
}
330
1A
100
AcDbPlotSettings
  1

  2
none_device
  4
Letter_(8.50_x_11.00_Inches)
  6

 40
6.35
 41
6.35
 42
6.35000508
 43
6.35000508
 44
215.9
 45
279.4
 46
0.0
 47
0.0
 48
0.0
 49
0.0
140
0.0
141
0.0
142
1.0
143
1.0
 70
  1712
 72
     0
 73
     0
 74
     0
  7

 75
     0
 76
     0
 77
     2
 78
   300
147
1.0
148
0.0
149
0.0
100
AcDbLayout
  1
Model
 70
     1
 71
     0
 10
0.0
 20
0.0
 11
12.0
 21
9.0
 12
0.0
 22
0.0
 32
0.0
 14
-229.3316
 24
-204.7598
 34
0.0
 15
273.3686
 25
246.2956
 35
0.0
146
0.0
 13
0.0
 23
0.0
 33
0.0
 16
1.0
 26
0.0
 36
0.0
 17
0.0
 27
1.0
 37
0.0
 76
     0
330
1F
331
29
  0
MATERIAL
  5
45
102
{ACAD_REACTORS
330
43
102
}
330
43
100
AcDbMaterial
  1
ByBlock
 72
     1
 94
      127
  0
MATERIAL
  5
44
102
{ACAD_REACTORS
330
43
102
}
330
43
100
AcDbMaterial
  1
ByLayer
 72
     1
 94
      127
  0
MATERIAL
  5
46
102
{ACAD_REACTORS
330
43
102
}
330
43
100
AcDbMaterial
  1
Global
 72
     1
 94
      127
  0
MLEADERSTYLE
  5
5C
102
{ACAD_REACTORS
330
5B
102
}
330
5B
100
AcDbMLeaderStyle
179
     2
170
     2
171
     1
172
     0
 90
        2
 40
0.0
 41
0.0
173
     1
 91
-1056964608
340
14
 92
       -2
290
     1
 42
0.09
291
     1
 43
0.36
  3
Standard
341
0
 44
0.18
300

342
11
174
     1
178
     6
175
     1
176
     0
 93
-1056964608
 45
0.18
292
     0
297
     0
 46
0.18
343
0
 94
-1056964608
 47
1.0
 49
1.0
140
1.0
293
     1
141
0.0
294
     1
177
     0
142
1.0
295
     0
296
     0
143
0.125
271
     0
272
     9
273
     9
298
     0
  0
MLINESTYLE
  5
18
102
{ACAD_REACTORS
330
17
102
}
330
17
100
AcDbMlineStyle
  2
Standard
 70
     0
  3

 62
   256
 51
90.0
 52
90.0
 71
     2
 49
0.5
 62
   256
  6
BYLAYER
 49
-0.5
 62
   256
  6
BYLAYER
  0
ACDBPLACEHOLDER
  5
F
102
{ACAD_REACTORS
330
E
102
}
330
E
  0
SCALE
  5
48
102
{ACAD_REACTORS
330
47
102
}
330
47
100
AcDbScale
 70
     0
300
1:1
140
1.0
141
1.0
290
     1
  0
SCALE
  5
49
102
{ACAD_REACTORS
330
47
102
}
330
47
100
AcDbScale
 70
     0
300
1/128" = 1'-0"
140
0.0078125
141
12.0
290
     0
  0
SCALE
  5
4A
102
{ACAD_REACTORS
330
47
102
}
330
47
100
AcDbScale
 70
     0
300
1/64" = 1'-0"
140
0.015625
141
12.0
290
     0
  0
SCALE
  5
4B
102
{ACAD_REACTORS
330
47
102
}
330
47
100
AcDbScale
 70
     0
300
1/32" = 1'-0"
140
0.03125
141
12.0
290
     0
  0
SCALE
  5
4C
102
{ACAD_REACTORS
330
47
102
}
330
47
100
AcDbScale
 70
     0
300
1/16" = 1'-0"
140
0.0625
141
12.0
290
     0
  0
SCALE
  5
4D
102
{ACAD_REACTORS
330
47
102
}
330
47
100
AcDbScale
 70
     0
300
3/32" = 1'-0"
140
0.09375
141
12.0
290
     0
  0
SCALE
  5
4E
102
{ACAD_REACTORS
330
47
102
}
330
47
100
AcDbScale
 70
     0
300
1/8" = 1'-0"
140
0.125
141
12.0
290
     0
  0
SCALE
  5
4F
102
{ACAD_REACTORS
330
47
102
}
330
47
100
AcDbScale
 70
     0
300
3/16" = 1'-0"
140
0.1875
141
12.0
290
     0
  0
SCALE
  5
50
102
{ACAD_REACTORS
330
47
102
}
330
47
100
AcDbScale
 70
     0
300
1/4" = 1'-0"
140
0.25
141
12.0
290
     0
  0
SCALE
  5
51
102
{ACAD_REACTORS
330
47
102
}
330
47
100
AcDbScale
 70
     0
300
3/8" = 1'-0"
140
0.375
141
12.0
290
     0
  0
SCALE
  5
52
102
{ACAD_REACTORS
330
47
102
}
330
47
100
AcDbScale
 70
     0
300
1/2" = 1'-0"
140
0.5
141
12.0
290
     0
  0
SCALE
  5
53
102
{ACAD_REACTORS
330
47
102
}
330
47
100
AcDbScale
 70
     0
300
3/4" = 1'-0"
140
0.75
141
12.0
290
     0
  0
SCALE
  5
54
102
{ACAD_REACTORS
330
47
102
}
330
47
100
AcDbScale
 70
     0
300
1" = 1'-0"
140
1.0
141
12.0
290
     0
  0
SCALE
  5
55
102
{ACAD_REACTORS
330
47
102
}
330
47
100
AcDbScale
 70
     0
300
1-1/2" = 1'-0"
140
1.5
141
12.0
290
     0
  0
SCALE
  5
56
102
{ACAD_REACTORS
330
47
102
}
330
47
100
AcDbScale
 70
     0
300
3" = 1'-0"
140
3.0
141
12.0
290
     0
  0
SCALE
  5
57
102
{ACAD_REACTORS
330
47
102
}
330
47
100
AcDbScale
 70
     0
300
6" = 1'-0"
140
6.0
141
12.0
290
     0
  0
SCALE
  5
58
102
{ACAD_REACTORS
330
47
102
}
330
47
100
AcDbScale
 70
     0
300
1'-0" = 1'-0"
140
12.0
141
12.0
290
     0
  0
TABLESTYLE
  5
5A
102
{ACAD_REACTORS
330
59
102
}
102
{ACAD_XDICTIONARY
360
E9
102
}
330
59
100
AcDbTableStyle
  3
Standard
 70
     0
 71
     0
 40
0.06
 41
0.06
280
     0
281
     0
  7
Standard
140
0.18
170
     2
 62
     0
 63
   257
283
     0
 90
        4
 91
        0
  1

274
    -2
284
     1
 64
     0
275
    -2
285
     1
 65
     0
276
    -2
286
     1
 66
     0
277
    -2
287
     1
 67
     0
278
    -2
288
     1
 68
     0
279
    -2
289
     1
 69
     0
  7
Standard
140
0.25
170
     5
 62
     0
 63
   257
283
     0
 90
        4
 91
        0
  1

274
    -2
284
     1
 64
     0
275
    -2
285
     1
 65
     0
276
    -2
286
     1
 66
     0
277
    -2
287
     1
 67
     0
278
    -2
288
     1
 68
     0
279
    -2
289
     1
 69
     0
  7
Standard
140
0.18
170
     5
 62
     0
 63
   257
283
     0
 90
        4
 91
        0
  1

274
    -2
284
     1
 64
     0
275
    -2
285
     1
 65
     0
276
    -2
286
     1
 66
     0
277
    -2
287
     1
 67
     0
278
    -2
288
     1
 68
     0
279
    -2
289
     1
 69
     0
  0
VISUALSTYLE
  5
2F
102
{ACAD_REACTORS
330
2A
102
}
330
2A
100
AcDbVisualStyle
  2
2dWireframe
 70
     4
177
     3
291
     0
 70
    58
 90
        0
176
     1
 90
        2
176
     1
 90
        0
176
     1
 90
        0
176
     1
 40
0.6
176
     1
 40
30.0
176
     1
 62
     7
420
 16777215
176
     1
 90
        1
176
     1
 90
        4
176
     1
 62
     7
176
     1
 62
   257
176
     1
 90
        1
176
     1
 90
        1
176
     1
 40
1.0
176
     1
 90
        0
176
     1
 62
   257
176
     1
 40
1.0
176
     1
 90
        1
176
     1
 90
        6
176
     1
 90
        2
176
     1
 62
     7
176
     1
 90
        5
176
     1
 90
        0
176
     1
 90
        0
176
     1
290
     0
176
     1
 90
        1
176
     1
 40
0.0
176
     1
 90
        0
176
     1
290
     1
176
     1
290
     1
176
     1
290
     0
176
     1
290
     0
176
     1
290
     0
176
     1
290
     0
176
     1
290
     0
176
     1
290
     0
176
     1
290
     0
176
     1
 90
       50
176
     1
 40
0.0
176
     1
 40
1.0
176
     1
 90
        0
176
     1
 62
    18
420
        0
176
     1
 90
       50
176
     1
 90
        3
176
     1
 62
     5
420
      255
176
     1
290
     0
176
     1
 90
       50
176
     1
 90
       50
176
     1
 90
       50
176
     1
290
     0
176
     1
 90
       50
176
     1
 62
   256
176
     0
 40
1.0
176
     0
 90
        2
176
     1
  1
strokes_ogs.tif
176
     1
290
     0
176
     1
 40
1.0
176
     1
 40
1.0
176
     1
  0
VISUALSTYLE
  5
32
102
{ACAD_REACTORS
330
2A
102
}
330
2A
100
AcDbVisualStyle
  2
Basic
 70
     7
177
     3
291
     1
 70
    58
 90
        1
176
     1
 90
        0
176
     1
 90
        1
176
     1
 90
        0
176
     1
 40
0.6
176
     1
 40
30.0
176
     1
 62
     7
420
 16777215
176
     1
 90
        0
176
     1
 90
        4
176
     1
 62
     7
176
     1
 62
   257
176
     1
 90
        1
176
     1
 90
        1
176
     1
 40
1.0
176
     1
 90
        8
176
     1
 62
     7
176
     1
 40
1.0
176
     1
 90
        1
176
     1
 90
        6
176
     1
 90
        2
176
     1
 62
     7
176
     1
 90
        5
176
     1
 90
        0
176
     1
 90
        0
176
     1
290
     0
176
     1
 90
        1
176
     1
 40
0.0
176
     1
 90
        0
176
     1
290
     0
176
     1
290
     1
176
     1
290
     1
176
     1
290
     0
176
     1
290
     0
176
     1
290
     0
176
     1
290
     0
176
     1
290
     0
176
     1
290
     0
176
     1
 90
       50
176
     1
 40
0.0
176
     1
 40
1.0
176
     1
 90
        0
176
     1
 62
    18
420
        0
176
     1
 90
       50
176
     1
 90
        3
176
     1
 62
     5
420
      255
176
     1
290
     0
176
     1
 90
       50
176
     1
 90
       50
176
     1
 90
       50
176
     1
290
     0
176
     1
 90
       50
176
     1
 62
   256
176
     0
 40
1.0
176
     0
 90
        2
176
     1
  1
strokes_ogs.tif
176
     1
290
     0
176
     1
 40
1.0
176
     1
 40
1.0
176
     1
  0
VISUALSTYLE
  5
36
102
{ACAD_REACTORS
330
2A
102
}
330
2A
100
AcDbVisualStyle
  2
Brighten
 70
    12
177
     3
291
     1
 70
    58
 90
        2
176
     1
 90
        2
176
     1
 90
        0
176
     1
 90
        0
176
     1
 40
0.6
176
     1
 40
30.0
176
     1
 62
     7
420
 16777215
176
     1
 90
        1
176
     1
 90
        4
176
     1
 62
     7
176
     1
 62
   257
176
     1
 90
        1
176
     1
 90
        1
176
     1
 40
1.0
176
     1
 90
        8
176
     1
 62
     7
176
     1
 40
1.0
176
     1
 90
        1
176
     1
 90
        6
176
     1
 90
        2
176
     1
 62
     7
176
     1
 90
        5
176
     1
 90
        0
176
     1
 90
        0
176
     1
290
     0
176
     1
 90
        1
176
     1
 40
50.0
176
     1
 90
        0
176
     1
290
     0
176
     1
290
     1
176
     1
290
     1
176
     1
290
     0
176
     1
290
     0
176
     1
290
     0
176
     1
290
     0
176
     1
290
     0
176
     1
290
     0
176
     1
 90
       50
176
     1
 40
0.0
176
     1
 40
1.0
176
     1
 90
        0
176
     1
 62
    18
420
        0
176
     1
 90
       50
176
     1
 90
        3
176
     1
 62
     5
420
      255
176
     1
290
     0
176
     1
 90
       50
176
     1
 90
       50
176
     1
 90
       50
176
     1
290
     0
176
     1
 90
       50
176
     1
 62
   256
176
     0
 40
1.0
176
     0
 90
        2
176
     1
  1
strokes_ogs.tif
176
     1
290
     0
176
     1
 40
1.0
176
     1
 40
1.0
176
     1
  0
VISUALSTYLE
  5
3A
102
{ACAD_REACTORS
330
2A
102
}
330
2A
100
AcDbVisualStyle
  2
ColorChange
 70
    16
177
     3
291
     1
 70
    58
 90
        2
176
     1
 90
        2
176
     1
 90
        3
176
     1
 90
        0
176
     1
 40
0.6
176
     1
 40
30.0
176
     1
 62
     8
420
  8421504
176
     1
 90
        1
176
     1
 90
        4
176
     1
 62
     7
176
     1
 62
   257
176
     1
 90
        1
176
     1
 90
        1
176
     1
 40
1.0
176
     1
 90
        8
176
     1
 62
     8
420
  8421504
176
     1
 40
1.0
176
     1
 90
        1
176
     1
 90
        6
176
     1
 90
        2
176
     1
 62
     7
176
     1
 90
        5
176
     1
 90
        0
176
     1
 90
        0
176
     1
290
     0
176
     1
 90
        1
176
     1
 40
0.0
176
     1
 90
        0
176
     1
290
     0
176
     1
290
     1
176
     1
290
     1
176
     1
290
     0
176
     1
290
     0
176
     1
290
     0
176
     1
290
     0
176
     1
290
     0
176
     1
290
     0
176
     1
 90
       50
176
     1
 40
0.0
176
     1
 40
1.0
176
     1
 90
        0
176
     1
 62
    18
420
        0
176
     1
 90
       50
176
     1
 90
        3
176
     1
 62
     5
420
      255
176
     1
290
     0
176
     1
 90
       50
176
     1
 90
       50
176
     1
 90
       50
176
     1
290
     0
176
     1
 90
       50
176
     1
 62
   256
176
     0
 40
1.0
176
     0
 90
        2
176
     1
  1
strokes_ogs.tif
176
     1
290
     0
176
     1
 40
1.0
176
     1
 40
1.0
176
     1
  0
VISUALSTYLE
  5
34
102
{ACAD_REACTORS
330
2A
102
}
330
2A
100
AcDbVisualStyle
  2
Conceptual
 70
     9
177
     3
291
     0
 70
    58
 90
        3
176
     1
 90
        2
176
     1
 90
        0
176
     1
 90
        0
176
     1
 40
0.6
176
     1
 40
30.0
176
     1
 62
     7
420
 16777215
176
     1
 90
        2
176
     1
 90
        2
176
     1
 62
     7
176
     1
 62
   257
176
     1
 90
        1
176
     1
 90
        1
176
     1
 40
179.0
176
     1
 90
        8
176
     1
 62
     7
176
     1
 40
1.0
176
     1
 90
        1
176
     1
 90
        6
176
     1
 90
        2
176
     1
 62
     7
176
     1
 90
        3
176
     1
 90
        0
176
     1
 90
        0
176
     1
290
     0
176
     1
 90
        1
176
     1
 40
0.0
176
     1
 90
        0
176
     1
290
     0
176
     1
290
     1
176
     1
290
     1
176
     1
290
     0
176
     1
290
     0
176
     1
290
     0
176
     1
290
     0
176
     1
290
     0
176
     1
290
     0
176
     1
 90
       50
176
     1
 40
0.0
176
     1
 40
1.0
176
     1
 90
        0
176
     1
 62
    18
420
        0
176
     1
 90
       50
176
     1
 90
        3
176
     1
 62
     5
420
      255
176
     1
290
     0
176
     1
 90
       50
176
     1
 90
       50
176
     1
 90
       50
176
     1
290
     0
176
     1
 90
       50
176
     1
 62
   256
176
     0
 40
1.0
176
     0
 90
        2
176
     1
  1
strokes_ogs.tif
176
     1
290
     0
176
     1
 40
1.0
176
     1
 40
1.0
176
     1
  0
VISUALSTYLE
  5
35
102
{ACAD_REACTORS
330
2A
102
}
330
2A
100
AcDbVisualStyle
  2
Dim
 70
    11
177
     3
291
     1
 70
    58
 90
        2
176
     1
 90
        2
176
     1
 90
        0
176
     1
 90
        0
176
     1
 40
0.6
176
     1
 40
30.0
176
     1
 62
     7
420
 16777215
176
     1
 90
        1
176
     1
 90
        4
176
     1
 62
     7
176
     1
 62
   257
176
     1
 90
        1
176
     1
 90
        1
176
     1
 40
1.0
176
     1
 90
        8
176
     1
 62
     7
176
     1
 40
1.0
176
     1
 90
        1
176
     1
 90
        6
176
     1
 90
        2
176
     1
 62
     7
176
     1
 90
        5
176
     1
 90
        0
176
     1
 90
        0
176
     1
290
     0
176
     1
 90
        1
176
     1
 40
-50.0
176
     1
 90
        0
176
     1
290
     0
176
     1
290
     1
176
     1
290
     1
176
     1
290
     0
176
     1
290
     0
176
     1
290
     0
176
     1
290
     0
176
     1
290
     0
176
     1
290
     0
176
     1
 90
       50
176
     1
 40
0.0
176
     1
 40
1.0
176
     1
 90
        0
176
     1
 62
    18
420
        0
176
     1
 90
       50
176
     1
 90
        3
176
     1
 62
     5
420
      255
176
     1
290
     0
176
     1
 90
       50
176
     1
 90
       50
176
     1
 90
       50
176
     1
290
     0
176
     1
 90
       50
176
     1
 62
   256
176
     0
 40
1.0
176
     0
 90
        2
176
     1
  1
strokes_ogs.tif
176
     1
290
     0
176
     1
 40
1.0
176
     1
 40
1.0
176
     1
  0
VISUALSTYLE
  5
3D
102
{ACAD_REACTORS
330
2A
102
}
330
2A
100
AcDbVisualStyle
  2
EdgeColorOff
 70
    22
177
     3
291
     1
 70
    58
 90
        2
176
     0
 90
        2
176
     0
 90
        0
176
     0
 90
        0
176
     0
 40
0.6
176
     0
 40
30.0
176
     0
 62
     7
420
 16777215
176
     0
 90
        1
176
     0
 90
        4
176
     0
 62
     7
176
     0
 62
   257
176
     0
 90
        1
176
     0
 90
        1
176
     0
 40
1.0
176
     0
 90
        8
176
     2
 62
     7
176
     0
 40
1.0
176
     0
 90
        1
176
     0
 90
        6
176
     0
 90
        2
176
     0
 62
     7
176
     0
 90
        5
176
     0
 90
        0
176
     0
 90
        0
176
     0
290
     0
176
     0
 90
        1
176
     0
 40
0.0
176
     0
 90
        0
176
     0
290
     0
176
     0
290
     1
176
     0
290
     1
176
     0
290
     0
176
     0
290
     0
176
     0
290
     0
176
     0
290
     0
176
     0
290
     0
176
     0
290
     0
176
     0
 90
       50
176
     0
 40
0.0
176
     0
 40
1.0
176
     0
 90
        0
176
     0
 62
    18
420
        0
176
     0
 90
       50
176
     0
 90
        3
176
     0
 62
     5
420
      255
176
     0
290
     0
176
     0
 90
       50
176
     0
 90
       50
176
     0
 90
       50
176
     0
290
     0
176
     0
 90
       50
176
     0
 62
   256
176
     0
 40
1.0
176
     0
 90
        2
176
     0
  1
strokes_ogs.tif
176
     0
290
     0
176
     0
 40
1.0
176
     0
 40
1.0
176
     0
  0
VISUALSTYLE
  5
39
102
{ACAD_REACTORS
330
2A
102
}
330
2A
100
AcDbVisualStyle
  2
Facepattern
 70
    15
177
     3
291
     1
 70
    58
 90
        2
176
     1
 90
        2
176
     1
 90
        0
176
     1
 90
        0
176
     1
 40
0.6
176
     1
 40
30.0
176
     1
 62
     7
420
 16777215
176
     1
 90
        1
176
     1
 90
        4
176
     1
 62
     7
176
     1
 62
   257
176
     1
 90
        1
176
     1
 90
        1
176
     1
 40
1.0
176
     1
 90
        8
176
     1
 62
     7
176
     1
 40
1.0
176
     1
 90
        1
176
     1
 90
        6
176
     1
 90
        2
176
     1
 62
     7
176
     1
 90
        5
176
     1
 90
        0
176
     1
 90
        0
176
     1
290
     0
176
     1
 90
        1
176
     1
 40
0.0
176
     1
 90
        0
176
     1
290
     0
176
     1
290
     1
176
     1
290
     1
176
     1
290
     0
176
     1
290
     0
176
     1
290
     0
176
     1
290
     0
176
     1
290
     0
176
     1
290
     0
176
     1
 90
       50
176
     1
 40
0.0
176
     1
 40
1.0
176
     1
 90
        0
176
     1
 62
    18
420
        0
176
     1
 90
       50
176
     1
 90
        3
176
     1
 62
     5
420
      255
176
     1
290
     0
176
     1
 90
       50
176
     1
 90
       50
176
     1
 90
       50
176
     1
290
     0
176
     1
 90
       50
176
     1
 62
   256
176
     0
 40
1.0
176
     0
 90
        2
176
     1
  1
strokes_ogs.tif
176
     1
290
     0
176
     1
 40
1.0
176
     1
 40
1.0
176
     1
  0
VISUALSTYLE
  5
2B
102
{ACAD_REACTORS
330
2A
102
}
330
2A
100
AcDbVisualStyle
  2
Flat
 70
     0
177
     3
291
     1
 70
    58
 90
        2
176
     1
 90
        1
176
     1
 90
        1
176
     1
 90
        2
176
     1
 40
0.6
176
     1
 40
30.0
176
     1
 62
     7
420
 16777215
176
     1
 90
        0
176
     1
 90
        0
176
     1
 62
     7
176
     1
 62
   257
176
     1
 90
        1
176
     1
 90
        1
176
     1
 40
1.0
176
     1
 90
        8
176
     1
 62
     7
176
     1
 40
1.0
176
     1
 90
        1
176
     1
 90
        6
176
     1
 90
        2
176
     1
 62
     7
176
     1
 90
        5
176
     1
 90
        0
176
     1
 90
        0
176
     1
290
     0
176
     1
 90
       13
176
     1
 40
0.0
176
     1
 90
        0
176
     1
290
     0
176
     1
290
     1
176
     1
290
     1
176
     1
290
     0
176
     1
290
     0
176
     1
290
     0
176
     1
290
     0
176
     1
290
     0
176
     1
290
     0
176
     1
 90
       50
176
     1
 40
0.0
176
     1
 40
1.0
176
     1
 90
        0
176
     1
 62
    18
420
        0
176
     1
 90
       50
176
     1
 90
        3
176
     1
 62
     5
420
      255
176
     1
290
     0
176
     1
 90
       50
176
     1
 90
       50
176
     1
 90
       50
176
     1
290
     0
176
     1
 90
       50
176
     1
 62
   256
176
     0
 40
1.0
176
     0
 90
        2
176
     1
  1
strokes_ogs.tif
176
     1
290
     0
176
     1
 40
1.0
176
     1
 40
1.0
176
     1
  0
VISUALSTYLE
  5
2C
102
{ACAD_REACTORS
330
2A
102
}
330
2A
100
AcDbVisualStyle
  2
FlatWithEdges
 70
     1
177
     3
291
     1
 70
    58
 90
        2
176
     1
 90
        1
176
     1
 90
        1
176
     1
 90
        2
176
     1
 40
0.6
176
     1
 40
30.0
176
     1
 62
     7
420
 16777215
176
     1
 90
        1
176
     1
 90
        0
176
     1
 62
     7
176
     1
 62
   257
176
     1
 90
        1
176
     1
 90
        1
176
     1
 40
1.0
176
     1
 90
        0
176
     1
 62
   257
176
     1
 40
1.0
176
     1
 90
        1
176
     1
 90
        6
176
     1
 90
        2
176
     1
 62
     7
176
     1
 90
        5
176
     1
 90
        0
176
     1
 90
        0
176
     1
290
     0
176
     1
 90
       13
176
     1
 40
0.0
176
     1
 90
        0
176
     1
290
     0
176
     1
290
     1
176
     1
290
     1
176
     1
290
     0
176
     1
290
     0
176
     1
290
     0
176
     1
290
     0
176
     1
290
     0
176
     1
290
     0
176
     1
 90
       50
176
     1
 40
0.0
176
     1
 40
1.0
176
     1
 90
        0
176
     1
 62
    18
420
        0
176
     1
 90
       50
176
     1
 90
        3
176
     1
 62
     5
420
      255
176
     1
290
     0
176
     1
 90
       50
176
     1
 90
       50
176
     1
 90
       50
176
     1
290
     0
176
     1
 90
       50
176
     1
 62
   256
176
     0
 40
1.0
176
     0
 90
        2
176
     1
  1
strokes_ogs.tif
176
     1
290
     0
176
     1
 40
1.0
176
     1
 40
1.0
176
     1
  0
VISUALSTYLE
  5
2D
102
{ACAD_REACTORS
330
2A
102
}
330
2A
100
AcDbVisualStyle
  2
Gouraud
 70
     2
177
     3
291
     1
 70
    58
 90
        2
176
     1
 90
        2
176
     1
 90
        1
176
     1
 90
        2
176
     1
 40
0.6
176
     1
 40
30.0
176
     1
 62
     7
420
 16777215
176
     1
 90
        0
176
     1
 90
        0
176
     1
 62
     7
176
     1
 62
   257
176
     1
 90
        1
176
     1
 90
        1
176
     1
 40
1.0
176
     1
 90
        0
176
     1
 62
     7
176
     1
 40
1.0
176
     1
 90
        1
176
     1
 90
        6
176
     1
 90
        2
176
     1
 62
     7
176
     1
 90
        5
176
     1
 90
        0
176
     1
 90
        0
176
     1
290
     0
176
     1
 90
       13
176
     1
 40
0.0
176
     1
 90
        0
176
     1
290
     0
176
     1
290
     1
176
     1
290
     1
176
     1
290
     0
176
     1
290
     0
176
     1
290
     0
176
     1
290
     0
176
     1
290
     0
176
     1
290
     0
176
     1
 90
       50
176
     1
 40
0.0
176
     1
 40
1.0
176
     1
 90
        0
176
     1
 62
    18
420
        0
176
     1
 90
       50
176
     1
 90
        3
176
     1
 62
     5
420
      255
176
     1
290
     0
176
     1
 90
       50
176
     1
 90
       50
176
     1
 90
       50
176
     1
290
     0
176
     1
 90
       50
176
     1
 62
   256
176
     0
 40
1.0
176
     0
 90
        2
176
     1
  1
strokes_ogs.tif
176
     1
290
     0
176
     1
 40
1.0
176
     1
 40
1.0
176
     1
  0
VISUALSTYLE
  5
2E
102
{ACAD_REACTORS
330
2A
102
}
330
2A
100
AcDbVisualStyle
  2
GouraudWithEdges
 70
     3
177
     3
291
     1
 70
    58
 90
        2
176
     1
 90
        2
176
     1
 90
        1
176
     1
 90
        2
176
     1
 40
0.6
176
     1
 40
30.0
176
     1
 62
     7
420
 16777215
176
     1
 90
        1
176
     1
 90
        0
176
     1
 62
     7
176
     1
 62
   257
176
     1
 90
        1
176
     1
 90
        1
176
     1
 40
1.0
176
     1
 90
        0
176
     1
 62
   257
176
     1
 40
1.0
176
     1
 90
        1
176
     1
 90
        6
176
     1
 90
        2
176
     1
 62
     7
176
     1
 90
        5
176
     1
 90
        0
176
     1
 90
        0
176
     1
290
     0
176
     1
 90
       13
176
     1
 40
0.0
176
     1
 90
        0
176
     1
290
     0
176
     1
290
     1
176
     1
290
     1
176
     1
290
     0
176
     1
290
     0
176
     1
290
     0
176
     1
290
     0
176
     1
290
     0
176
     1
290
     0
176
     1
 90
       50
176
     1
 40
0.0
176
     1
 40
1.0
176
     1
 90
        0
176
     1
 62
    18
420
        0
176
     1
 90
       50
176
     1
 90
        3
176
     1
 62
     5
420
      255
176
     1
290
     0
176
     1
 90
       50
176
     1
 90
       50
176
     1
 90
       50
176
     1
290
     0
176
     1
 90
       50
176
     1
 62
   256
176
     0
 40
1.0
176
     0
 90
        2
176
     1
  1
strokes_ogs.tif
176
     1
290
     0
176
     1
 40
1.0
176
     1
 40
1.0
176
     1
  0
VISUALSTYLE
  5
31
102
{ACAD_REACTORS
330
2A
102
}
330
2A
100
AcDbVisualStyle
  2
Hidden
 70
     6
177
     3
291
     0
 70
    58
 90
        1
176
     1
 90
        2
176
     1
 90
        2
176
     1
 90
        0
176
     1
 40
0.6
176
     1
 40
30.0
176
     1
 62
     7
420
 16777215
176
     1
 90
        2
176
     1
 90
        2
176
     1
 62
     7
176
     1
 62
   257
176
     1
 90
        2
176
     1
 90
        1
176
     1
 40
40.0
176
     1
 90
        0
176
     1
 62
   257
176
     1
 40
1.0
176
     1
 90
        1
176
     1
 90
        6
176
     1
 90
        2
176
     1
 62
     7
176
     1
 90
        3
176
     1
 90
        0
176
     1
 90
        0
176
     1
290
     0
176
     1
 90
        1
176
     1
 40
0.0
176
     1
 90
        0
176
     1
290
     0
176
     1
290
     1
176
     1
290
     1
176
     1
290
     0
176
     1
290
     0
176
     1
290
     0
176
     1
290
     0
176
     1
290
     0
176
     1
290
     0
176
     1
 90
       50
176
     1
 40
0.0
176
     1
 40
1.0
176
     1
 90
        0
176
     1
 62
    18
420
        0
176
     1
 90
       50
176
     1
 90
        3
176
     1
 62
     5
420
      255
176
     1
290
     0
176
     1
 90
       50
176
     1
 90
       50
176
     1
 90
       50
176
     1
290
     0
176
     1
 90
       50
176
     1
 62
   256
176
     0
 40
1.0
176
     0
 90
        2
176
     1
  1
strokes_ogs.tif
176
     1
290
     0
176
     1
 40
1.0
176
     1
 40
1.0
176
     1
  0
VISUALSTYLE
  5
3B
102
{ACAD_REACTORS
330
2A
102
}
330
2A
100
AcDbVisualStyle
  2
JitterOff
 70
    20
177
     3
291
     1
 70
    58
 90
        2
176
     0
 90
        2
176
     0
 90
        0
176
     0
 90
        0
176
     0
 40
0.6
176
     0
 40
30.0
176
     0
 62
     7
420
 16777215
176
     0
 90
        1
176
     0
 90
        4
176
     0
 62
     7
176
     0
 62
   257
176
     0
 90
        1
176
     0
 90
        1
176
     0
 40
1.0
176
     0
 90
       10
176
     2
 62
     7
176
     0
 40
1.0
176
     0
 90
        1
176
     0
 90
        6
176
     0
 90
        2
176
     0
 62
     7
176
     0
 90
        5
176
     0
 90
        0
176
     0
 90
        0
176
     0
290
     0
176
     0
 90
        1
176
     0
 40
0.0
176
     0
 90
        0
176
     0
290
     0
176
     0
290
     1
176
     0
290
     1
176
     0
290
     0
176
     0
290
     0
176
     0
290
     0
176
     0
290
     0
176
     0
290
     0
176
     0
290
     0
176
     0
 90
       50
176
     0
 40
0.0
176
     0
 40
1.0
176
     0
 90
        0
176
     0
 62
    18
420
        0
176
     0
 90
       50
176
     0
 90
        3
176
     0
 62
     5
420
      255
176
     0
290
     0
176
     0
 90
       50
176
     0
 90
       50
176
     0
 90
       50
176
     0
290
     0
176
     0
 90
       50
176
     0
 62
   256
176
     0
 40
1.0
176
     0
 90
        2
176
     0
  1
strokes_ogs.tif
176
     0
290
     0
176
     0
 40
1.0
176
     0
 40
1.0
176
     0
  0
VISUALSTYLE
  5
38
102
{ACAD_REACTORS
330
2A
102
}
330
2A
100
AcDbVisualStyle
  2
Linepattern
 70
    14
177
     3
291
     1
 70
    58
 90
        2
176
     1
 90
        2
176
     1
 90
        0
176
     1
 90
        0
176
     1
 40
0.6
176
     1
 40
30.0
176
     1
 62
     7
420
 16777215
176
     1
 90
        1
176
     1
 90
        4
176
     1
 62
     7
176
     1
 62
   257
176
     1
 90
        7
176
     1
 90
        7
176
     1
 40
1.0
176
     1
 90
        8
176
     1
 62
     7
176
     1
 40
1.0
176
     1
 90
        1
176
     1
 90
        6
176
     1
 90
        2
176
     1
 62
     7
176
     1
 90
        5
176
     1
 90
        0
176
     1
 90
        0
176
     1
290
     0
176
     1
 90
        1
176
     1
 40
0.0
176
     1
 90
        0
176
     1
290
     0
176
     1
290
     1
176
     1
290
     1
176
     1
290
     0
176
     1
290
     0
176
     1
290
     0
176
     1
290
     0
176
     1
290
     0
176
     1
290
     0
176
     1
 90
       50
176
     1
 40
0.0
176
     1
 40
1.0
176
     1
 90
        0
176
     1
 62
    18
420
        0
176
     1
 90
       50
176
     1
 90
        3
176
     1
 62
     5
420
      255
176
     1
290
     0
176
     1
 90
       50
176
     1
 90
       50
176
     1
 90
       50
176
     1
290
     0
176
     1
 90
       50
176
     1
 62
   256
176
     0
 40
1.0
176
     0
 90
        2
176
     1
  1
strokes_ogs.tif
176
     1
290
     0
176
     1
 40
1.0
176
     1
 40
1.0
176
     1
  0
VISUALSTYLE
  5
3C
102
{ACAD_REACTORS
330
2A
102
}
330
2A
100
AcDbVisualStyle
  2
OverhangOff
 70
    21
177
     3
291
     1
 70
    58
 90
        2
176
     0
 90
        2
176
     0
 90
        0
176
     0
 90
        0
176
     0
 40
0.6
176
     0
 40
30.0
176
     0
 62
     7
420
 16777215
176
     0
 90
        1
176
     0
 90
        4
176
     0
 62
     7
176
     0
 62
   257
176
     0
 90
        1
176
     0
 90
        1
176
     0
 40
1.0
176
     0
 90
        9
176
     2
 62
     7
176
     0
 40
1.0
176
     0
 90
        1
176
     0
 90
        6
176
     0
 90
        2
176
     0
 62
     7
176
     0
 90
        5
176
     0
 90
        0
176
     0
 90
        0
176
     0
290
     0
176
     0
 90
        1
176
     0
 40
0.0
176
     0
 90
        0
176
     0
290
     0
176
     0
290
     1
176
     0
290
     1
176
     0
290
     0
176
     0
290
     0
176
     0
290
     0
176
     0
290
     0
176
     0
290
     0
176
     0
290
     0
176
     0
 90
       50
176
     0
 40
0.0
176
     0
 40
1.0
176
     0
 90
        0
176
     0
 62
    18
420
        0
176
     0
 90
       50
176
     0
 90
        3
176
     0
 62
     5
420
      255
176
     0
290
     0
176
     0
 90
       50
176
     0
 90
       50
176
     0
 90
       50
176
     0
290
     0
176
     0
 90
       50
176
     0
 62
   256
176
     0
 40
1.0
176
     0
 90
        2
176
     0
  1
strokes_ogs.tif
176
     0
290
     0
176
     0
 40
1.0
176
     0
 40
1.0
176
     0
  0
VISUALSTYLE
  5
33
102
{ACAD_REACTORS
330
2A
102
}
330
2A
100
AcDbVisualStyle
  2
Realistic
 70
     8
177
     3
291
     0
 70
    58
 90
        2
176
     1
 90
        3
176
     1
 90
        0
176
     1
 90
        2
176
     1
 40
0.6
176
     1
 40
30.0
176
     1
 62
     7
420
 16777215
176
     1
 90
        0
176
     1
 90
        0
176
     1
 62
     7
176
     1
 62
   257
176
     1
 90
        1
176
     1
 90
        1
176
     1
 40
1.0
176
     1
 90
        8
176
     1
 62
   257
176
     1
 40
1.0
176
     1
 90
        1
176
     1
 90
        6
176
     1
 90
        2
176
     1
 62
     7
176
     1
 90
        3
176
     1
 90
        0
176
     1
 90
        0
176
     1
290
     0
176
     1
 90
       13
176
     1
 40
0.0
176
     1
 90
        0
176
     1
290
     0
176
     1
290
     1
176
     1
290
     1
176
     1
290
     0
176
     1
290
     0
176
     1
290
     0
176
     1
290
     0
176
     1
290
     0
176
     1
290
     0
176
     1
 90
       50
176
     1
 40
0.0
176
     1
 40
1.0
176
     1
 90
        0
176
     1
 62
    18
420
        0
176
     1
 90
       50
176
     1
 90
        3
176
     1
 62
     5
420
      255
176
     1
290
     0
176
     1
 90
       50
176
     1
 90
       50
176
     1
 90
       50
176
     1
290
     0
176
     1
 90
       50
176
     1
 62
   256
176
     0
 40
1.0
176
     0
 90
        2
176
     1
  1
strokes_ogs.tif
176
     1
290
     0
176
     1
 40
1.0
176
     1
 40
1.0
176
     1
  0
VISUALSTYLE
  5
42
102
{ACAD_REACTORS
330
2A
102
}
330
2A
100
AcDbVisualStyle
  2
Shaded
 70
    27
177
     3
291
     0
 70
    58
 90
        2
176
     1
 90
        2
176
     1
 90
        1
176
     1
 90
        2
176
     1
 40
0.6
176
     1
 40
30.0
176
     1
 62
     7
420
 16777215
176
     1
 90
        0
176
     1
 90
        4
176
     1
 62
     7
176
     1
 62
   257
176
     1
 90
        1
176
     1
 90
        1
176
     1
 40
1.0
176
     1
 90
        8
176
     1
 62
   257
176
     1
 40
1.0
176
     1
 90
        1
176
     1
 90
        6
176
     1
 90
        2
176
     1
 62
     8
420
  7895160
176
     1
 90
        3
176
     1
 90
        0
176
     1
 90
        0
176
     1
290
     0
176
     1
 90
        5
176
     1
 40
0.0
176
     1
 90
        0
176
     1
290
     0
176
     1
290
     1
176
     1
290
     1
176
     1
290
     0
176
     1
290
     0
176
     1
290
     0
176
     1
290
     0
176
     1
290
     0
176
     1
290
     0
176
     1
 90
       50
176
     1
 40
0.0
176
     1
 40
1.0
176
     1
 90
        0
176
     1
 62
    18
420
        0
176
     1
 90
       50
176
     1
 90
        3
176
     1
 62
     5
420
      255
176
     1
290
     0
176
     1
 90
       50
176
     1
 90
       50
176
     1
 90
       50
176
     1
290
     0
176
     1
 90
       50
176
     1
 62
   256
176
     0
 40
1.0
176
     0
 90
        2
176
     1
  1
strokes_ogs.tif
176
     1
290
     0
176
     1
 40
1.0
176
     1
 40
1.0
176
     1
  0
VISUALSTYLE
  5
41
102
{ACAD_REACTORS
330
2A
102
}
330
2A
100
AcDbVisualStyle
  2
Shaded with edges
 70
    26
177
     3
291
     0
 70
    58
 90
        2
176
     1
 90
        2
176
     1
 90
        1
176
     1
 90
        2
176
     1
 40
0.6
176
     1
 40
30.0
176
     1
 62
     7
420
 16777215
176
     1
 90
        1
176
     1
 90
       10
176
     1
 62
     7
176
     1
 62
   257
176
     1
 90
        2
176
     1
 90
        1
176
     1
 40
1.0
176
     1
 90
        8
176
     1
 62
   257
176
     1
 40
1.0
176
     1
 90
        1
176
     1
 90
        6
176
     1
 90
        2
176
     1
 62
     7
176
     1
 90
        3
176
     1
 90
        0
176
     1
 90
        0
176
     1
290
     0
176
     1
 90
        5
176
     1
 40
0.0
176
     1
 90
        0
176
     1
290
     0
176
     1
290
     1
176
     1
290
     1
176
     1
290
     0
176
     1
290
     0
176
     1
290
     0
176
     1
290
     0
176
     1
290
     0
176
     1
290
     0
176
     1
 90
       50
176
     1
 40
0.0
176
     1
 40
1.0
176
     1
 90
        0
176
     1
 62
    18
420
        0
176
     1
 90
       50
176
     1
 90
        3
176
     1
 62
     5
420
      255
176
     1
290
     0
176
     1
 90
       50
176
     1
 90
       50
176
     1
 90
       50
176
     1
290
     0
176
     1
 90
       50
176
     1
 62
   256
176
     0
 40
1.0
176
     0
 90
        2
176
     1
  1
strokes_ogs.tif
176
     1
290
     0
176
     1
 40
1.0
176
     1
 40
1.0
176
     1
  0
VISUALSTYLE
  5
3E
102
{ACAD_REACTORS
330
2A
102
}
330
2A
100
AcDbVisualStyle
  2
Shades of Gray
 70
    23
177
     3
291
     0
 70
    58
 90
        2
176
     1
 90
        2
176
     1
 90
        3
176
     1
 90
        0
176
     1
 40
0.6
176
     1
 40
30.0
176
     1
 62
     7
420
 16777215
176
     1
 90
        2
176
     1
 90
        2
176
     1
 62
     7
176
     1
 62
     7
176
     1
 90
        1
176
     1
 90
        1
176
     1
 40
40.0
176
     1
 90
        8
176
     1
 62
     7
176
     1
 40
1.0
176
     1
 90
        1
176
     1
 90
        6
176
     1
 90
        2
176
     1
 62
     7
176
     1
 90
        3
176
     1
 90
        0
176
     1
 90
        0
176
     1
290
     0
176
     1
 90
        1
176
     1
 40
0.0
176
     1
 90
        0
176
     1
290
     0
176
     1
290
     1
176
     1
290
     1
176
     1
290
     0
176
     1
290
     0
176
     1
290
     0
176
     1
290
     0
176
     1
290
     0
176
     1
290
     0
176
     1
 90
       50
176
     1
 40
0.0
176
     1
 40
1.0
176
     1
 90
        0
176
     1
 62
    18
420
        0
176
     1
 90
       50
176
     1
 90
        3
176
     1
 62
     5
420
      255
176
     1
290
     0
176
     1
 90
       50
176
     1
 90
       50
176
     1
 90
       50
176
     1
290
     0
176
     1
 90
       50
176
     1
 62
   256
176
     0
 40
1.0
176
     0
 90
        2
176
     1
  1
strokes_ogs.tif
176
     1
290
     0
176
     1
 40
1.0
176
     1
 40
1.0
176
     1
  0
VISUALSTYLE
  5
3F
102
{ACAD_REACTORS
330
2A
102
}
330
2A
100
AcDbVisualStyle
  2
Sketchy
 70
    24
177
     3
291
     0
 70
    58
 90
        1
176
     1
 90
        2
176
     1
 90
        2
176
     1
 90
        0
176
     1
 40
0.6
176
     1
 40
30.0
176
     1
 62
     7
420
 16777215
176
     1
 90
        2
176
     1
 90
        2
176
     1
 62
     7
176
     1
 62
     7
176
     1
 90
        1
176
     1
 90
        1
176
     1
 40
40.0
176
     1
 90
       11
176
     1
 62
     7
176
     1
 40
1.0
176
     1
 90
        1
176
     1
 90
        6
176
     1
 90
        2
176
     1
 62
     7
176
     1
 90
        6
176
     1
 90
        0
176
     1
 90
        0
176
     1
290
     0
176
     1
 90
        1
176
     1
 40
0.0
176
     1
 90
        0
176
     1
290
     0
176
     1
290
     1
176
     1
290
     1
176
     1
290
     0
176
     1
290
     0
176
     1
290
     0
176
     1
290
     0
176
     1
290
     0
176
     1
290
     0
176
     1
 90
       50
176
     1
 40
0.0
176
     1
 40
1.0
176
     1
 90
        0
176
     1
 62
    18
420
        0
176
     1
 90
       50
176
     1
 90
        3
176
     1
 62
     5
420
      255
176
     1
290
     0
176
     1
 90
       50
176
     1
 90
       50
176
     1
 90
       50
176
     1
290
     0
176
     1
 90
       50
176
     1
 62
   256
176
     0
 40
1.0
176
     0
 90
        2
176
     1
  1
strokes_ogs.tif
176
     1
290
     0
176
     1
 40
1.0
176
     1
 40
1.0
176
     1
  0
VISUALSTYLE
  5
37
102
{ACAD_REACTORS
330
2A
102
}
330
2A
100
AcDbVisualStyle
  2
Thicken
 70
    13
177
     3
291
     1
 70
    58
 90
        2
176
     1
 90
        2
176
     1
 90
        0
176
     1
 90
        0
176
     1
 40
0.6
176
     1
 40
30.0
176
     1
 62
     7
420
 16777215
176
     1
 90
        1
176
     1
 90
        4
176
     1
 62
     7
176
     1
 62
   257
176
     1
 90
        1
176
     1
 90
        1
176
     1
 40
1.0
176
     1
 90
       12
176
     1
 62
     7
176
     1
 40
1.0
176
     1
 90
        1
176
     1
 90
        6
176
     1
 90
        2
176
     1
 62
     7
176
     1
 90
        5
176
     1
 90
        0
176
     1
 90
        0
176
     1
290
     0
176
     1
 90
        1
176
     1
 40
0.0
176
     1
 90
        0
176
     1
290
     0
176
     1
290
     1
176
     1
290
     1
176
     1
290
     0
176
     1
290
     0
176
     1
290
     0
176
     1
290
     0
176
     1
290
     0
176
     1
290
     0
176
     1
 90
       50
176
     1
 40
0.0
176
     1
 40
1.0
176
     1
 90
        0
176
     1
 62
    18
420
        0
176
     1
 90
       50
176
     1
 90
        3
176
     1
 62
     5
420
      255
176
     1
290
     0
176
     1
 90
       50
176
     1
 90
       50
176
     1
 90
       50
176
     1
290
     0
176
     1
 90
       50
176
     1
 62
   256
176
     0
 40
1.0
176
     0
 90
        2
176
     1
  1
strokes_ogs.tif
176
     1
290
     0
176
     1
 40
1.0
176
     1
 40
1.0
176
     1
  0
VISUALSTYLE
  5
30
102
{ACAD_REACTORS
330
2A
102
}
330
2A
100
AcDbVisualStyle
  2
Wireframe
 70
     5
177
     3
291
     0
 70
    58
 90
        0
176
     1
 90
        2
176
     1
 90
        0
176
     1
 90
        0
176
     1
 40
0.6
176
     1
 40
30.0
176
     1
 62
     7
420
 16777215
176
     1
 90
        1
176
     1
 90
        4
176
     1
 62
     7
176
     1
 62
   257
176
     1
 90
        1
176
     1
 90
        1
176
     1
 40
1.0
176
     1
 90
        0
176
     1
 62
   257
176
     1
 40
1.0
176
     1
 90
        1
176
     1
 90
        6
176
     1
 90
        2
176
     1
 62
     7
176
     1
 90
        3
176
     1
 90
        0
176
     1
 90
        0
176
     1
290
     0
176
     1
 90
        1
176
     1
 40
0.0
176
     1
 90
        0
176
     1
290
     0
176
     1
290
     1
176
     1
290
     1
176
     1
290
     0
176
     1
290
     0
176
     1
290
     0
176
     1
290
     0
176
     1
290
     0
176
     1
290
     0
176
     1
 90
       50
176
     1
 40
0.0
176
     1
 40
1.0
176
     1
 90
        0
176
     1
 62
    18
420
        0
176
     1
 90
       50
176
     1
 90
        3
176
     1
 62
     5
420
      255
176
     1
290
     0
176
     1
 90
       50
176
     1
 90
       50
176
     1
 90
       50
176
     1
290
     0
176
     1
 90
       50
176
     1
 62
   256
176
     0
 40
1.0
176
     0
 90
        2
176
     1
  1
strokes_ogs.tif
176
     1
290
     0
176
     1
 40
1.0
176
     1
 40
1.0
176
     1
  0
VISUALSTYLE
  5
40
102
{ACAD_REACTORS
330
2A
102
}
330
2A
100
AcDbVisualStyle
  2
X-Ray
 70
    25
177
     3
291
     0
 70
    58
 90
        2
176
     1
 90
        2
176
     1
 90
        1
176
     1
 90
        1
176
     1
 40
0.5
176
     1
 40
30.0
176
     1
 62
     7
420
 16777215
176
     1
 90
        1
176
     1
 90
        0
176
     1
 62
     7
176
     1
 62
   257
176
     1
 90
        1
176
     1
 90
        1
176
     1
 40
1.0
176
     1
 90
        8
176
     1
 62
     7
176
     1
 40
1.0
176
     1
 90
        1
176
     1
 90
        6
176
     1
 90
        2
176
     1
 62
     7
176
     1
 90
        3
176
     1
 90
        0
176
     1
 90
        0
176
     1
290
     0
176
     1
 90
       13
176
     1
 40
0.0
176
     1
 90
        0
176
     1
290
     0
176
     1
290
     1
176
     1
290
     1
176
     1
290
     0
176
     1
290
     0
176
     1
290
     0
176
     1
290
     0
176
     1
290
     0
176
     1
290
     0
176
     1
 90
       50
176
     1
 40
0.0
176
     1
 40
1.0
176
     1
 90
        0
176
     1
 62
    18
420
        0
176
     1
 90
       50
176
     1
 90
        3
176
     1
 62
     5
420
      255
176
     1
290
     0
176
     1
 90
       50
176
     1
 90
       50
176
     1
 90
       50
176
     1
290
     0
176
     1
 90
       50
176
     1
 62
   256
176
     0
 40
1.0
176
     0
 90
        2
176
     1
  1
strokes_ogs.tif
176
     1
290
     0
176
     1
 40
1.0
176
     1
 40
1.0
176
     1
  0
DICTIONARYVAR
  5
E8
102
{ACAD_REACTORS
330
E7
102
}
330
E7
100
DictionaryVariables
280
     0
  1
1:1
  0
DICTIONARYVAR
  5
ED
102
{ACAD_REACTORS
330
E7
102
}
330
E7
100
DictionaryVariables
280
     0
  1
Standard
  0
DICTIONARYVAR
  5
EC
102
{ACAD_REACTORS
330
E7
102
}
330
E7
100
DictionaryVariables
280
     0
  1
Standard
  0
DICTIONARY
  5
E9
330
5A
100
AcDbDictionary
280
     1
281
     1
  3
ACAD_ROUNDTRIP_2008_TABLESTYLE_CELLSTYLEMAP
360
EA
  0
CELLSTYLEMAP
  5
EA
102
{ACAD_REACTORS
330
E9
102
}
330
E9
100
AcDbCellStyleMap
 90
        3
300
CELLSTYLE
  1
TABLEFORMAT_BEGIN
 90
        5
170
     1
 91
        0
 92
    32768
 62
   257
 93
        1
300
CONTENTFORMAT
  1
CONTENTFORMAT_BEGIN
 90
        0
 91
        0
 92
        4
 93
        0
300

 40
0.0
140
1.0
 94
        5
 62
     0
340
11
144
0.25
309
CONTENTFORMAT_END
171
     1
301
MARGIN
  1
CELLMARGIN_BEGIN
 40
0.06
 40
0.06
 40
0.06
 40
0.06
 40
0.06
 40
0.06
309
CELLMARGIN_END
 94
        6
 95
        1
302
GRIDFORMAT
  1
GRIDFORMAT_BEGIN
 90
        0
 91
        1
 62
     0
 92
       -2
340
14
 93
        0
 40
0.045
309
GRIDFORMAT_END
 95
        2
302
GRIDFORMAT
  1
GRIDFORMAT_BEGIN
 90
        0
 91
        1
 62
     0
 92
       -2
340
14
 93
        0
 40
0.045
309
GRIDFORMAT_END
 95
        4
302
GRIDFORMAT
  1
GRIDFORMAT_BEGIN
 90
        0
 91
        1
 62
     0
 92
       -2
340
14
 93
        0
 40
0.045
309
GRIDFORMAT_END
 95
        8
302
GRIDFORMAT
  1
GRIDFORMAT_BEGIN
 90
        0
 91
        1
 62
     0
 92
       -2
340
14
 93
        0
 40
0.045
309
GRIDFORMAT_END
 95
       16
302
GRIDFORMAT
  1
GRIDFORMAT_BEGIN
 90
        0
 91
        1
 62
     0
 92
       -2
340
14
 93
        0
 40
0.045
309
GRIDFORMAT_END
 95
       32
302
GRIDFORMAT
  1
GRIDFORMAT_BEGIN
 90
        0
 91
        1
 62
     0
 92
       -2
340
14
 93
        0
 40
0.045
309
GRIDFORMAT_END
309
TABLEFORMAT_END
  1
CELLSTYLE_BEGIN
 90
        1
 91
        1
300
_TITLE
309
CELLSTYLE_END
300
CELLSTYLE
  1
TABLEFORMAT_BEGIN
 90
        5
170
     1
 91
        0
 92
        0
 62
   257
 93
        1
300
CONTENTFORMAT
  1
CONTENTFORMAT_BEGIN
 90
        0
 91
        0
 92
        4
 93
        0
300

 40
0.0
140
1.0
 94
        5
 62
     0
340
11
144
0.18
309
CONTENTFORMAT_END
171
     1
301
MARGIN
  1
CELLMARGIN_BEGIN
 40
0.06
 40
0.06
 40
0.06
 40
0.06
 40
0.06
 40
0.06
309
CELLMARGIN_END
 94
        6
 95
        1
302
GRIDFORMAT
  1
GRIDFORMAT_BEGIN
 90
        0
 91
        1
 62
     0
 92
       -2
340
14
 93
        0
 40
0.045
309
GRIDFORMAT_END
 95
        2
302
GRIDFORMAT
  1
GRIDFORMAT_BEGIN
 90
        0
 91
        1
 62
     0
 92
       -2
340
14
 93
        0
 40
0.045
309
GRIDFORMAT_END
 95
        4
302
GRIDFORMAT
  1
GRIDFORMAT_BEGIN
 90
        0
 91
        1
 62
     0
 92
       -2
340
14
 93
        0
 40
0.045
309
GRIDFORMAT_END
 95
        8
302
GRIDFORMAT
  1
GRIDFORMAT_BEGIN
 90
        0
 91
        1
 62
     0
 92
       -2
340
14
 93
        0
 40
0.045
309
GRIDFORMAT_END
 95
       16
302
GRIDFORMAT
  1
GRIDFORMAT_BEGIN
 90
        0
 91
        1
 62
     0
 92
       -2
340
14
 93
        0
 40
0.045
309
GRIDFORMAT_END
 95
       32
302
GRIDFORMAT
  1
GRIDFORMAT_BEGIN
 90
        0
 91
        1
 62
     0
 92
       -2
340
14
 93
        0
 40
0.045
309
GRIDFORMAT_END
309
TABLEFORMAT_END
  1
CELLSTYLE_BEGIN
 90
        2
 91
        1
300
_HEADER
309
CELLSTYLE_END
300
CELLSTYLE
  1
TABLEFORMAT_BEGIN
 90
        5
170
     1
 91
        0
 92
        0
 62
   257
 93
        1
300
CONTENTFORMAT
  1
CONTENTFORMAT_BEGIN
 90
        0
 91
        0
 92
        4
 93
        0
300

 40
0.0
140
1.0
 94
        2
 62
     0
340
11
144
0.18
309
CONTENTFORMAT_END
171
     1
301
MARGIN
  1
CELLMARGIN_BEGIN
 40
0.06
 40
0.06
 40
0.06
 40
0.06
 40
0.06
 40
0.06
309
CELLMARGIN_END
 94
        6
 95
        1
302
GRIDFORMAT
  1
GRIDFORMAT_BEGIN
 90
        0
 91
        1
 62
     0
 92
       -2
340
14
 93
        0
 40
0.045
309
GRIDFORMAT_END
 95
        2
302
GRIDFORMAT
  1
GRIDFORMAT_BEGIN
 90
        0
 91
        1
 62
     0
 92
       -2
340
14
 93
        0
 40
0.045
309
GRIDFORMAT_END
 95
        4
302
GRIDFORMAT
  1
GRIDFORMAT_BEGIN
 90
        0
 91
        1
 62
     0
 92
       -2
340
14
 93
        0
 40
0.045
309
GRIDFORMAT_END
 95
        8
302
GRIDFORMAT
  1
GRIDFORMAT_BEGIN
 90
        0
 91
        1
 62
     0
 92
       -2
340
14
 93
        0
 40
0.045
309
GRIDFORMAT_END
 95
       16
302
GRIDFORMAT
  1
GRIDFORMAT_BEGIN
 90
        0
 91
        1
 62
     0
 92
       -2
340
14
 93
        0
 40
0.045
309
GRIDFORMAT_END
 95
       32
302
GRIDFORMAT
  1
GRIDFORMAT_BEGIN
 90
        0
 91
        1
 62
     0
 92
       -2
340
14
 93
        0
 40
0.045
309
GRIDFORMAT_END
309
TABLEFORMAT_END
  1
CELLSTYLE_BEGIN
 90
        3
 91
        2
300
_DATA
309
CELLSTYLE_END
  0
ENDSEC
  0
EOF
