  0
SECTION
  2
HEADER
  9
$ACADVER
  1
AC1027
  9
$ACADMAINTVER
 70
   105
  9
$DWGCODEPAGE
  3
ANSI_1252
  9
$LASTSAVEDBY
  1
Office Desk
  9
$REQUIREDVERSIONS
160
                 0
  9
$INSBASE
 10
0.0
 20
0.0
 30
0.0
  9
$EXTMIN
 10
-357.2084
 20
-175.7781
 30
0.0
  9
$EXTMAX
 10
332.9665
 20
224.3981
 30
0.0
  9
$LIMMIN
 10
0.0
 20
0.0
  9
$LIMMAX
 10
12.0
 20
9.0
  9
$ORTHOMODE
 70
     0
  9
$REGENMODE
 70
     1
  9
$FILLMODE
 70
     1
  9
$QTEXTMODE
 70
     0
  9
$MIRRTEXT
 70
     1
  9
$LTSCALE
 40
1.0
  9
$ATTMODE
 70
     1
  9
$TEXTSIZE
 40
0.2
  9
$TRACEWID
 40
0.05
  9
$TEXTSTYLE
  7
Standard
  9
$CLAYER
  8
0
  9
$CELTYPE
  6
ByLayer
  9
$CECOLOR
 62
   256
  9
$CELTSCALE
 40
1.0
  9
$DISPSILH
 70
     0
  9
$DIMSCALE
 40
1.0
  9
$DIMASZ
 40
0.18
  9
$DIMEXO
 40
0.0625
  9
$DIMDLI
 40
0.38
  9
$DIMRND
 40
0.0
  9
$DIMDLE
 40
0.0
  9
$DIMEXE
 40
0.18
  9
$DIMTP
 40
0.0
  9
$DIMTM
 40
0.0
  9
$DIMTXT
 40
0.18
  9
$DIMCEN
 40
0.09
  9
$DIMTSZ
 40
0.0
  9
$DIMTOL
 70
     0
  9
$DIMLIM
 70
     0
  9
$DIMTIH
 70
     1
  9
$DIMTOH
 70
     1
  9
$DIMSE1
 70
     0
  9
$DIMSE2
 70
     0
  9
$DIMTAD
 70
     0
  9
$DIMZIN
 70
     0
  9
$DIMBLK
  1

  9
$DIMASO
 70
     1
  9
$DIMSHO
 70
     1
  9
$DIMPOST
  1

  9
$DIMAPOST
  1

  9
$DIMALT
 70
     0
  9
$DIMALTD
 70
     2
  9
$DIMALTF
 40
25.4
  9
$DIMLFAC
 40
1.0
  9
$DIMTOFL
 70
     0
  9
$DIMTVP
 40
0.0
  9
$DIMTIX
 70
     0
  9
$DIMSOXD
 70
     0
  9
$DIMSAH
 70
     0
  9
$DIMBLK1
  1

  9
$DIMBLK2
  1

  9
$DIMSTYLE
  2
Standard
  9
$DIMCLRD
 70
     0
  9
$DIMCLRE
 70
     0
  9
$DIMCLRT
 70
     0
  9
$DIMTFAC
 40
1.0
  9
$DIMGAP
 40
0.09
  9
$DIMJUST
 70
     0
  9
$DIMSD1
 70
     0
  9
$DIMSD2
 70
     0
  9
$DIMTOLJ
 70
     1
  9
$DIMTZIN
 70
     0
  9
$DIMALTZ
 70
     0
  9
$DIMALTTZ
 70
     0
  9
$DIMUPT
 70
     0
  9
$DIMDEC
 70
     4
  9
$DIMTDEC
 70
     4
  9
$DIMALTU
 70
     2
  9
$DIMALTTD
 70
     2
  9
$DIMTXSTY
  7
Standard
  9
$DIMAUNIT
 70
     0
  9
$DIMADEC
 70
     0
  9
$DIMALTRND
 40
0.0
  9
$DIMAZIN
 70
     0
  9
$DIMDSEP
 70
    46
  9
$DIMATFIT
 70
     3
  9
$DIMFRAC
 70
     0
  9
$DIMLDRBLK
  1

  9
$DIMLUNIT
 70
     2
  9
$DIMLWD
 70
    -2
  9
$DIMLWE
 70
    -2
  9
$DIMTMOVE
 70
     0
  9
$DIMFXL
 40
1.0
  9
$DIMFXLON
 70
     0
  9
$DIMJOGANG
 40
0.7853981633974483
  9
$DIMTFILL
 70
     0
  9
$DIMTFILLCLR
 70
     0
  9
$DIMARCSYM
 70
     0
  9
$DIMLTYPE
  6

  9
$DIMLTEX1
  6

  9
$DIMLTEX2
  6

  9
$DIMTXTDIRECTION
 70
     0
  9
$LUNITS
 70
     2
  9
$LUPREC
 70
     4
  9
$SKETCHINC
 40
0.1
  9
$FILLETRAD
 40
0.0
  9
$AUNITS
 70
     0
  9
$AUPREC
 70
     0
  9
$MENU
  1
.
  9
$ELEVATION
 40
0.0
  9
$PELEVATION
 40
0.0
  9
$THICKNESS
 40
0.0
  9
$LIMCHECK
 70
     0
  9
$CHAMFERA
 40
0.0
  9
$CHAMFERB
 40
0.0
  9
$CHAMFERC
 40
0.0
  9
$CHAMFERD
 40
0.0
  9
$SKPOLY
 70
     0
  9
$TDCREATE
 40
2461000.596069514
  9
$TDUCREATE
 40
2461000.366902848
  9
$TDUPDATE
 40
2461000.596070151
  9
$TDUUPDATE
 40
2461000.366903484
  9
$TDINDWG
 40
0.0000000116
  9
$TDUSRTIMER
 40
0.0000000116
  9
$USRTIMER
 70
     1
  9
$ANGBASE
 50
0.0
  9
$ANGDIR
 70
     0
  9
$PDMODE
 70
     0
  9
$PDSIZE
 40
0.0
  9
$PLINEWID
 40
0.0
  9
$SPLFRAME
 70
     0
  9
$SPLINETYPE
 70
     6
  9
$SPLINESEGS
 70
     8
  9
$HANDSEED
  5
164
  9
$SURFTAB1
 70
     6
  9
$SURFTAB2
 70
     6
  9
$SURFTYPE
 70
     6
  9
$SURFU
 70
     6
  9
$SURFV
 70
     6
  9
$UCSBASE
  2

  9
$UCSNAME
  2

  9
$UCSORG
 10
0.0
 20
0.0
 30
0.0
  9
$UCSXDIR
 10
1.0
 20
0.0
 30
0.0
  9
$UCSYDIR
 10
0.0
 20
1.0
 30
0.0
  9
$UCSORTHOREF
  2

  9
$UCSORTHOVIEW
 70
     0
  9
$UCSORGTOP
 10
0.0
 20
0.0
 30
0.0
  9
$UCSORGBOTTOM
 10
0.0
 20
0.0
 30
0.0
  9
$UCSORGLEFT
 10
0.0
 20
0.0
 30
0.0
  9
$UCSORGRIGHT
 10
0.0
 20
0.0
 30
0.0
  9
$UCSORGFRONT
 10
0.0
 20
0.0
 30
0.0
  9
$UCSORGBACK
 10
0.0
 20
0.0
 30
0.0
  9
$PUCSBASE
  2

  9
$PUCSNAME
  2

  9
$PUCSORG
 10
0.0
 20
0.0
 30
0.0
  9
$PUCSXDIR
 10
1.0
 20
0.0
 30
0.0
  9
$PUCSYDIR
 10
0.0
 20
1.0
 30
0.0
  9
$PUCSORTHOREF
  2

  9
$PUCSORTHOVIEW
 70
     0
  9
$PUCSORGTOP
 10
0.0
 20
0.0
 30
0.0
  9
$PUCSORGBOTTOM
 10
0.0
 20
0.0
 30
0.0
  9
$PUCSORGLEFT
 10
0.0
 20
0.0
 30
0.0
  9
$PUCSORGRIGHT
 10
0.0
 20
0.0
 30
0.0
  9
$PUCSORGFRONT
 10
0.0
 20
0.0
 30
0.0
  9
$PUCSORGBACK
 10
0.0
 20
0.0
 30
0.0
  9
$USERI1
 70
     0
  9
$USERI2
 70
     0
  9
$USERI3
 70
     0
  9
$USERI4
 70
     0
  9
$USERI5
 70
     0
  9
$USERR1
 40
0.0
  9
$USERR2
 40
0.0
  9
$USERR3
 40
0.0
  9
$USERR4
 40
0.0
  9
$USERR5
 40
0.0
  9
$WORLDVIEW
 70
     1
  9
$SHADEDGE
 70
     3
  9
$SHADEDIF
 70
    70
  9
$TILEMODE
 70
     1
  9
$MAXACTVP
 70
    64
  9
$PINSBASE
 10
0.0
 20
0.0
 30
0.0
  9
$PLIMCHECK
 70
     0
  9
$PEXTMIN
 10
1.000000000000000E+20
 20
1.000000000000000E+20
 30
1.000000000000000E+20
  9
$PEXTMAX
 10
-1.000000000000000E+20
 20
-1.000000000000000E+20
 30
-1.000000000000000E+20
  9
$PLIMMIN
 10
0.0
 20
0.0
  9
$PLIMMAX
 10
12.0
 20
9.0
  9
$UNITMODE
 70
     0
  9
$VISRETAIN
 70
     1
  9
$PLINEGEN
 70
     0
  9
$PSLTSCALE
 70
     1
  9
$TREEDEPTH
 70
  3020
  9
$CMLSTYLE
  2
Standard
  9
$CMLJUST
 70
     0
  9
$CMLSCALE
 40
1.0
  9
$PROXYGRAPHICS
 70
     1
  9
$MEASUREMENT
 70
     0
  9
$CELWEIGHT
370
    -1
  9
$ENDCAPS
280
     0
  9
$JOINSTYLE
280
     0
  9
$LWDISPLAY
290
     0
  9
$INSUNITS
 70
     4
  9
$HYPERLINKBASE
  1

  9
$STYLESHEET
  1

  9
$XEDIT
290
     1
  9
$CEPSNTYPE
380
     0
  9
$PSTYLEMODE
290
     1
  9
$FINGERPRINTGUID
  2
{3f7aa5a2-9196-40b1-8e30-eff6bab12c58}
  9
$VERSIONGUID
  2
{FAEB1C32-E019-11D5-929B-00C0DF256EC4}
  9
$EXTNAMES
290
     1
  9
$PSVPSCALE
 40
0.0
  9
$OLESTARTUP
290
     0
  9
$SORTENTS
280
   127
  9
$INDEXCTL
280
     0
  9
$HIDETEXT
280
     1
  9
$XCLIPFRAME
280
     2
  9
$HALOGAP
280
     0
  9
$OBSCOLOR
 70
   257
  9
$OBSLTYPE
280
     0
  9
$INTERSECTIONDISPLAY
280
     0
  9
$INTERSECTIONCOLOR
 70
   257
  9
$DIMASSOC
280
     2
  9
$PROJECTNAME
  1

  9
$CAMERADISPLAY
290
     0
  9
$LENSLENGTH
 40
50.0
  9
$CAMERAHEIGHT
 40
0.0
  9
$STEPSPERSEC
 40
2.0
  9
$STEPSIZE
 40
6.0
  9
$3DDWFPREC
 40
2.0
  9
$PSOLWIDTH
 40
0.25
  9
$PSOLHEIGHT
 40
4.0
  9
$LOFTANG1
 40
1.570796326794897
  9
$LOFTANG2
 40
1.570796326794897
  9
$LOFTMAG1
 40
0.0
  9
$LOFTMAG2
 40
0.0
  9
$LOFTPARAM
 70
     7
  9
$LOFTNORMALS
280
     1
  9
$LATITUDE
 40
37.795
  9
$LONGITUDE
 40
-122.394
  9
$NORTHDIRECTION
 40
0.0
  9
$TIMEZONE
 70
 -8000
  9
$LIGHTGLYPHDISPLAY
280
     1
  9
$TILEMODELIGHTSYNCH
280
     1
  9
$CMATERIAL
347
44
  9
$SOLIDHIST
280
     0
  9
$SHOWHIST
280
     1
  9
$DWFFRAME
280
     2
  9
$DGNFRAME
280
     2
  9
$REALWORLDSCALE
290
     1
  9
$INTERFERECOLOR
 62
   256
  9
$CSHADOW
280
     0
  9
$SHADOWPLANELOCATION
 40
0.0
  0
ENDSEC
  0
SECTION
  2
CLASSES
  0
CLASS
  1
ACDBDICTIONARYWDFLT
  2
AcDbDictionaryWithDefault
  3
ObjectDBX Classes
 90
        0
 91
        3
280
     0
281
     0
  0
CLASS
  1
VISUALSTYLE
  2
AcDbVisualStyle
  3
ObjectDBX Classes
 90
     4095
 91
        3
280
     0
281
     0
  0
CLASS
  1
MATERIAL
  2
AcDbMaterial
  3
ObjectDBX Classes
 90
     1153
 91
        3
280
     0
281
     0
  0
CLASS
  1
SCALE
  2
AcDbScale
  3
ObjectDBX Classes
 90
     1153
 91
        3
280
     0
281
     0
  0
CLASS
  1
TABLESTYLE
  2
AcDbTableStyle
  3
ObjectDBX Classes
 90
     4095
 91
        3
280
     0
281
     0
  0
CLASS
  1
MLEADERSTYLE
  2
AcDbMLeaderStyle
  3
ACDB_MLEADERSTYLE_CLASS
 90
     4095
 91
        3
280
     0
281
     0
  0
CLASS
  1
SUN
  2
AcDbSun
  3
SCENEOE
 90
     1153
 91
        3
280
     0
281
     0
  0
CLASS
  1
IMAGEDEF
  2
AcDbRasterImageDef
  3
ISM
 90
        0
 91
        3
280
     0
281
     0
  0
CLASS
  1
IMAGE
  2
AcDbRasterImage
  3
ISM
 90
      127
 91
        4
280
     0
281
     1
  0
CLASS
  1
IMAGEDEF_REACTOR
  2
AcDbRasterImageDefReactor
  3
ISM
 90
        1
 91
        3
280
     0
281
     0
  0
CLASS
  1
DICTIONARYVAR
  2
AcDbDictionaryVar
  3
ObjectDBX Classes
 90
        0
 91
        3
280
     0
281
     0
  0
CLASS
  1
CELLSTYLEMAP
  2
AcDbCellStyleMap
  3
ObjectDBX Classes
 90
     1152
 91
        3
280
     0
281
     0
  0
ENDSEC
  0
SECTION
  2
TABLES
  0
TABLE
  2
VPORT
  5
8
330
0
100
AcDbSymbolTable
 70
     1
  0
VPORT
  5
29
330
8
100
AcDbSymbolTableRecord
100
AcDbViewportTableRecord
  2
*Active
 70
     0
 10
0.0
 20
0.0
 11
1.0
 21
1.0
 12
10.42990654205607
 22
4.5
 13
0.0
 23
0.0
 14
0.5
 24
0.5
 15
0.5
 25
0.5
 16
0.0
 26
0.0
 36
1.0
 17
0.0
 27
0.0
 37
0.0
 40
9.0
 41
1.972972972850329
 42
50.0
 43
0.0
 44
0.0
 50
0.0
 51
0.0
 71
     0
 72
   100
 73
     1
 74
     3
 75
     0
 76
     0
 77
     0
 78
     0
281
     0
 65
     1
110
0.0
120
0.0
130
0.0
111
1.0
121
0.0
131
0.0
112
0.0
122
1.0
132
0.0
 79
     0
146
0.0
348
2F
 60
     3
 61
     5
292
     1
282
     1
141
0.0
142
0.0
 63
   250
361
5D
  0
ENDTAB
  0
TABLE
  2
LTYPE
  5
5
330
0
100
AcDbSymbolTable
 70
     1
  0
LTYPE
  5
14
330
5
100
AcDbSymbolTableRecord
100
AcDbLinetypeTableRecord
  2
ByBlock
 70
     0
  3

 72
    65
 73
     0
 40
0.0
  0
LTYPE
  5
15
330
5
100
AcDbSymbolTableRecord
100
AcDbLinetypeTableRecord
  2
ByLayer
 70
     0
  3

 72
    65
 73
     0
 40
0.0
  0
LTYPE
  5
16
330
5
100
AcDbSymbolTableRecord
100
AcDbLinetypeTableRecord
  2
Continuous
 70
     0
  3
Solid line
 72
    65
 73
     0
 40
0.0
  0
ENDTAB
  0
TABLE
  2
LAYER
  5
2
330
0
100
AcDbSymbolTable
 70
     2
  0
LAYER
  5
10
330
2
100
AcDbSymbolTableRecord
100
AcDbLayerTableRecord
  2
0
 70
     0
 62
     7
  6
Continuous
370
    -3
390
F
347
46
348
0
  0
LAYER
  5
5F
330
2
100
AcDbSymbolTableRecord
100
AcDbLayerTableRecord
  2
Layer 1
 70
     0
 62
     7
  6
Continuous
370
    -3
390
F
347
46
348
0
  0
ENDTAB
  0
TABLE
  2
STYLE
  5
3
330
0
100
AcDbSymbolTable
 70
     1
  0
STYLE
  5
11
330
3
100
AcDbSymbolTableRecord
100
AcDbTextStyleTableRecord
  2
Standard
 70
     0
 40
0.0
 41
1.0
 50
0.0
 71
     0
 42
0.2
  3
txt
  4

  0
ENDTAB
  0
TABLE
  2
VIEW
  5
6
330
0
100
AcDbSymbolTable
 70
     0
  0
ENDTAB
  0
TABLE
  2
UCS
  5
7
330
0
100
AcDbSymbolTable
 70
     0
  0
ENDTAB
  0
TABLE
  2
APPID
  5
9
330
0
100
AcDbSymbolTable
 70
     2
  0
APPID
  5
12
330
9
100
AcDbSymbolTableRecord
100
AcDbRegAppTableRecord
  2
ACAD
 70
     0
  0
APPID
  5
5E
330
9
100
AcDbSymbolTableRecord
100
AcDbRegAppTableRecord
  2
ODA
 70
     0
  0
ENDTAB
  0
TABLE
  2
DIMSTYLE
  5
A
330
0
100
AcDbSymbolTable
 70
     1
100
AcDbDimStyleTable
  0
DIMSTYLE
105
27
330
A
100
AcDbSymbolTableRecord
100
AcDbDimStyleTableRecord
  2
Standard
 70
     0
178
     0
340
11
  0
ENDTAB
  0
TABLE
  2
BLOCK_RECORD
  5
1
330
0
100
AcDbSymbolTable
 70
     1
  0
BLOCK_RECORD
  5
1F
330
1
100
AcDbSymbolTableRecord
100
AcDbBlockTableRecord
  2
*Model_Space
340
22
 70
     0
280
     1
281
     0
  0
BLOCK_RECORD
  5
1B
330
1
100
AcDbSymbolTableRecord
100
AcDbBlockTableRecord
  2
*Paper_Space
340
1E
 70
     0
280
     1
281
     0
  0
BLOCK_RECORD
  5
23
330
1
100
AcDbSymbolTableRecord
100
AcDbBlockTableRecord
  2
*Paper_Space0
340
26
 70
     0
280
     1
281
     0
  0
ENDTAB
  0
ENDSEC
  0
SECTION
  2
BLOCKS
  0
BLOCK
  5
20
330
1F
100
AcDbEntity
  8
0
100
AcDbBlockBegin
  2
*Model_Space
 70
     0
 10
0.0
 20
0.0
 30
0.0
  3
*Model_Space
  1

  0
ENDBLK
  5
21
330
1F
100
AcDbEntity
  8
0
100
AcDbBlockEnd
  0
BLOCK
  5
1C
330
1B
100
AcDbEntity
 67
     1
  8
0
100
AcDbBlockBegin
  2
*Paper_Space
 70
     0
 10
0.0
 20
0.0
 30
0.0
  3
*Paper_Space
  1

  0
ENDBLK
  5
1D
330
1B
100
AcDbEntity
 67
     1
  8
0
100
AcDbBlockEnd
  0
BLOCK
  5
24
330
23
100
AcDbEntity
  8
0
100
AcDbBlockBegin
  2
*Paper_Space0
 70
     0
 10
0.0
 20
0.0
 30
0.0
  3
*Paper_Space0
  1

  0
ENDBLK
  5
25
330
23
100
AcDbEntity
  8
0
100
AcDbBlockEnd
  0
ENDSEC
  0
SECTION
  2
ENTITIES
  0
LWPOLYLINE
  5
60
330
1F
100
AcDbEntity
  8
Layer 1
 62
   251
100
AcDbPolyline
 90
       37
 70
     1
 43
0.0
 10
266.0577
 20
-175.6017
 10
-352.8457
 20
-175.6017
 10
-353.6892
 20
-175.529
 10
-354.475
 20
-175.3203
 10
-355.1861
 20
-174.9902
 10
-355.8057
 20
-174.553
 10
-356.3169
 20
-174.0231
 10
-356.7029
 20
-173.4149
 10
-356.9469
 20
-172.7427
 10
-357.032
 20
-172.0211
 10
-357.032
 20
170.5633
 10
-356.9469
 20
171.2848
 10
-356.7029
 20
171.9568
 10
-356.3169
 20
172.5649
 10
-355.8057
 20
173.0948
 10
-355.1861
 20
173.5319
 10
-354.475
 20
173.862
 10
-353.6892
 20
174.0707
 10
-352.8457
 20
174.1434
 10
266.0577
 20
174.1434
 10
266.9014
 20
174.0707
 10
267.6873
 20
173.862
 10
268.3984
 20
173.5319
 10
269.0179
 20
173.0948
 10
269.5291
 20
172.5649
 10
269.915
 20
171.9568
 10
270.159
 20
171.2848
 10
270.244
 20
170.5633
 10
270.244
 20
-172.0211
 10
270.159
 20
-172.7427
 10
269.915
 20
-173.4149
 10
269.5291
 20
-174.0231
 10
269.0179
 20
-174.553
 10
268.3984
 20
-174.9902
 10
267.6873
 20
-175.3203
 10
266.9014
 20
-175.529
 10
266.0577
 20
-175.6017
  0
LWPOLYLINE
  5
61
330
1F
100
AcDbEntity
  8
Layer 1
 62
   250
370
    35
100
AcDbPolyline
 90
       37
 70
     1
 43
0.0
 10
266.0577
 20
-175.6017
 10
-352.8457
 20
-175.6017
 10
-353.6892
 20
-175.529
 10
-354.475
 20
-175.3203
 10
-355.1861
 20
-174.9902
 10
-355.8057
 20
-174.553
 10
-356.3169
 20
-174.0231
 10
-356.7029
 20
-173.4149
 10
-356.9469
 20
-172.7427
 10
-357.032
 20
-172.0211
 10
-357.032
 20
170.5633
 10
-356.9469
 20
171.2848
 10
-356.7029
 20
171.9568
 10
-356.3169
 20
172.5649
 10
-355.8057
 20
173.0948
 10
-355.1861
 20
173.5319
 10
-354.475
 20
173.862
 10
-353.6892
 20
174.0707
 10
-352.8457
 20
174.1434
 10
266.0577
 20
174.1434
 10
266.9014
 20
174.0707
 10
267.6873
 20
173.862
 10
268.3984
 20
173.5319
 10
269.0179
 20
173.0948
 10
269.5291
 20
172.5649
 10
269.915
 20
171.9568
 10
270.159
 20
171.2848
 10
270.244
 20
170.5633
 10
270.244
 20
-172.0211
 10
270.159
 20
-172.7427
 10
269.915
 20
-173.4149
 10
269.5291
 20
-174.0231
 10
269.0179
 20
-174.553
 10
268.3984
 20
-174.9902
 10
267.6873
 20
-175.3203
 10
266.9014
 20
-175.529
 10
266.0577
 20
-175.6017
  0
IMAGE
  5
64
330
1F
100
AcDbEntity
  8
Layer 1
 62
   250
160
               140
310
8C00000001000000840000000600000005000000521B0BBCD92271C0EA5BE6F7A4A761400000000000000000521B0BBCD92271C0B41F52572E2B61400000000000000000FA9767B3BD1A71C0B41F52572E2B61400000000000000000FA9767B3BD1A71C0EA5BE6F7A4A761400000000000000000521B0BBCD92271C0EA5BE6
310
F7A4A761400000000000000000
100
AcDbRasterImage
 90
        0
 10
-270.4281
 20
-140.7442
 30
0.0
 11
0.01389280274181264
 21
0.0
 31
0.0
 12
0.0
 22
0.01388925701815296
 32
0.0
 13
2626.0
 23
20162.0
340
63
 70
     7
280
     1
281
    50
282
    50
283
     0
360
65
 71
     1
 91
        2
 14
-270.4281
 24
-140.7442
 14
-233.9456
 24
139.291
290
     0
  0
IMAGE
  5
67
330
1F
100
AcDbEntity
  8
Layer 1
 62
   250
160
               140
310
8C000000010000008400000006000000050000002D8CB2CAE8B26240EA5BE6F7A4A7614000000000000000002D8CB2CAE8B26240B41F52572E2B61400000000000000000D84DCDE120C36240B41F52572E2B61400000000000000000D84DCDE120C36240EA5BE6F7A4A7614000000000000000002D8CB2CAE8B26240EA5BE6
310
F7A4A761400000000000000000
100
AcDbRasterImage
 90
        0
 10
147.5343
 20
-140.7442
 30
0.0
 11
0.01389284082254379
 21
0.0
 31
0.0
 12
0.0
 22
0.01388925701815296
 32
0.0
 13
2626.0
 23
20162.0
340
66
 70
     7
280
     1
281
    50
282
    50
283
     0
360
68
 71
     1
 91
        2
 14
147.5343
 24
-140.7442
 14
184.0169
 24
139.291
290
     0
  0
LWPOLYLINE
  5
69
330
1F
100
AcDbEntity
  8
Layer 1
 62
   250
100
AcDbPolyline
 90
        5
 70
     1
 43
0.0
 10
-110.2996
 20
-59.6708
 10
-110.0097
 20
-59.6708
 10
-110.0097
 20
-59.9189
 10
-110.2996
 20
-59.9189
 10
-110.2996
 20
-59.6708
  0
LWPOLYLINE
  5
6A
330
1F
100
AcDbEntity
  8
Layer 1
 62
   250
100
AcDbPolyline
 90
        5
 70
     1
 43
0.0
 10
-116.9742
 20
-55.2031
 10
-116.6835
 20
-55.2031
 10
-116.6835
 20
-55.4511
 10
-116.9742
 20
-55.4511
 10
-116.9742
 20
-55.2031
  0
LWPOLYLINE
  5
6B
330
1F
100
AcDbEntity
  8
Layer 1
 62
   250
100
AcDbPolyline
 90
        5
 70
     1
 43
0.0
 10
-147.4439
 20
-88.2149
 10
-147.1533
 20
-88.2149
 10
-147.1533
 20
-88.4635
 10
-147.4439
 20
-88.4635
 10
-147.4439
 20
-88.2149
  0
LWPOLYLINE
  5
6C
330
1F
100
AcDbEntity
  8
Layer 1
 62
   250
100
AcDbPolyline
 90
        5
 70
     1
 43
0.0
 10
-140.7694
 20
-92.6826
 10
-140.4794
 20
-92.6826
 10
-140.4794
 20
-92.9312
 10
-140.7694
 20
-92.9312
 10
-140.7694
 20
-92.6826
  0
LWPOLYLINE
  5
6D
330
1F
100
AcDbEntity
  8
Layer 1
 62
   250
100
AcDbPolyline
 90
        5
 70
     1
 43
0.0
 10
-305.0161
 20
-142.8215
 10
-304.7255
 20
-142.8215
 10
-304.7255
 20
-143.0696
 10
-305.0161
 20
-143.0696
 10
-305.0161
 20
-142.8215
  0
LWPOLYLINE
  5
6E
330
1F
100
AcDbEntity
  8
Layer 1
 62
   250
100
AcDbPolyline
 90
        5
 70
     1
 43
0.0
 10
-311.1101
 20
-138.1052
 10
-310.8194
 20
-138.1052
 10
-310.8194
 20
-138.3538
 10
-311.1101
 20
-138.3538
 10
-311.1101
 20
-138.1052
  0
LWPOLYLINE
  5
6F
330
1F
100
AcDbEntity
  8
Layer 1
 62
   250
100
AcDbPolyline
 90
        5
 70
     1
 43
0.0
 10
-336.3564
 20
-162.182
 10
-336.0658
 20
-162.182
 10
-336.0658
 20
-162.43
 10
-336.3564
 20
-162.43
 10
-336.3564
 20
-162.182
  0
LWPOLYLINE
  5
70
330
1F
100
AcDbEntity
  8
Layer 1
 62
   250
100
AcDbPolyline
 90
        5
 70
     1
 43
0.0
 10
-330.2625
 20
-166.8978
 10
-329.9718
 20
-166.8978
 10
-329.9718
 20
-167.1458
 10
-330.2625
 20
-167.1458
 10
-330.2625
 20
-166.8978
  0
LWPOLYLINE
  5
71
330
1F
100
AcDbEntity
  8
Layer 1
 62
   250
100
AcDbPolyline
 90
        5
 70
     1
 43
0.0
 10
-67.9319
 20
-125.1984
 10
-67.642
 20
-125.1984
 10
-67.642
 20
-125.4464
 10
-67.9319
 20
-125.4464
 10
-67.9319
 20
-125.1984
  0
LWPOLYLINE
  5
72
330
1F
100
AcDbEntity
  8
Layer 1
 62
   250
100
AcDbPolyline
 90
        5
 70
     1
 43
0.0
 10
-75.1871
 20
-121.7233
 10
-74.8964
 20
-121.7233
 10
-74.8964
 20
-121.9719
 10
-75.1871
 20
-121.9719
 10
-75.1871
 20
-121.7233
  0
LWPOLYLINE
  5
73
330
1F
100
AcDbEntity
  8
Layer 1
 62
     7
370
    25
100
AcDbPolyline
 90
        7
 70
     1
 43
0.0
 10
-102.7723
 20
-11.1156
 10
-103.6429
 20
-12.3563
 10
-105.0934
 20
-12.3563
 10
-105.9639
 20
-11.1156
 10
-105.0934
 20
-9.8743
 10
-103.6429
 20
-9.8743
 10
-102.7723
 20
-11.1156
  0
LWPOLYLINE
  5
74
330
1F
100
AcDbEntity
  8
Layer 1
 62
     7
370
    25
100
AcDbPolyline
 90
        7
 70
     1
 43
0.0
 10
-102.7723
 20
9.6567
 10
-103.6429
 20
8.4154
 10
-105.0934
 20
8.4154
 10
-105.9639
 20
9.6567
 10
-105.0934
 20
10.8979
 10
-103.6429
 20
10.8979
 10
-102.7723
 20
9.6567
  0
LWPOLYLINE
  5
75
330
1F
100
AcDbEntity
  8
Layer 1
 62
     7
370
    25
100
AcDbPolyline
 90
        7
 70
     1
 43
0.0
 10
-102.7723
 20
30.677
 10
-103.6429
 20
29.4522
 10
-105.0934
 20
29.4522
 10
-105.9639
 20
30.677
 10
-105.0934
 20
31.9176
 10
-103.6429
 20
31.9176
 10
-102.7723
 20
30.677
  0
LWPOLYLINE
  5
76
330
1F
100
AcDbEntity
  8
Layer 1
 62
     7
370
    25
100
AcDbPolyline
 90
        7
 70
     1
 43
0.0
 10
-102.7723
 20
51.4645
 10
-103.6429
 20
50.2233
 10
-105.0934
 20
50.2233
 10
-105.9639
 20
51.4645
 10
-105.0934
 20
52.6893
 10
-103.6429
 20
52.6893
 10
-102.7723
 20
51.4645
  0
LWPOLYLINE
  5
77
330
1F
100
AcDbEntity
  8
Layer 1
 62
     7
370
    25
100
AcDbPolyline
 90
        7
 70
     1
 43
0.0
 10
-102.7723
 20
72.4848
 10
-103.6429
 20
71.2436
 10
-105.0934
 20
71.2436
 10
-105.9639
 20
72.4848
 10
-105.0934
 20
73.7261
 10
-103.6429
 20
73.7261
 10
-102.7723
 20
72.4848
  0
LWPOLYLINE
  5
78
330
1F
100
AcDbEntity
  8
Layer 1
 62
     7
370
    25
100
AcDbPolyline
 90
        7
 70
     1
 43
0.0
 10
-102.7723
 20
93.5051
 10
-103.6429
 20
92.0159
 10
-105.0934
 20
92.0159
 10
-105.9639
 20
93.5051
 10
-105.0934
 20
94.7458
 10
-103.6429
 20
94.7458
 10
-102.7723
 20
93.5051
  0
LWPOLYLINE
  5
79
330
1F
100
AcDbEntity
  8
Layer 1
 62
     7
370
    25
100
AcDbPolyline
 90
        7
 70
     1
 43
0.0
 10
-102.7723
 20
114.2774
 10
-103.6429
 20
113.0508
 10
-105.0934
 20
113.0508
 10
-105.9639
 20
114.2774
 10
-105.0934
 20
115.5187
 10
-103.6429
 20
115.5187
 10
-102.7723
 20
114.2774
  0
LWPOLYLINE
  5
7A
330
1F
100
AcDbEntity
  8
Layer 1
 62
     7
370
    25
100
AcDbPolyline
 90
        7
 70
     1
 43
0.0
 10
-102.7723
 20
135.3129
 10
-103.6429
 20
134.0723
 10
-105.0934
 20
134.0723
 10
-105.9639
 20
135.3129
 10
-105.0934
 20
136.5395
 10
-103.6429
 20
136.5395
 10
-102.7723
 20
135.3129
  0
LWPOLYLINE
  5
7B
330
1F
100
AcDbEntity
  8
Layer 1
 62
     7
370
    25
100
AcDbPolyline
 90
        7
 70
     1
 43
0.0
 10
-127.0933
 20
-136.5086
 10
-127.9639
 20
-137.7493
 10
-129.705
 20
-137.7493
 10
-130.5756
 20
-136.5086
 10
-129.705
 20
-135.2838
 10
-127.9639
 20
-135.2838
 10
-127.0933
 20
-136.5086
  0
LWPOLYLINE
  5
7C
330
1F
100
AcDbEntity
  8
Layer 1
 62
     7
370
    25
100
AcDbPolyline
 90
        2
 70
     0
 43
0.0
 10
184.224
 20
139.2689
 10
147.7329
 20
123.6791
  0
LWPOLYLINE
  5
7D
330
1F
100
AcDbEntity
  8
Layer 1
 62
     7
370
    25
100
AcDbPolyline
 90
       10
 70
     1
 43
0.0
 10
-317.3665
 20
151.1367
 10
-318.237
 20
149.1508
 10
-319.9782
 20
148.4226
 10
-322.2828
 20
148.6547
 10
-323.7332
 20
150.144
 10
-323.7332
 20
151.8813
 10
-322.2828
 20
153.3559
 10
-319.9782
 20
153.6045
 10
-318.237
 20
152.8739
 10
-317.3665
 20
151.1367
  0
LWPOLYLINE
  5
7E
330
1F
100
AcDbEntity
  8
Layer 1
 62
     7
370
    25
100
AcDbPolyline
 90
       10
 70
     1
 43
0.0
 10
-317.3665
 20
-152.347
 10
-318.237
 20
-154.0684
 10
-319.9782
 20
-155.0611
 10
-322.2828
 20
-154.813
 10
-323.7332
 20
-153.3402
 10
-323.7332
 20
-151.6023
 10
-322.2828
 20
-150.1131
 10
-319.9782
 20
-149.8651
 10
-318.237
 20
-150.6097
 10
-317.3665
 20
-152.347
  0
LWPOLYLINE
  5
7F
330
1F
100
AcDbEntity
  8
Layer 1
 62
     7
370
    25
100
AcDbPolyline
 90
        7
 70
     1
 43
0.0
 10
-200.656
 20
135.3129
 10
-201.5266
 20
134.0723
 10
-203.2677
 20
134.0723
 10
-203.8483
 20
135.3129
 10
-203.2677
 20
136.5395
 10
-201.5266
 20
136.5395
 10
-200.656
 20
135.3129
  0
LWPOLYLINE
  5
80
330
1F
100
AcDbEntity
  8
Layer 1
 62
     7
370
    25
100
AcDbPolyline
 90
        7
 70
     1
 43
0.0
 10
-200.656
 20
114.2774
 10
-201.5266
 20
113.0508
 10
-203.2677
 20
113.0508
 10
-203.8483
 20
114.2774
 10
-203.2677
 20
115.5187
 10
-201.5266
 20
115.5187
 10
-200.656
 20
114.2774
  0
LWPOLYLINE
  5
81
330
1F
100
AcDbEntity
  8
Layer 1
 62
     7
370
    25
100
AcDbPolyline
 90
        7
 70
     1
 43
0.0
 10
-200.656
 20
93.5051
 10
-201.5266
 20
92.0159
 10
-203.2677
 20
92.0159
 10
-203.8483
 20
93.5051
 10
-203.2677
 20
94.7458
 10
-201.5266
 20
94.7458
 10
-200.656
 20
93.5051
  0
LWPOLYLINE
  5
82
330
1F
100
AcDbEntity
  8
Layer 1
 62
     7
370
    25
100
AcDbPolyline
 90
        7
 70
     1
 43
0.0
 10
-200.656
 20
72.4848
 10
-201.5266
 20
71.2436
 10
-203.2677
 20
71.2436
 10
-203.8483
 20
72.4848
 10
-203.2677
 20
73.7261
 10
-201.5266
 20
73.7261
 10
-200.656
 20
72.4848
  0
LWPOLYLINE
  5
83
330
1F
100
AcDbEntity
  8
Layer 1
 62
     7
370
    25
100
AcDbPolyline
 90
        7
 70
     1
 43
0.0
 10
-200.656
 20
51.4645
 10
-201.5266
 20
50.2233
 10
-203.2677
 20
50.2233
 10
-203.8483
 20
51.4645
 10
-203.2677
 20
52.6893
 10
-201.5266
 20
52.6893
 10
-200.656
 20
51.4645
  0
LWPOLYLINE
  5
84
330
1F
100
AcDbEntity
  8
Layer 1
 62
     7
370
    25
100
AcDbPolyline
 90
        7
 70
     1
 43
0.0
 10
-200.656
 20
30.677
 10
-201.5266
 20
29.4522
 10
-203.2677
 20
29.4522
 10
-203.8483
 20
30.677
 10
-203.2677
 20
31.9176
 10
-201.5266
 20
31.9176
 10
-200.656
 20
30.677
  0
LWPOLYLINE
  5
85
330
1F
100
AcDbEntity
  8
Layer 1
 62
     7
370
    25
100
AcDbPolyline
 90
        7
 70
     1
 43
0.0
 10
-200.656
 20
9.6567
 10
-201.5266
 20
8.4154
 10
-203.2677
 20
8.4154
 10
-203.8483
 20
9.6567
 10
-203.2677
 20
10.8979
 10
-201.5266
 20
10.8979
 10
-200.656
 20
9.6567
  0
LWPOLYLINE
  5
86
330
1F
100
AcDbEntity
  8
Layer 1
 62
     7
370
    25
100
AcDbPolyline
 90
        7
 70
     1
 43
0.0
 10
-200.656
 20
-11.1156
 10
-201.5266
 20
-12.3563
 10
-203.2677
 20
-12.3563
 10
-203.8483
 20
-11.1156
 10
-203.2677
 20
-9.8743
 10
-201.5266
 20
-9.8743
 10
-200.656
 20
-11.1156
  0
LWPOLYLINE
  5
87
330
1F
100
AcDbEntity
  8
Layer 1
 62
     7
370
    25
100
AcDbPolyline
 90
        7
 70
     1
 43
0.0
 10
-200.656
 20
-32.1359
 10
-201.5266
 20
-33.3771
 10
-203.2677
 20
-33.3771
 10
-203.8483
 20
-32.1359
 10
-203.2677
 20
-30.9093
 10
-201.5266
 20
-30.9093
 10
-200.656
 20
-32.1359
  0
LWPOLYLINE
  5
88
330
1F
100
AcDbEntity
  8
Layer 1
 62
     7
370
    25
100
AcDbPolyline
 90
        7
 70
     1
 43
0.0
 10
-200.656
 20
-52.9234
 10
-201.5266
 20
-54.1477
 10
-203.2677
 20
-54.1477
 10
-203.8483
 20
-52.9234
 10
-203.2677
 20
-51.6822
 10
-201.5266
 20
-51.6822
 10
-200.656
 20
-52.9234
  0
LWPOLYLINE
  5
89
330
1F
100
AcDbEntity
  8
Layer 1
 62
     7
370
    25
100
AcDbPolyline
 90
        7
 70
     1
 43
0.0
 10
-200.656
 20
-73.9437
 10
-201.5266
 20
-75.1703
 10
-203.2677
 20
-75.1703
 10
-203.8483
 20
-73.9437
 10
-203.2677
 20
-72.7025
 10
-201.5266
 20
-72.7025
 10
-200.656
 20
-73.9437
  0
LWPOLYLINE
  5
8A
330
1F
100
AcDbEntity
  8
Layer 1
 62
     7
370
    25
100
AcDbPolyline
 90
        7
 70
     1
 43
0.0
 10
-200.656
 20
-94.716
 10
-201.5266
 20
-95.9567
 10
-203.2677
 20
-95.9567
 10
-203.8483
 20
-94.716
 10
-203.2677
 20
-93.4748
 10
-201.5266
 20
-93.4748
 10
-200.656
 20
-94.716
  0
LWPOLYLINE
  5
8B
330
1F
100
AcDbEntity
  8
Layer 1
 62
     7
370
    25
100
AcDbPolyline
 90
        7
 70
     1
 43
0.0
 10
-200.656
 20
-115.7363
 10
-201.5266
 20
-116.977
 10
-203.2677
 20
-116.977
 10
-203.8483
 20
-115.7363
 10
-203.2677
 20
-114.5097
 10
-201.5266
 20
-114.5097
 10
-200.656
 20
-115.7363
  0
LWPOLYLINE
  5
8C
330
1F
100
AcDbEntity
  8
Layer 1
 62
     7
370
    25
100
AcDbPolyline
 90
        7
 70
     1
 43
0.0
 10
-200.656
 20
-136.5086
 10
-201.5266
 20
-137.7493
 10
-203.2677
 20
-137.7493
 10
-203.8483
 20
-136.5086
 10
-203.2677
 20
-135.2838
 10
-201.5266
 20
-135.2838
 10
-200.656
 20
-136.5086
  0
LWPOLYLINE
  5
8D
330
1F
100
AcDbEntity
  8
Layer 1
 62
     7
370
    25
100
AcDbPolyline
 90
        7
 70
     1
 43
0.0
 10
-176.0451
 20
135.3129
 10
-176.9156
 20
134.0723
 10
-178.6376
 20
134.0723
 10
-179.5081
 20
135.3129
 10
-178.6376
 20
136.5395
 10
-176.9156
 20
136.5395
 10
-176.0451
 20
135.3129
  0
LWPOLYLINE
  5
8E
330
1F
100
AcDbEntity
  8
Layer 1
 62
     7
370
    25
100
AcDbPolyline
 90
        7
 70
     1
 43
0.0
 10
-176.0451
 20
114.2774
 10
-176.9156
 20
113.0508
 10
-178.6376
 20
113.0508
 10
-179.5081
 20
114.2774
 10
-178.6376
 20
115.5187
 10
-176.9156
 20
115.5187
 10
-176.0451
 20
114.2774
  0
LWPOLYLINE
  5
8F
330
1F
100
AcDbEntity
  8
Layer 1
 62
     7
370
    25
100
AcDbPolyline
 90
        7
 70
     1
 43
0.0
 10
-176.0451
 20
93.5051
 10
-176.9156
 20
92.0159
 10
-178.6376
 20
92.0159
 10
-179.5081
 20
93.5051
 10
-178.6376
 20
94.7458
 10
-176.9156
 20
94.7458
 10
-176.0451
 20
93.5051
  0
LWPOLYLINE
  5
90
330
1F
100
AcDbEntity
  8
Layer 1
 62
     7
370
    25
100
AcDbPolyline
 90
        7
 70
     1
 43
0.0
 10
-176.0451
 20
72.4848
 10
-176.9156
 20
71.2436
 10
-178.6376
 20
71.2436
 10
-179.5081
 20
72.4848
 10
-178.6376
 20
73.7261
 10
-176.9156
 20
73.7261
 10
-176.0451
 20
72.4848
  0
LWPOLYLINE
  5
91
330
1F
100
AcDbEntity
  8
Layer 1
 62
     7
370
    25
100
AcDbPolyline
 90
        7
 70
     1
 43
0.0
 10
-176.0451
 20
51.4645
 10
-176.9156
 20
50.2233
 10
-178.6376
 20
50.2233
 10
-179.5081
 20
51.4645
 10
-178.6376
 20
52.6893
 10
-176.9156
 20
52.6893
 10
-176.0451
 20
51.4645
  0
LWPOLYLINE
  5
92
330
1F
100
AcDbEntity
  8
Layer 1
 62
     7
370
    25
100
AcDbPolyline
 90
        7
 70
     1
 43
0.0
 10
-176.0451
 20
30.677
 10
-176.9156
 20
29.4522
 10
-178.6376
 20
29.4522
 10
-179.5081
 20
30.677
 10
-178.6376
 20
31.9176
 10
-176.9156
 20
31.9176
 10
-176.0451
 20
30.677
  0
LWPOLYLINE
  5
93
330
1F
100
AcDbEntity
  8
Layer 1
 62
     7
370
    25
100
AcDbPolyline
 90
        7
 70
     1
 43
0.0
 10
-176.0451
 20
9.6567
 10
-176.9156
 20
8.4154
 10
-178.6376
 20
8.4154
 10
-179.5081
 20
9.6567
 10
-178.6376
 20
10.8979
 10
-176.9156
 20
10.8979
 10
-176.0451
 20
9.6567
  0
LWPOLYLINE
  5
94
330
1F
100
AcDbEntity
  8
Layer 1
 62
     7
370
    25
100
AcDbPolyline
 90
        7
 70
     1
 43
0.0
 10
-176.0451
 20
-11.1156
 10
-176.9156
 20
-12.3563
 10
-178.6376
 20
-12.3563
 10
-179.5081
 20
-11.1156
 10
-178.6376
 20
-9.8743
 10
-176.9156
 20
-9.8743
 10
-176.0451
 20
-11.1156
  0
LWPOLYLINE
  5
95
330
1F
100
AcDbEntity
  8
Layer 1
 62
     7
370
    25
100
AcDbPolyline
 90
        7
 70
     1
 43
0.0
 10
-176.0451
 20
-32.1359
 10
-176.9156
 20
-33.3771
 10
-178.6376
 20
-33.3771
 10
-179.5081
 20
-32.1359
 10
-178.6376
 20
-30.9093
 10
-176.9156
 20
-30.9093
 10
-176.0451
 20
-32.1359
  0
LWPOLYLINE
  5
96
330
1F
100
AcDbEntity
  8
Layer 1
 62
     7
370
    25
100
AcDbPolyline
 90
        7
 70
     1
 43
0.0
 10
-176.0451
 20
-52.9234
 10
-176.9156
 20
-54.1477
 10
-178.6376
 20
-54.1477
 10
-179.5081
 20
-52.9234
 10
-178.6376
 20
-51.6822
 10
-176.9156
 20
-51.6822
 10
-176.0451
 20
-52.9234
  0
LWPOLYLINE
  5
97
330
1F
100
AcDbEntity
  8
Layer 1
 62
     7
370
    25
100
AcDbPolyline
 90
        7
 70
     1
 43
0.0
 10
-176.0451
 20
-73.9437
 10
-176.9156
 20
-75.1703
 10
-178.6376
 20
-75.1703
 10
-179.5081
 20
-73.9437
 10
-178.6376
 20
-72.7025
 10
-176.9156
 20
-72.7025
 10
-176.0451
 20
-73.9437
  0
LWPOLYLINE
  5
98
330
1F
100
AcDbEntity
  8
Layer 1
 62
     7
370
    25
100
AcDbPolyline
 90
        7
 70
     1
 43
0.0
 10
-176.0451
 20
-94.716
 10
-176.9156
 20
-95.9567
 10
-178.6376
 20
-95.9567
 10
-179.5081
 20
-94.716
 10
-178.6376
 20
-93.4748
 10
-176.9156
 20
-93.4748
 10
-176.0451
 20
-94.716
  0
LWPOLYLINE
  5
99
330
1F
100
AcDbEntity
  8
Layer 1
 62
     7
370
    25
100
AcDbPolyline
 90
        7
 70
     1
 43
0.0
 10
-176.0451
 20
-115.7363
 10
-176.9156
 20
-116.977
 10
-178.6376
 20
-116.977
 10
-179.5081
 20
-115.7363
 10
-178.6376
 20
-114.5097
 10
-176.9156
 20
-114.5097
 10
-176.0451
 20
-115.7363
  0
LWPOLYLINE
  5
9A
330
1F
100
AcDbEntity
  8
Layer 1
 62
     7
370
    25
100
AcDbPolyline
 90
        7
 70
     1
 43
0.0
 10
-176.0451
 20
-136.5086
 10
-176.9156
 20
-137.7493
 10
-178.6376
 20
-137.7493
 10
-179.5081
 20
-136.5086
 10
-178.6376
 20
-135.2838
 10
-176.9156
 20
-135.2838
 10
-176.0451
 20
-136.5086
  0
LWPOLYLINE
  5
9B
330
1F
100
AcDbEntity
  8
Layer 1
 62
     7
370
    25
100
AcDbPolyline
 90
        7
 70
     1
 43
0.0
 10
-151.7049
 20
135.3129
 10
-152.5755
 20
134.0723
 10
-154.0266
 20
134.0723
 10
-154.8972
 20
135.3129
 10
-154.0266
 20
136.5395
 10
-152.5755
 20
136.5395
 10
-151.7049
 20
135.3129
  0
LWPOLYLINE
  5
9C
330
1F
100
AcDbEntity
  8
Layer 1
 62
     7
370
    25
100
AcDbPolyline
 90
        7
 70
     1
 43
0.0
 10
-151.7049
 20
114.2774
 10
-152.5755
 20
113.0508
 10
-154.0266
 20
113.0508
 10
-154.8972
 20
114.2774
 10
-154.0266
 20
115.5187
 10
-152.5755
 20
115.5187
 10
-151.7049
 20
114.2774
  0
LWPOLYLINE
  5
9D
330
1F
100
AcDbEntity
  8
Layer 1
 62
     7
370
    25
100
AcDbPolyline
 90
        7
 70
     1
 43
0.0
 10
-151.7049
 20
93.5051
 10
-152.5755
 20
92.0159
 10
-154.0266
 20
92.0159
 10
-154.8972
 20
93.5051
 10
-154.0266
 20
94.7458
 10
-152.5755
 20
94.7458
 10
-151.7049
 20
93.5051
  0
LWPOLYLINE
  5
9E
330
1F
100
AcDbEntity
  8
Layer 1
 62
     7
370
    25
100
AcDbPolyline
 90
        7
 70
     1
 43
0.0
 10
-151.7049
 20
72.4848
 10
-152.5755
 20
71.2436
 10
-154.0266
 20
71.2436
 10
-154.8972
 20
72.4848
 10
-154.0266
 20
73.7261
 10
-152.5755
 20
73.7261
 10
-151.7049
 20
72.4848
  0
LWPOLYLINE
  5
9F
330
1F
100
AcDbEntity
  8
Layer 1
 62
     7
370
    25
100
AcDbPolyline
 90
        7
 70
     1
 43
0.0
 10
-151.7049
 20
51.4645
 10
-152.5755
 20
50.2233
 10
-154.0266
 20
50.2233
 10
-154.8972
 20
51.4645
 10
-154.0266
 20
52.6893
 10
-152.5755
 20
52.6893
 10
-151.7049
 20
51.4645
  0
LWPOLYLINE
  5
A0
330
1F
100
AcDbEntity
  8
Layer 1
 62
     7
370
    25
100
AcDbPolyline
 90
        7
 70
     1
 43
0.0
 10
-151.7049
 20
30.677
 10
-152.5755
 20
29.4522
 10
-154.0266
 20
29.4522
 10
-154.8972
 20
30.677
 10
-154.0266
 20
31.9176
 10
-152.5755
 20
31.9176
 10
-151.7049
 20
30.677
  0
LWPOLYLINE
  5
A1
330
1F
100
AcDbEntity
  8
Layer 1
 62
     7
370
    25
100
AcDbPolyline
 90
        7
 70
     1
 43
0.0
 10
-151.7049
 20
9.6567
 10
-152.5755
 20
8.4154
 10
-154.0266
 20
8.4154
 10
-154.8972
 20
9.6567
 10
-154.0266
 20
10.8979
 10
-152.5755
 20
10.8979
 10
-151.7049
 20
9.6567
  0
LWPOLYLINE
  5
A2
330
1F
100
AcDbEntity
  8
Layer 1
 62
     7
370
    25
100
AcDbPolyline
 90
        7
 70
     1
 43
0.0
 10
-151.7049
 20
-11.1156
 10
-152.5755
 20
-12.3563
 10
-154.0266
 20
-12.3563
 10
-154.8972
 20
-11.1156
 10
-154.0266
 20
-9.8743
 10
-152.5755
 20
-9.8743
 10
-151.7049
 20
-11.1156
  0
LWPOLYLINE
  5
A3
330
1F
100
AcDbEntity
  8
Layer 1
 62
     7
370
    25
100
AcDbPolyline
 90
        7
 70
     1
 43
0.0
 10
-151.7049
 20
-32.1359
 10
-152.5755
 20
-33.3771
 10
-154.0266
 20
-33.3771
 10
-154.8972
 20
-32.1359
 10
-154.0266
 20
-30.9093
 10
-152.5755
 20
-30.9093
 10
-151.7049
 20
-32.1359
  0
LWPOLYLINE
  5
A4
330
1F
100
AcDbEntity
  8
Layer 1
 62
     7
370
    25
100
AcDbPolyline
 90
        7
 70
     1
 43
0.0
 10
-151.7049
 20
-52.9234
 10
-152.5755
 20
-54.1477
 10
-154.0266
 20
-54.1477
 10
-154.8972
 20
-52.9234
 10
-154.0266
 20
-51.6822
 10
-152.5755
 20
-51.6822
 10
-151.7049
 20
-52.9234
  0
LWPOLYLINE
  5
A5
330
1F
100
AcDbEntity
  8
Layer 1
 62
     7
370
    25
100
AcDbPolyline
 90
        7
 70
     1
 43
0.0
 10
-151.7049
 20
-73.9437
 10
-152.5755
 20
-75.1703
 10
-154.0266
 20
-75.1703
 10
-154.8972
 20
-73.9437
 10
-154.0266
 20
-72.7025
 10
-152.5755
 20
-72.7025
 10
-151.7049
 20
-73.9437
  0
LWPOLYLINE
  5
A6
330
1F
100
AcDbEntity
  8
Layer 1
 62
     7
370
    25
100
AcDbPolyline
 90
        7
 70
     1
 43
0.0
 10
-151.7049
 20
-94.716
 10
-152.5755
 20
-95.9567
 10
-154.0266
 20
-95.9567
 10
-154.8972
 20
-94.716
 10
-154.0266
 20
-93.4748
 10
-152.5755
 20
-93.4748
 10
-151.7049
 20
-94.716
  0
LWPOLYLINE
  5
A7
330
1F
100
AcDbEntity
  8
Layer 1
 62
     7
370
    25
100
AcDbPolyline
 90
        7
 70
     1
 43
0.0
 10
-151.7049
 20
-115.7363
 10
-152.5755
 20
-116.977
 10
-154.0266
 20
-116.977
 10
-154.8972
 20
-115.7363
 10
-154.0266
 20
-114.5097
 10
-152.5755
 20
-114.5097
 10
-151.7049
 20
-115.7363
  0
LWPOLYLINE
  5
A8
330
1F
100
AcDbEntity
  8
Layer 1
 62
     7
370
    25
100
AcDbPolyline
 90
        7
 70
     1
 43
0.0
 10
-151.7049
 20
-136.5086
 10
-152.5755
 20
-137.7493
 10
-154.0266
 20
-137.7493
 10
-154.8972
 20
-136.5086
 10
-154.0266
 20
-135.2838
 10
-152.5755
 20
-135.2838
 10
-151.7049
 20
-136.5086
  0
LWPOLYLINE
  5
A9
330
1F
100
AcDbEntity
  8
Layer 1
 62
     7
370
    25
100
AcDbPolyline
 90
       16
 70
     1
 43
0.0
 10
-120.1473
 20
72.4848
 10
-121.0178
 20
69.5227
 10
-123.0489
 20
67.0408
 10
-126.2241
 20
65.5515
 10
-129.7064
 20
65.0696
 10
-133.1886
 20
66.0482
 10
-135.7811
 20
68.0334
 10
-137.2323
 20
70.9956
 10
-137.2323
 20
73.9741
 10
-135.7811
 20
76.9379
 10
-133.1886
 20
78.9074
 10
-129.7064
 20
79.9001
 10
-126.2241
 20
79.404
 10
-123.0489
 20
77.9312
 10
-121.0178
 20
75.4469
 10
-120.1473
 20
72.4848
  0
LWPOLYLINE
  5
AA
330
1F
100
AcDbEntity
  8
Layer 1
 62
     7
370
    25
100
AcDbPolyline
 90
       16
 70
     1
 43
0.0
 10
-120.1473
 20
-73.9437
 10
-121.0178
 20
-76.9058
 10
-123.0489
 20
-79.3901
 10
-126.2241
 20
-80.8624
 10
-129.7064
 20
-81.359
 10
-133.1886
 20
-80.3663
 10
-135.7811
 20
-78.1488
 10
-137.2323
 20
-75.4183
 10
-137.2323
 20
-72.4545
 10
-135.7811
 20
-69.4906
 10
-133.1886
 20
-67.5071
 10
-129.7064
 20
-66.5138
 10
-126.2241
 20
-66.7624
 10
-123.0489
 20
-68.4974
 10
-121.0178
 20
-70.9652
 10
-120.1473
 20
-73.9437
  0
LWPOLYLINE
  5
AB
330
1F
100
AcDbEntity
  8
Layer 1
 62
     7
370
    25
100
AcDbPolyline
 90
        7
 70
     1
 43
0.0
 10
-127.0933
 20
135.3129
 10
-127.9639
 20
134.0723
 10
-129.705
 20
134.0723
 10
-130.5756
 20
135.3129
 10
-129.705
 20
136.5395
 10
-127.9639
 20
136.5395
 10
-127.0933
 20
135.3129
  0
LWPOLYLINE
  5
AC
330
1F
100
AcDbEntity
  8
Layer 1
 62
     7
370
    25
100
AcDbPolyline
 90
        7
 70
     1
 43
0.0
 10
-127.0933
 20
114.2774
 10
-127.9639
 20
113.0508
 10
-129.705
 20
113.0508
 10
-130.5756
 20
114.2774
 10
-129.705
 20
115.5187
 10
-127.9639
 20
115.5187
 10
-127.0933
 20
114.2774
  0
LWPOLYLINE
  5
AD
330
1F
100
AcDbEntity
  8
Layer 1
 62
     7
370
    25
100
AcDbPolyline
 90
        7
 70
     1
 43
0.0
 10
-127.0933
 20
93.5051
 10
-127.9639
 20
92.0159
 10
-129.705
 20
92.0159
 10
-130.5756
 20
93.5051
 10
-129.705
 20
94.7458
 10
-127.9639
 20
94.7458
 10
-127.0933
 20
93.5051
  0
LWPOLYLINE
  5
AE
330
1F
100
AcDbEntity
  8
Layer 1
 62
     7
370
    25
100
AcDbPolyline
 90
        7
 70
     1
 43
0.0
 10
-127.0933
 20
51.4645
 10
-127.9639
 20
50.2233
 10
-129.705
 20
50.2233
 10
-130.5756
 20
51.4645
 10
-129.705
 20
52.6893
 10
-127.9639
 20
52.6893
 10
-127.0933
 20
51.4645
  0
LWPOLYLINE
  5
AF
330
1F
100
AcDbEntity
  8
Layer 1
 62
     7
370
    25
100
AcDbPolyline
 90
        7
 70
     1
 43
0.0
 10
-127.0933
 20
30.677
 10
-127.9639
 20
29.4522
 10
-129.705
 20
29.4522
 10
-130.5756
 20
30.677
 10
-129.705
 20
31.9176
 10
-127.9639
 20
31.9176
 10
-127.0933
 20
30.677
  0
LWPOLYLINE
  5
B0
330
1F
100
AcDbEntity
  8
Layer 1
 62
     7
370
    25
100
AcDbPolyline
 90
        7
 70
     1
 43
0.0
 10
-127.0933
 20
9.6567
 10
-127.9639
 20
8.4154
 10
-129.705
 20
8.4154
 10
-130.5756
 20
9.6567
 10
-129.705
 20
10.8979
 10
-127.9639
 20
10.8979
 10
-127.0933
 20
9.6567
  0
LWPOLYLINE
  5
B1
330
1F
100
AcDbEntity
  8
Layer 1
 62
     7
370
    25
100
AcDbPolyline
 90
        7
 70
     1
 43
0.0
 10
-127.0933
 20
-11.1156
 10
-127.9639
 20
-12.3563
 10
-129.705
 20
-12.3563
 10
-130.5756
 20
-11.1156
 10
-129.705
 20
-9.8743
 10
-127.9639
 20
-9.8743
 10
-127.0933
 20
-11.1156
  0
LWPOLYLINE
  5
B2
330
1F
100
AcDbEntity
  8
Layer 1
 62
     7
370
    25
100
AcDbPolyline
 90
        7
 70
     1
 43
0.0
 10
-127.0933
 20
-32.1359
 10
-127.9639
 20
-33.3771
 10
-129.705
 20
-33.3771
 10
-130.5756
 20
-32.1359
 10
-129.705
 20
-30.9093
 10
-127.9639
 20
-30.9093
 10
-127.0933
 20
-32.1359
  0
LWPOLYLINE
  5
B3
330
1F
100
AcDbEntity
  8
Layer 1
 62
     7
370
    25
100
AcDbPolyline
 90
        7
 70
     1
 43
0.0
 10
-127.0933
 20
-52.9234
 10
-127.9639
 20
-54.1477
 10
-129.705
 20
-54.1477
 10
-130.5756
 20
-52.9234
 10
-129.705
 20
-51.6822
 10
-127.9639
 20
-51.6822
 10
-127.0933
 20
-52.9234
  0
LWPOLYLINE
  5
B4
330
1F
100
AcDbEntity
  8
Layer 1
 62
     7
370
    25
100
AcDbPolyline
 90
        7
 70
     1
 43
0.0
 10
-127.0933
 20
-94.716
 10
-127.9639
 20
-95.9567
 10
-129.705
 20
-95.9567
 10
-130.5756
 20
-94.716
 10
-129.705
 20
-93.4748
 10
-127.9639
 20
-93.4748
 10
-127.0933
 20
-94.716
  0
LWPOLYLINE
  5
B5
330
1F
100
AcDbEntity
  8
Layer 1
 62
     7
370
    25
100
AcDbPolyline
 90
        7
 70
     1
 43
0.0
 10
-127.0933
 20
-115.7363
 10
-127.9639
 20
-116.977
 10
-129.705
 20
-116.977
 10
-130.5756
 20
-115.7363
 10
-129.705
 20
-114.5097
 10
-127.9639
 20
-114.5097
 10
-127.0933
 20
-115.7363
  0
LWPOLYLINE
  5
B6
330
1F
100
AcDbEntity
  8
Layer 1
 62
     7
370
    25
100
AcDbPolyline
 90
        7
 70
     1
 43
0.0
 10
19.7229
 20
72.4848
 10
18.8524
 20
71.2436
 10
17.1311
 20
71.2436
 10
16.2606
 20
72.4848
 10
17.1311
 20
73.7261
 10
18.8524
 20
73.7261
 10
19.7229
 20
72.4848
  0
LWPOLYLINE
  5
B7
330
1F
100
AcDbEntity
  8
Layer 1
 62
     7
370
    25
100
AcDbPolyline
 90
        7
 70
     1
 43
0.0
 10
19.7229
 20
51.4645
 10
18.8524
 20
50.2233
 10
17.1311
 20
50.2233
 10
16.2606
 20
51.4645
 10
17.1311
 20
52.6893
 10
18.8524
 20
52.6893
 10
19.7229
 20
51.4645
  0
LWPOLYLINE
  5
B8
330
1F
100
AcDbEntity
  8
Layer 1
 62
     7
370
    25
100
AcDbPolyline
 90
        7
 70
     1
 43
0.0
 10
19.7229
 20
30.677
 10
18.8524
 20
29.4522
 10
17.1311
 20
29.4522
 10
16.2606
 20
30.677
 10
17.1311
 20
31.9176
 10
18.8524
 20
31.9176
 10
19.7229
 20
30.677
  0
LWPOLYLINE
  5
B9
330
1F
100
AcDbEntity
  8
Layer 1
 62
     7
370
    25
100
AcDbPolyline
 90
        7
 70
     1
 43
0.0
 10
19.7229
 20
9.6567
 10
18.8524
 20
8.4154
 10
17.1311
 20
8.4154
 10
16.2606
 20
9.6567
 10
17.1311
 20
10.8979
 10
18.8524
 20
10.8979
 10
19.7229
 20
9.6567
  0
LWPOLYLINE
  5
BA
330
1F
100
AcDbEntity
  8
Layer 1
 62
     7
370
    25
100
AcDbPolyline
 90
        7
 70
     1
 43
0.0
 10
19.7229
 20
-11.1156
 10
18.8524
 20
-12.3563
 10
17.1311
 20
-12.3563
 10
16.2606
 20
-11.1156
 10
17.1311
 20
-9.8743
 10
18.8524
 20
-9.8743
 10
19.7229
 20
-11.1156
  0
LWPOLYLINE
  5
BB
330
1F
100
AcDbEntity
  8
Layer 1
 62
     7
370
    25
100
AcDbPolyline
 90
        7
 70
     1
 43
0.0
 10
19.7229
 20
-32.1359
 10
18.8524
 20
-33.3771
 10
17.1311
 20
-33.3771
 10
16.2606
 20
-32.1359
 10
17.1311
 20
-30.9093
 10
18.8524
 20
-30.9093
 10
19.7229
 20
-32.1359
  0
LWPOLYLINE
  5
BC
330
1F
100
AcDbEntity
  8
Layer 1
 62
     7
370
    25
100
AcDbPolyline
 90
        7
 70
     1
 43
0.0
 10
19.7229
 20
-52.9234
 10
18.8524
 20
-54.1477
 10
17.1311
 20
-54.1477
 10
16.2606
 20
-52.9234
 10
17.1311
 20
-51.6822
 10
18.8524
 20
-51.6822
 10
19.7229
 20
-52.9234
  0
LWPOLYLINE
  5
BD
330
1F
100
AcDbEntity
  8
Layer 1
 62
     7
370
    25
100
AcDbPolyline
 90
        7
 70
     1
 43
0.0
 10
19.7229
 20
-73.9437
 10
18.8524
 20
-75.1703
 10
17.1311
 20
-75.1703
 10
16.2606
 20
-73.9437
 10
17.1311
 20
-72.7025
 10
18.8524
 20
-72.7025
 10
19.7229
 20
-73.9437
  0
LWPOLYLINE
  5
BE
330
1F
100
AcDbEntity
  8
Layer 1
 62
     7
370
    25
100
AcDbPolyline
 90
        7
 70
     1
 43
0.0
 10
19.7229
 20
-94.716
 10
18.8524
 20
-95.9567
 10
17.1311
 20
-95.9567
 10
16.2606
 20
-94.716
 10
17.1311
 20
-93.4748
 10
18.8524
 20
-93.4748
 10
19.7229
 20
-94.716
  0
LWPOLYLINE
  5
BF
330
1F
100
AcDbEntity
  8
Layer 1
 62
     7
370
    25
100
AcDbPolyline
 90
        7
 70
     1
 43
0.0
 10
19.7229
 20
-115.7363
 10
18.8524
 20
-116.977
 10
17.1311
 20
-116.977
 10
16.2606
 20
-115.7363
 10
17.1311
 20
-114.5097
 10
18.8524
 20
-114.5097
 10
19.7229
 20
-115.7363
  0
LWPOLYLINE
  5
C0
330
1F
100
AcDbEntity
  8
Layer 1
 62
     7
370
    25
100
AcDbPolyline
 90
        7
 70
     1
 43
0.0
 10
19.7229
 20
-136.5086
 10
18.8524
 20
-137.7493
 10
17.1311
 20
-137.7493
 10
16.2606
 20
-136.5086
 10
17.1311
 20
-135.2838
 10
18.8524
 20
-135.2838
 10
19.7229
 20
-136.5086
  0
LWPOLYLINE
  5
C1
330
1F
100
AcDbEntity
  8
Layer 1
 62
     7
370
    25
100
AcDbPolyline
 90
       16
 70
     1
 43
0.0
 10
51.2998
 20
72.4848
 10
50.4292
 20
69.5227
 10
48.3974
 20
67.0408
 10
45.2223
 20
65.5515
 10
41.74
 20
65.0696
 10
38.2577
 20
66.0482
 10
35.6659
 20
68.0334
 10
34.2148
 20
70.9956
 10
34.2148
 20
73.9741
 10
35.6659
 20
76.9379
 10
38.2577
 20
78.9074
 10
41.74
 20
79.9001
 10
45.2223
 20
79.404
 10
48.3974
 20
77.9312
 10
50.4292
 20
75.4469
 10
51.2998
 20
72.4848
  0
LWPOLYLINE
  5
C2
330
1F
100
AcDbEntity
  8
Layer 1
 62
     7
370
    25
100
AcDbPolyline
 90
       16
 70
     1
 43
0.0
 10
51.2998
 20
-73.9437
 10
50.4292
 20
-76.9058
 10
48.3974
 20
-79.3901
 10
45.2223
 20
-80.8624
 10
41.74
 20
-81.359
 10
38.2577
 20
-80.3663
 10
35.6659
 20
-78.1488
 10
34.2148
 20
-75.4183
 10
34.2148
 20
-72.4545
 10
35.6659
 20
-69.4906
 10
38.2577
 20
-67.5071
 10
41.74
 20
-66.5138
 10
45.2223
 20
-66.7624
 10
48.3974
 20
-68.4974
 10
50.4292
 20
-70.9652
 10
51.2998
 20
-73.9437
  0
LWPOLYLINE
  5
C3
330
1F
100
AcDbEntity
  8
Layer 1
 62
     7
370
    25
100
AcDbPolyline
 90
        7
 70
     1
 43
0.0
 10
44.3352
 20
135.3129
 10
43.4839
 20
134.0723
 10
41.7427
 20
134.0723
 10
40.8722
 20
135.3129
 10
41.7427
 20
136.5395
 10
43.4839
 20
136.5395
 10
44.3352
 20
135.3129
  0
LWPOLYLINE
  5
C4
330
1F
100
AcDbEntity
  8
Layer 1
 62
     7
370
    25
100
AcDbPolyline
 90
        7
 70
     1
 43
0.0
 10
44.3352
 20
114.2774
 10
43.4839
 20
113.0508
 10
41.7427
 20
113.0508
 10
40.8722
 20
114.2774
 10
41.7427
 20
115.5187
 10
43.4839
 20
115.5187
 10
44.3352
 20
114.2774
  0
LWPOLYLINE
  5
C5
330
1F
100
AcDbEntity
  8
Layer 1
 62
     7
370
    25
100
AcDbPolyline
 90
        7
 70
     1
 43
0.0
 10
44.3352
 20
93.5051
 10
43.4839
 20
92.0159
 10
41.7427
 20
92.0159
 10
40.8722
 20
93.5051
 10
41.7427
 20
94.7458
 10
43.4839
 20
94.7458
 10
44.3352
 20
93.5051
  0
LWPOLYLINE
  5
C6
330
1F
100
AcDbEntity
  8
Layer 1
 62
     7
370
    25
100
AcDbPolyline
 90
        7
 70
     1
 43
0.0
 10
44.3352
 20
51.4645
 10
43.4839
 20
50.2233
 10
41.7427
 20
50.2233
 10
40.8722
 20
51.4645
 10
41.7427
 20
52.6893
 10
43.4839
 20
52.6893
 10
44.3352
 20
51.4645
  0
LWPOLYLINE
  5
C7
330
1F
100
AcDbEntity
  8
Layer 1
 62
     7
370
    25
100
AcDbPolyline
 90
        7
 70
     1
 43
0.0
 10
44.3352
 20
30.677
 10
43.4839
 20
29.4522
 10
41.7427
 20
29.4522
 10
40.8722
 20
30.677
 10
41.7427
 20
31.9176
 10
43.4839
 20
31.9176
 10
44.3352
 20
30.677
  0
LWPOLYLINE
  5
C8
330
1F
100
AcDbEntity
  8
Layer 1
 62
     7
370
    25
100
AcDbPolyline
 90
        7
 70
     1
 43
0.0
 10
44.3352
 20
9.6567
 10
43.4839
 20
8.4154
 10
41.7427
 20
8.4154
 10
40.8722
 20
9.6567
 10
41.7427
 20
10.8979
 10
43.4839
 20
10.8979
 10
44.3352
 20
9.6567
  0
LWPOLYLINE
  5
C9
330
1F
100
AcDbEntity
  8
Layer 1
 62
     7
370
    25
100
AcDbPolyline
 90
        7
 70
     1
 43
0.0
 10
44.3352
 20
-11.1156
 10
43.4839
 20
-12.3563
 10
41.7427
 20
-12.3563
 10
40.8722
 20
-11.1156
 10
41.7427
 20
-9.8743
 10
43.4839
 20
-9.8743
 10
44.3352
 20
-11.1156
  0
LWPOLYLINE
  5
CA
330
1F
100
AcDbEntity
  8
Layer 1
 62
     7
370
    25
100
AcDbPolyline
 90
        7
 70
     1
 43
0.0
 10
44.3352
 20
-32.1359
 10
43.4839
 20
-33.3771
 10
41.7427
 20
-33.3771
 10
40.8722
 20
-32.1359
 10
41.7427
 20
-30.9093
 10
43.4839
 20
-30.9093
 10
44.3352
 20
-32.1359
  0
LWPOLYLINE
  5
CB
330
1F
100
AcDbEntity
  8
Layer 1
 62
     7
370
    25
100
AcDbPolyline
 90
        7
 70
     1
 43
0.0
 10
44.3352
 20
-52.9234
 10
43.4839
 20
-54.1477
 10
41.7427
 20
-54.1477
 10
40.8722
 20
-52.9234
 10
41.7427
 20
-51.6822
 10
43.4839
 20
-51.6822
 10
44.3352
 20
-52.9234
  0
LWPOLYLINE
  5
CC
330
1F
100
AcDbEntity
  8
Layer 1
 62
     7
370
    25
100
AcDbPolyline
 90
        7
 70
     1
 43
0.0
 10
44.3352
 20
-94.716
 10
43.4839
 20
-95.9567
 10
41.7427
 20
-95.9567
 10
40.8722
 20
-94.716
 10
41.7427
 20
-93.4748
 10
43.4839
 20
-93.4748
 10
44.3352
 20
-94.716
  0
LWPOLYLINE
  5
CD
330
1F
100
AcDbEntity
  8
Layer 1
 62
     7
370
    25
100
AcDbPolyline
 90
        7
 70
     1
 43
0.0
 10
44.3352
 20
-115.7363
 10
43.4839
 20
-116.977
 10
41.7427
 20
-116.977
 10
40.8722
 20
-115.7363
 10
41.7427
 20
-114.5097
 10
43.4839
 20
-114.5097
 10
44.3352
 20
-115.7363
  0
LWPOLYLINE
  5
CE
330
1F
100
AcDbEntity
  8
Layer 1
 62
     7
370
    25
100
AcDbPolyline
 90
        7
 70
     1
 43
0.0
 10
44.3352
 20
-136.5086
 10
43.4839
 20
-137.7493
 10
41.7427
 20
-137.7493
 10
40.8722
 20
-136.5086
 10
41.7427
 20
-135.2838
 10
43.4839
 20
-135.2838
 10
44.3352
 20
-136.5086
  0
LWPOLYLINE
  5
CF
330
1F
100
AcDbEntity
  8
Layer 1
 62
     7
370
    25
100
AcDbPolyline
 90
        7
 70
     1
 43
0.0
 10
68.674
 20
135.3129
 10
67.8035
 20
134.0723
 10
66.0623
 20
134.0723
 10
65.1918
 20
135.3129
 10
66.0623
 20
136.5395
 10
67.8035
 20
136.5395
 10
68.674
 20
135.3129
  0
LWPOLYLINE
  5
D0
330
1F
100
AcDbEntity
  8
Layer 1
 62
     7
370
    25
100
AcDbPolyline
 90
        7
 70
     1
 43
0.0
 10
68.674
 20
114.2774
 10
67.8035
 20
113.0508
 10
66.0623
 20
113.0508
 10
65.1918
 20
114.2774
 10
66.0623
 20
115.5187
 10
67.8035
 20
115.5187
 10
68.674
 20
114.2774
  0
LWPOLYLINE
  5
D1
330
1F
100
AcDbEntity
  8
Layer 1
 62
     7
370
    25
100
AcDbPolyline
 90
        7
 70
     1
 43
0.0
 10
68.674
 20
93.5051
 10
67.8035
 20
92.0159
 10
66.0623
 20
92.0159
 10
65.1918
 20
93.5051
 10
66.0623
 20
94.7458
 10
67.8035
 20
94.7458
 10
68.674
 20
93.5051
  0
LWPOLYLINE
  5
D2
330
1F
100
AcDbEntity
  8
Layer 1
 62
     7
370
    25
100
AcDbPolyline
 90
        7
 70
     1
 43
0.0
 10
68.674
 20
72.4848
 10
67.8035
 20
71.2436
 10
66.0623
 20
71.2436
 10
65.1918
 20
72.4848
 10
66.0623
 20
73.7261
 10
67.8035
 20
73.7261
 10
68.674
 20
72.4848
  0
LWPOLYLINE
  5
D3
330
1F
100
AcDbEntity
  8
Layer 1
 62
     7
370
    25
100
AcDbPolyline
 90
        7
 70
     1
 43
0.0
 10
68.674
 20
51.4645
 10
67.8035
 20
50.2233
 10
66.0623
 20
50.2233
 10
65.1918
 20
51.4645
 10
66.0623
 20
52.6893
 10
67.8035
 20
52.6893
 10
68.674
 20
51.4645
  0
LWPOLYLINE
  5
D4
330
1F
100
AcDbEntity
  8
Layer 1
 62
     7
370
    25
100
AcDbPolyline
 90
        7
 70
     1
 43
0.0
 10
68.674
 20
30.677
 10
67.8035
 20
29.4522
 10
66.0623
 20
29.4522
 10
65.1918
 20
30.677
 10
66.0623
 20
31.9176
 10
67.8035
 20
31.9176
 10
68.674
 20
30.677
  0
LWPOLYLINE
  5
D5
330
1F
100
AcDbEntity
  8
Layer 1
 62
     7
370
    25
100
AcDbPolyline
 90
        7
 70
     1
 43
0.0
 10
68.674
 20
9.6567
 10
67.8035
 20
8.4154
 10
66.0623
 20
8.4154
 10
65.1918
 20
9.6567
 10
66.0623
 20
10.8979
 10
67.8035
 20
10.8979
 10
68.674
 20
9.6567
  0
LWPOLYLINE
  5
D6
330
1F
100
AcDbEntity
  8
Layer 1
 62
     7
370
    25
100
AcDbPolyline
 90
        7
 70
     1
 43
0.0
 10
68.674
 20
-11.1156
 10
67.8035
 20
-12.3563
 10
66.0623
 20
-12.3563
 10
65.1918
 20
-11.1156
 10
66.0623
 20
-9.8743
 10
67.8035
 20
-9.8743
 10
68.674
 20
-11.1156
  0
LWPOLYLINE
  5
D7
330
1F
100
AcDbEntity
  8
Layer 1
 62
     7
370
    25
100
AcDbPolyline
 90
        7
 70
     1
 43
0.0
 10
68.674
 20
-32.1359
 10
67.8035
 20
-33.3771
 10
66.0623
 20
-33.3771
 10
65.1918
 20
-32.1359
 10
66.0623
 20
-30.9093
 10
67.8035
 20
-30.9093
 10
68.674
 20
-32.1359
  0
LWPOLYLINE
  5
D8
330
1F
100
AcDbEntity
  8
Layer 1
 62
     7
370
    25
100
AcDbPolyline
 90
        7
 70
     1
 43
0.0
 10
68.674
 20
-52.9234
 10
67.8035
 20
-54.1477
 10
66.0623
 20
-54.1477
 10
65.1918
 20
-52.9234
 10
66.0623
 20
-51.6822
 10
67.8035
 20
-51.6822
 10
68.674
 20
-52.9234
  0
LWPOLYLINE
  5
D9
330
1F
100
AcDbEntity
  8
Layer 1
 62
     7
370
    25
100
AcDbPolyline
 90
        7
 70
     1
 43
0.0
 10
68.674
 20
-73.9437
 10
67.8035
 20
-75.1703
 10
66.0623
 20
-75.1703
 10
65.1918
 20
-73.9437
 10
66.0623
 20
-72.7025
 10
67.8035
 20
-72.7025
 10
68.674
 20
-73.9437
  0
LWPOLYLINE
  5
DA
330
1F
100
AcDbEntity
  8
Layer 1
 62
     7
370
    25
100
AcDbPolyline
 90
        7
 70
     1
 43
0.0
 10
68.674
 20
-94.716
 10
67.8035
 20
-95.9567
 10
66.0623
 20
-95.9567
 10
65.1918
 20
-94.716
 10
66.0623
 20
-93.4748
 10
67.8035
 20
-93.4748
 10
68.674
 20
-94.716
  0
LWPOLYLINE
  5
DB
330
1F
100
AcDbEntity
  8
Layer 1
 62
     7
370
    25
100
AcDbPolyline
 90
        7
 70
     1
 43
0.0
 10
68.674
 20
-115.7363
 10
67.8035
 20
-116.977
 10
66.0623
 20
-116.977
 10
65.1918
 20
-115.7363
 10
66.0623
 20
-114.5097
 10
67.8035
 20
-114.5097
 10
68.674
 20
-115.7363
  0
LWPOLYLINE
  5
DC
330
1F
100
AcDbEntity
  8
Layer 1
 62
     7
370
    25
100
AcDbPolyline
 90
        7
 70
     1
 43
0.0
 10
68.674
 20
-136.5086
 10
67.8035
 20
-137.7493
 10
66.0623
 20
-137.7493
 10
65.1918
 20
-136.5086
 10
66.0623
 20
-135.2838
 10
67.8035
 20
-135.2838
 10
68.674
 20
-136.5086
  0
LWPOLYLINE
  5
DD
330
1F
100
AcDbEntity
  8
Layer 1
 62
     7
370
    25
100
AcDbPolyline
 90
        7
 70
     1
 43
0.0
 10
93.2856
 20
135.3129
 10
92.4151
 20
134.0723
 10
90.6739
 20
134.0723
 10
89.8034
 20
135.3129
 10
90.6739
 20
136.5395
 10
92.4151
 20
136.5395
 10
93.2856
 20
135.3129
  0
LWPOLYLINE
  5
DE
330
1F
100
AcDbEntity
  8
Layer 1
 62
     7
370
    25
100
AcDbPolyline
 90
        7
 70
     1
 43
0.0
 10
93.2856
 20
114.2774
 10
92.4151
 20
113.0508
 10
90.6739
 20
113.0508
 10
89.8034
 20
114.2774
 10
90.6739
 20
115.5187
 10
92.4151
 20
115.5187
 10
93.2856
 20
114.2774
  0
LWPOLYLINE
  5
DF
330
1F
100
AcDbEntity
  8
Layer 1
 62
     7
370
    25
100
AcDbPolyline
 90
        7
 70
     1
 43
0.0
 10
93.2856
 20
93.5051
 10
92.4151
 20
92.0159
 10
90.6739
 20
92.0159
 10
89.8034
 20
93.5051
 10
90.6739
 20
94.7458
 10
92.4151
 20
94.7458
 10
93.2856
 20
93.5051
  0
LWPOLYLINE
  5
E0
330
1F
100
AcDbEntity
  8
Layer 1
 62
     7
370
    25
100
AcDbPolyline
 90
        7
 70
     1
 43
0.0
 10
93.2856
 20
72.4848
 10
92.4151
 20
71.2436
 10
90.6739
 20
71.2436
 10
89.8034
 20
72.4848
 10
90.6739
 20
73.7261
 10
92.4151
 20
73.7261
 10
93.2856
 20
72.4848
  0
LWPOLYLINE
  5
E1
330
1F
100
AcDbEntity
  8
Layer 1
 62
     7
370
    25
100
AcDbPolyline
 90
        7
 70
     1
 43
0.0
 10
93.2856
 20
51.4645
 10
92.4151
 20
50.2233
 10
90.6739
 20
50.2233
 10
89.8034
 20
51.4645
 10
90.6739
 20
52.6893
 10
92.4151
 20
52.6893
 10
93.2856
 20
51.4645
  0
LWPOLYLINE
  5
E2
330
1F
100
AcDbEntity
  8
Layer 1
 62
     7
370
    25
100
AcDbPolyline
 90
        7
 70
     1
 43
0.0
 10
93.2856
 20
30.677
 10
92.4151
 20
29.4522
 10
90.6739
 20
29.4522
 10
89.8034
 20
30.677
 10
90.6739
 20
31.9176
 10
92.4151
 20
31.9176
 10
93.2856
 20
30.677
  0
LWPOLYLINE
  5
E3
330
1F
100
AcDbEntity
  8
Layer 1
 62
     7
370
    25
100
AcDbPolyline
 90
        7
 70
     1
 43
0.0
 10
93.2856
 20
9.6567
 10
92.4151
 20
8.4154
 10
90.6739
 20
8.4154
 10
89.8034
 20
9.6567
 10
90.6739
 20
10.8979
 10
92.4151
 20
10.8979
 10
93.2856
 20
9.6567
  0
LWPOLYLINE
  5
E4
330
1F
100
AcDbEntity
  8
Layer 1
 62
     7
370
    25
100
AcDbPolyline
 90
        7
 70
     1
 43
0.0
 10
93.2856
 20
-11.1156
 10
92.4151
 20
-12.3563
 10
90.6739
 20
-12.3563
 10
89.8034
 20
-11.1156
 10
90.6739
 20
-9.8743
 10
92.4151
 20
-9.8743
 10
93.2856
 20
-11.1156
  0
LWPOLYLINE
  5
E5
330
1F
100
AcDbEntity
  8
Layer 1
 62
     7
370
    25
100
AcDbPolyline
 90
        7
 70
     1
 43
0.0
 10
93.2856
 20
-32.1359
 10
92.4151
 20
-33.3771
 10
90.6739
 20
-33.3771
 10
89.8034
 20
-32.1359
 10
90.6739
 20
-30.9093
 10
92.4151
 20
-30.9093
 10
93.2856
 20
-32.1359
  0
LWPOLYLINE
  5
E6
330
1F
100
AcDbEntity
  8
Layer 1
 62
     7
370
    25
100
AcDbPolyline
 90
        7
 70
     1
 43
0.0
 10
93.2856
 20
-52.9234
 10
92.4151
 20
-54.1477
 10
90.6739
 20
-54.1477
 10
89.8034
 20
-52.9234
 10
90.6739
 20
-51.6822
 10
92.4151
 20
-51.6822
 10
93.2856
 20
-52.9234
  0
LWPOLYLINE
  5
E7
330
1F
100
AcDbEntity
  8
Layer 1
 62
     7
370
    25
100
AcDbPolyline
 90
        7
 70
     1
 43
0.0
 10
93.2856
 20
-73.9437
 10
92.4151
 20
-75.1703
 10
90.6739
 20
-75.1703
 10
89.8034
 20
-73.9437
 10
90.6739
 20
-72.7025
 10
92.4151
 20
-72.7025
 10
93.2856
 20
-73.9437
  0
LWPOLYLINE
  5
E8
330
1F
100
AcDbEntity
  8
Layer 1
 62
     7
370
    25
100
AcDbPolyline
 90
        7
 70
     1
 43
0.0
 10
93.2856
 20
-94.716
 10
92.4151
 20
-95.9567
 10
90.6739
 20
-95.9567
 10
89.8034
 20
-94.716
 10
90.6739
 20
-93.4748
 10
92.4151
 20
-93.4748
 10
93.2856
 20
-94.716
  0
LWPOLYLINE
  5
E9
330
1F
100
AcDbEntity
  8
Layer 1
 62
     7
370
    25
100
AcDbPolyline
 90
        7
 70
     1
 43
0.0
 10
93.2856
 20
-115.7363
 10
92.4151
 20
-116.977
 10
90.6739
 20
-116.977
 10
89.8034
 20
-115.7363
 10
90.6739
 20
-114.5097
 10
92.4151
 20
-114.5097
 10
93.2856
 20
-115.7363
  0
LWPOLYLINE
  5
EA
330
1F
100
AcDbEntity
  8
Layer 1
 62
     7
370
    25
100
AcDbPolyline
 90
        7
 70
     1
 43
0.0
 10
93.2856
 20
-136.5086
 10
92.4151
 20
-137.7493
 10
90.6739
 20
-137.7493
 10
89.8034
 20
-136.5086
 10
90.6739
 20
-135.2838
 10
92.4151
 20
-135.2838
 10
93.2856
 20
-136.5086
  0
LWPOLYLINE
  5
EB
330
1F
100
AcDbEntity
  8
Layer 1
 62
     7
370
    25
100
AcDbPolyline
 90
        7
 70
     1
 43
0.0
 10
117.6073
 20
135.3129
 10
116.7367
 20
134.0723
 10
115.0127
 20
134.0723
 10
114.4349
 20
135.3129
 10
115.0127
 20
136.5395
 10
116.7367
 20
136.5395
 10
117.6073
 20
135.3129
  0
LWPOLYLINE
  5
EC
330
1F
100
AcDbEntity
  8
Layer 1
 62
     7
370
    25
100
AcDbPolyline
 90
        7
 70
     1
 43
0.0
 10
117.6073
 20
114.2774
 10
116.7367
 20
113.0508
 10
115.0127
 20
113.0508
 10
114.4349
 20
114.2774
 10
115.0127
 20
115.5187
 10
116.7367
 20
115.5187
 10
117.6073
 20
114.2774
  0
LWPOLYLINE
  5
ED
330
1F
100
AcDbEntity
  8
Layer 1
 62
     7
370
    25
100
AcDbPolyline
 90
        7
 70
     1
 43
0.0
 10
117.6073
 20
93.5051
 10
116.7367
 20
92.0159
 10
115.0127
 20
92.0159
 10
114.4349
 20
93.5051
 10
115.0127
 20
94.7458
 10
116.7367
 20
94.7458
 10
117.6073
 20
93.5051
  0
LWPOLYLINE
  5
EE
330
1F
100
AcDbEntity
  8
Layer 1
 62
     7
370
    25
100
AcDbPolyline
 90
        7
 70
     1
 43
0.0
 10
117.6073
 20
72.4848
 10
116.7367
 20
71.2436
 10
115.0127
 20
71.2436
 10
114.4349
 20
72.4848
 10
115.0127
 20
73.7261
 10
116.7367
 20
73.7261
 10
117.6073
 20
72.4848
  0
LWPOLYLINE
  5
EF
330
1F
100
AcDbEntity
  8
Layer 1
 62
     7
370
    25
100
AcDbPolyline
 90
        7
 70
     1
 43
0.0
 10
117.6073
 20
51.4645
 10
116.7367
 20
50.2233
 10
115.0127
 20
50.2233
 10
114.4349
 20
51.4645
 10
115.0127
 20
52.6893
 10
116.7367
 20
52.6893
 10
117.6073
 20
51.4645
  0
LWPOLYLINE
  5
F0
330
1F
100
AcDbEntity
  8
Layer 1
 62
     7
370
    25
100
AcDbPolyline
 90
        7
 70
     1
 43
0.0
 10
117.6073
 20
30.677
 10
116.7367
 20
29.4522
 10
115.0127
 20
29.4522
 10
114.4349
 20
30.677
 10
115.0127
 20
31.9176
 10
116.7367
 20
31.9176
 10
117.6073
 20
30.677
  0
LWPOLYLINE
  5
F1
330
1F
100
AcDbEntity
  8
Layer 1
 62
     7
370
    25
100
AcDbPolyline
 90
        7
 70
     1
 43
0.0
 10
117.6073
 20
9.6567
 10
116.7367
 20
8.4154
 10
115.0127
 20
8.4154
 10
114.4349
 20
9.6567
 10
115.0127
 20
10.8979
 10
116.7367
 20
10.8979
 10
117.6073
 20
9.6567
  0
LWPOLYLINE
  5
F2
330
1F
100
AcDbEntity
  8
Layer 1
 62
     7
370
    25
100
AcDbPolyline
 90
        7
 70
     1
 43
0.0
 10
117.6073
 20
-11.1156
 10
116.7367
 20
-12.3563
 10
115.0127
 20
-12.3563
 10
114.4349
 20
-11.1156
 10
115.0127
 20
-9.8743
 10
116.7367
 20
-9.8743
 10
117.6073
 20
-11.1156
  0
LWPOLYLINE
  5
F3
330
1F
100
AcDbEntity
  8
Layer 1
 62
     7
370
    25
100
AcDbPolyline
 90
        7
 70
     1
 43
0.0
 10
117.6073
 20
-32.1359
 10
116.7367
 20
-33.3771
 10
115.0127
 20
-33.3771
 10
114.4349
 20
-32.1359
 10
115.0127
 20
-30.9093
 10
116.7367
 20
-30.9093
 10
117.6073
 20
-32.1359
  0
LWPOLYLINE
  5
F4
330
1F
100
AcDbEntity
  8
Layer 1
 62
     7
370
    25
100
AcDbPolyline
 90
        7
 70
     1
 43
0.0
 10
117.6073
 20
-52.9234
 10
116.7367
 20
-54.1477
 10
115.0127
 20
-54.1477
 10
114.4349
 20
-52.9234
 10
115.0127
 20
-51.6822
 10
116.7367
 20
-51.6822
 10
117.6073
 20
-52.9234
  0
LWPOLYLINE
  5
F5
330
1F
100
AcDbEntity
  8
Layer 1
 62
     7
370
    25
100
AcDbPolyline
 90
        7
 70
     1
 43
0.0
 10
117.6073
 20
-73.9437
 10
116.7367
 20
-75.1703
 10
115.0127
 20
-75.1703
 10
114.4349
 20
-73.9437
 10
115.0127
 20
-72.7025
 10
116.7367
 20
-72.7025
 10
117.6073
 20
-73.9437
  0
LWPOLYLINE
  5
F6
330
1F
100
AcDbEntity
  8
Layer 1
 62
     7
370
    25
100
AcDbPolyline
 90
        7
 70
     1
 43
0.0
 10
117.6073
 20
-94.716
 10
116.7367
 20
-95.9567
 10
115.0127
 20
-95.9567
 10
114.4349
 20
-94.716
 10
115.0127
 20
-93.4748
 10
116.7367
 20
-93.4748
 10
117.6073
 20
-94.716
  0
LWPOLYLINE
  5
F7
330
1F
100
AcDbEntity
  8
Layer 1
 62
     7
370
    25
100
AcDbPolyline
 90
        7
 70
     1
 43
0.0
 10
117.6073
 20
-115.7363
 10
116.7367
 20
-116.977
 10
115.0127
 20
-116.977
 10
114.4349
 20
-115.7363
 10
115.0127
 20
-114.5097
 10
116.7367
 20
-114.5097
 10
117.6073
 20
-115.7363
  0
LWPOLYLINE
  5
F8
330
1F
100
AcDbEntity
  8
Layer 1
 62
     7
370
    25
100
AcDbPolyline
 90
        7
 70
     1
 43
0.0
 10
117.6073
 20
-136.5086
 10
116.7367
 20
-137.7493
 10
115.0127
 20
-137.7493
 10
114.4349
 20
-136.5086
 10
115.0127
 20
-135.2838
 10
116.7367
 20
-135.2838
 10
117.6073
 20
-136.5086
  0
LWPOLYLINE
  5
F9
330
1F
100
AcDbEntity
  8
Layer 1
 62
     7
370
    25
100
AcDbPolyline
 90
       10
 70
     1
 43
0.0
 10
237.5094
 20
151.1367
 10
236.9295
 20
149.1508
 10
234.8977
 20
148.4226
 10
232.8666
 20
148.6547
 10
231.4154
 20
150.144
 10
231.4154
 20
151.8813
 10
232.8666
 20
153.3559
 10
234.8977
 20
153.6045
 10
236.9295
 20
152.8739
 10
237.5094
 20
151.1367
  0
LWPOLYLINE
  5
FA
330
1F
100
AcDbEntity
  8
Layer 1
 62
     7
370
    25
100
AcDbPolyline
 90
       10
 70
     1
 43
0.0
 10
237.5094
 20
-152.347
 10
236.9295
 20
-154.0684
 10
234.8977
 20
-155.0611
 10
232.8666
 20
-154.813
 10
231.4154
 20
-153.3402
 10
231.4154
 20
-151.6023
 10
232.8666
 20
-150.1131
 10
234.8977
 20
-149.8651
 10
236.9295
 20
-150.6097
 10
237.5094
 20
-152.347
  0
LWPOLYLINE
  5
FB
330
1F
100
AcDbEntity
  8
Layer 1
 62
   250
370
    25
100
AcDbPolyline
 90
        2
 70
     0
 43
0.0
 10
-357.032
 20
-171.63
 10
-357.032
 20
170.4349
  0
LWPOLYLINE
  5
FC
330
1F
100
AcDbEntity
  8
Layer 1
 62
     7
370
    25
100
AcDbPolyline
 90
        5
 70
     1
 43
0.0
 10
-248.7221
 20
-80.86
 10
-255.6626
 20
-90.8914
 10
-255.6626
 20
89.4331
 10
-248.7221
 20
79.4017
 10
-248.7221
 20
-80.86
  0
LWPOLYLINE
  5
FD
330
1F
100
AcDbEntity
  8
Layer 1
 62
     7
370
    25
100
AcDbPolyline
 90
        5
 70
     1
 43
0.0
 10
-270.4382
 20
139.2618
 10
-270.4382
 20
-140.7196
 10
-233.9472
 20
-125.1445
 10
-233.9472
 20
123.6861
 10
-270.4382
 20
139.2618
  0
LWPOLYLINE
  5
FE
330
1F
100
AcDbEntity
  8
Layer 1
 62
     7
370
    25
100
AcDbPolyline
 90
        5
 70
     1
 43
0.0
 10
162.3084
 20
79.4105
 10
162.3084
 20
-80.8694
 10
169.253
 20
-90.9014
 10
169.253
 20
89.4425
 10
162.3084
 20
79.4105
  0
LWPOLYLINE
  5
FF
330
1F
100
AcDbEntity
  8
Layer 1
 62
     7
370
    25
100
AcDbPolyline
 90
        2
 70
     0
 43
0.0
 10
184.224
 20
-140.7278
 10
184.224
 20
139.2677
  0
LWPOLYLINE
  5
100
330
1F
100
AcDbEntity
  8
Layer 1
 62
     7
370
    25
100
AcDbPolyline
 90
        2
 70
     0
 43
0.0
 10
147.7329
 20
-125.1374
 10
184.224
 20
-140.729
  0
LWPOLYLINE
  5
101
330
1F
100
AcDbEntity
  8
Layer 1
 62
     7
370
    25
100
AcDbPolyline
 90
        2
 70
     0
 43
0.0
 10
147.7329
 20
123.6785
 10
147.7329
 20
-125.1363
  0
LWPOLYLINE
  5
102
330
1F
100
AcDbEntity
  8
Layer 1
 62
     7
370
    25
100
AcDbPolyline
 90
        7
 70
     1
 43
0.0
 10
-102.7723
 20
-32.1359
 10
-103.6429
 20
-33.3771
 10
-105.0934
 20
-33.3771
 10
-105.9639
 20
-32.1359
 10
-105.0934
 20
-30.9093
 10
-103.6429
 20
-30.9093
 10
-102.7723
 20
-32.1359
  0
LWPOLYLINE
  5
103
330
1F
100
AcDbEntity
  8
Layer 1
 62
     7
370
    25
100
AcDbPolyline
 90
        7
 70
     1
 43
0.0
 10
-102.7723
 20
-52.9234
 10
-103.6429
 20
-54.1477
 10
-105.0934
 20
-54.1477
 10
-105.9639
 20
-52.9234
 10
-105.0934
 20
-51.6822
 10
-103.6429
 20
-51.6822
 10
-102.7723
 20
-52.9234
  0
LWPOLYLINE
  5
104
330
1F
100
AcDbEntity
  8
Layer 1
 62
     7
370
    25
100
AcDbPolyline
 90
        7
 70
     1
 43
0.0
 10
-102.7723
 20
-73.9437
 10
-103.6429
 20
-75.1703
 10
-105.0934
 20
-75.1703
 10
-105.9639
 20
-73.9437
 10
-105.0934
 20
-72.7025
 10
-103.6429
 20
-72.7025
 10
-102.7723
 20
-73.9437
  0
LWPOLYLINE
  5
105
330
1F
100
AcDbEntity
  8
Layer 1
 62
     7
370
    25
100
AcDbPolyline
 90
        7
 70
     1
 43
0.0
 10
-102.7723
 20
-94.716
 10
-103.6429
 20
-95.9567
 10
-105.0934
 20
-95.9567
 10
-105.9639
 20
-94.716
 10
-105.0934
 20
-93.4748
 10
-103.6429
 20
-93.4748
 10
-102.7723
 20
-94.716
  0
LWPOLYLINE
  5
106
330
1F
100
AcDbEntity
  8
Layer 1
 62
     7
370
    25
100
AcDbPolyline
 90
        7
 70
     1
 43
0.0
 10
-102.7723
 20
-115.7363
 10
-103.6429
 20
-116.977
 10
-105.0934
 20
-116.977
 10
-105.9639
 20
-115.7363
 10
-105.0934
 20
-114.5097
 10
-103.6429
 20
-114.5097
 10
-102.7723
 20
-115.7363
  0
LWPOLYLINE
  5
107
330
1F
100
AcDbEntity
  8
Layer 1
 62
     7
370
    25
100
AcDbPolyline
 90
        7
 70
     1
 43
0.0
 10
-102.7723
 20
-136.5086
 10
-103.6429
 20
-137.7493
 10
-105.0934
 20
-137.7493
 10
-105.9639
 20
-136.5086
 10
-105.0934
 20
-135.2838
 10
-103.6429
 20
-135.2838
 10
-102.7723
 20
-136.5086
  0
LWPOLYLINE
  5
108
330
1F
100
AcDbEntity
  8
Layer 1
 62
     7
370
    25
100
AcDbPolyline
 90
        7
 70
     1
 43
0.0
 10
-78.1607
 20
135.3129
 10
-79.0313
 20
134.0723
 10
-80.7553
 20
134.0723
 10
-81.6238
 20
135.3129
 10
-80.7553
 20
136.5395
 10
-79.0313
 20
136.5395
 10
-78.1607
 20
135.3129
  0
LWPOLYLINE
  5
109
330
1F
100
AcDbEntity
  8
Layer 1
 62
     7
370
    25
100
AcDbPolyline
 90
        7
 70
     1
 43
0.0
 10
-78.1607
 20
114.2774
 10
-79.0313
 20
113.0508
 10
-80.7553
 20
113.0508
 10
-81.6238
 20
114.2774
 10
-80.7553
 20
115.5187
 10
-79.0313
 20
115.5187
 10
-78.1607
 20
114.2774
  0
LWPOLYLINE
  5
10A
330
1F
100
AcDbEntity
  8
Layer 1
 62
     7
370
    25
100
AcDbPolyline
 90
        7
 70
     1
 43
0.0
 10
-78.1607
 20
93.5051
 10
-79.0313
 20
92.0159
 10
-80.7553
 20
92.0159
 10
-81.6238
 20
93.5051
 10
-80.7553
 20
94.7458
 10
-79.0313
 20
94.7458
 10
-78.1607
 20
93.5051
  0
LWPOLYLINE
  5
10B
330
1F
100
AcDbEntity
  8
Layer 1
 62
     7
370
    25
100
AcDbPolyline
 90
        7
 70
     1
 43
0.0
 10
-78.1607
 20
72.4848
 10
-79.0313
 20
71.2436
 10
-80.7553
 20
71.2436
 10
-81.6238
 20
72.4848
 10
-80.7553
 20
73.7261
 10
-79.0313
 20
73.7261
 10
-78.1607
 20
72.4848
  0
LWPOLYLINE
  5
10C
330
1F
100
AcDbEntity
  8
Layer 1
 62
     7
370
    25
100
AcDbPolyline
 90
        7
 70
     1
 43
0.0
 10
-78.1607
 20
51.4645
 10
-79.0313
 20
50.2233
 10
-80.7553
 20
50.2233
 10
-81.6238
 20
51.4645
 10
-80.7553
 20
52.6893
 10
-79.0313
 20
52.6893
 10
-78.1607
 20
51.4645
  0
LWPOLYLINE
  5
10D
330
1F
100
AcDbEntity
  8
Layer 1
 62
     7
370
    25
100
AcDbPolyline
 90
        7
 70
     1
 43
0.0
 10
-78.1607
 20
30.677
 10
-79.0313
 20
29.4522
 10
-80.7553
 20
29.4522
 10
-81.6238
 20
30.677
 10
-80.7553
 20
31.9176
 10
-79.0313
 20
31.9176
 10
-78.1607
 20
30.677
  0
LWPOLYLINE
  5
10E
330
1F
100
AcDbEntity
  8
Layer 1
 62
     7
370
    25
100
AcDbPolyline
 90
        7
 70
     1
 43
0.0
 10
-78.1607
 20
9.6567
 10
-79.0313
 20
8.4154
 10
-80.7553
 20
8.4154
 10
-81.6238
 20
9.6567
 10
-80.7553
 20
10.8979
 10
-79.0313
 20
10.8979
 10
-78.1607
 20
9.6567
  0
LWPOLYLINE
  5
10F
330
1F
100
AcDbEntity
  8
Layer 1
 62
     7
370
    25
100
AcDbPolyline
 90
        7
 70
     1
 43
0.0
 10
-78.1607
 20
-11.1156
 10
-79.0313
 20
-12.3563
 10
-80.7553
 20
-12.3563
 10
-81.6238
 20
-11.1156
 10
-80.7553
 20
-9.8743
 10
-79.0313
 20
-9.8743
 10
-78.1607
 20
-11.1156
  0
LWPOLYLINE
  5
110
330
1F
100
AcDbEntity
  8
Layer 1
 62
     7
370
    25
100
AcDbPolyline
 90
        7
 70
     1
 43
0.0
 10
-78.1607
 20
-32.1359
 10
-79.0313
 20
-33.3771
 10
-80.7553
 20
-33.3771
 10
-81.6238
 20
-32.1359
 10
-80.7553
 20
-30.9093
 10
-79.0313
 20
-30.9093
 10
-78.1607
 20
-32.1359
  0
LWPOLYLINE
  5
111
330
1F
100
AcDbEntity
  8
Layer 1
 62
     7
370
    25
100
AcDbPolyline
 90
        7
 70
     1
 43
0.0
 10
-78.1607
 20
-52.9234
 10
-79.0313
 20
-54.1477
 10
-80.7553
 20
-54.1477
 10
-81.6238
 20
-52.9234
 10
-80.7553
 20
-51.6822
 10
-79.0313
 20
-51.6822
 10
-78.1607
 20
-52.9234
  0
LWPOLYLINE
  5
112
330
1F
100
AcDbEntity
  8
Layer 1
 62
     7
370
    25
100
AcDbPolyline
 90
        7
 70
     1
 43
0.0
 10
-78.1607
 20
-73.9437
 10
-79.0313
 20
-75.1703
 10
-80.7553
 20
-75.1703
 10
-81.6238
 20
-73.9437
 10
-80.7553
 20
-72.7025
 10
-79.0313
 20
-72.7025
 10
-78.1607
 20
-73.9437
  0
LWPOLYLINE
  5
113
330
1F
100
AcDbEntity
  8
Layer 1
 62
     7
370
    25
100
AcDbPolyline
 90
        7
 70
     1
 43
0.0
 10
-78.1607
 20
-94.716
 10
-79.0313
 20
-95.9567
 10
-80.7553
 20
-95.9567
 10
-81.6238
 20
-94.716
 10
-80.7553
 20
-93.4748
 10
-79.0313
 20
-93.4748
 10
-78.1607
 20
-94.716
  0
LWPOLYLINE
  5
114
330
1F
100
AcDbEntity
  8
Layer 1
 62
     7
370
    25
100
AcDbPolyline
 90
        7
 70
     1
 43
0.0
 10
-78.1607
 20
-115.7363
 10
-79.0313
 20
-116.977
 10
-80.7553
 20
-116.977
 10
-81.6238
 20
-115.7363
 10
-80.7553
 20
-114.5097
 10
-79.0313
 20
-114.5097
 10
-78.1607
 20
-115.7363
  0
LWPOLYLINE
  5
115
330
1F
100
AcDbEntity
  8
Layer 1
 62
     7
370
    25
100
AcDbPolyline
 90
        7
 70
     1
 43
0.0
 10
-78.1607
 20
-136.5086
 10
-79.0313
 20
-137.7493
 10
-80.7553
 20
-137.7493
 10
-81.6238
 20
-136.5086
 10
-80.7553
 20
-135.2838
 10
-79.0313
 20
-135.2838
 10
-78.1607
 20
-136.5086
  0
LWPOLYLINE
  5
116
330
1F
100
AcDbEntity
  8
Layer 1
 62
     7
370
    25
100
AcDbPolyline
 90
        7
 70
     1
 43
0.0
 10
-53.8212
 20
135.3129
 10
-54.4012
 20
134.0723
 10
-56.1423
 20
134.0723
 10
-57.0129
 20
135.3129
 10
-56.1423
 20
136.5395
 10
-54.4012
 20
136.5395
 10
-53.8212
 20
135.3129
  0
LWPOLYLINE
  5
117
330
1F
100
AcDbEntity
  8
Layer 1
 62
     7
370
    25
100
AcDbPolyline
 90
        7
 70
     1
 43
0.0
 10
-53.8212
 20
114.2774
 10
-54.4012
 20
113.0508
 10
-56.1423
 20
113.0508
 10
-57.0129
 20
114.2774
 10
-56.1423
 20
115.5187
 10
-54.4012
 20
115.5187
 10
-53.8212
 20
114.2774
  0
LWPOLYLINE
  5
118
330
1F
100
AcDbEntity
  8
Layer 1
 62
     7
370
    25
100
AcDbPolyline
 90
        7
 70
     1
 43
0.0
 10
-53.8212
 20
93.5051
 10
-54.4012
 20
92.0159
 10
-56.1423
 20
92.0159
 10
-57.0129
 20
93.5051
 10
-56.1423
 20
94.7458
 10
-54.4012
 20
94.7458
 10
-53.8212
 20
93.5051
  0
LWPOLYLINE
  5
119
330
1F
100
AcDbEntity
  8
Layer 1
 62
     7
370
    25
100
AcDbPolyline
 90
        7
 70
     1
 43
0.0
 10
-53.8212
 20
72.4848
 10
-54.4012
 20
71.2436
 10
-56.1423
 20
71.2436
 10
-57.0129
 20
72.4848
 10
-56.1423
 20
73.7261
 10
-54.4012
 20
73.7261
 10
-53.8212
 20
72.4848
  0
LWPOLYLINE
  5
11A
330
1F
100
AcDbEntity
  8
Layer 1
 62
     7
370
    25
100
AcDbPolyline
 90
        7
 70
     1
 43
0.0
 10
-53.8212
 20
51.4645
 10
-54.4012
 20
50.2233
 10
-56.1423
 20
50.2233
 10
-57.0129
 20
51.4645
 10
-56.1423
 20
52.6893
 10
-54.4012
 20
52.6893
 10
-53.8212
 20
51.4645
  0
LWPOLYLINE
  5
11B
330
1F
100
AcDbEntity
  8
Layer 1
 62
     7
370
    25
100
AcDbPolyline
 90
        7
 70
     1
 43
0.0
 10
-53.8212
 20
30.677
 10
-54.4012
 20
29.4522
 10
-56.1423
 20
29.4522
 10
-57.0129
 20
30.677
 10
-56.1423
 20
31.9176
 10
-54.4012
 20
31.9176
 10
-53.8212
 20
30.677
  0
LWPOLYLINE
  5
11C
330
1F
100
AcDbEntity
  8
Layer 1
 62
     7
370
    25
100
AcDbPolyline
 90
        7
 70
     1
 43
0.0
 10
-53.8212
 20
9.6567
 10
-54.4012
 20
8.4154
 10
-56.1423
 20
8.4154
 10
-57.0129
 20
9.6567
 10
-56.1423
 20
10.8979
 10
-54.4012
 20
10.8979
 10
-53.8212
 20
9.6567
  0
LWPOLYLINE
  5
11D
330
1F
100
AcDbEntity
  8
Layer 1
 62
     7
370
    25
100
AcDbPolyline
 90
        7
 70
     1
 43
0.0
 10
-53.8212
 20
-11.1156
 10
-54.4012
 20
-12.3563
 10
-56.1423
 20
-12.3563
 10
-57.0129
 20
-11.1156
 10
-56.1423
 20
-9.8743
 10
-54.4012
 20
-9.8743
 10
-53.8212
 20
-11.1156
  0
LWPOLYLINE
  5
11E
330
1F
100
AcDbEntity
  8
Layer 1
 62
     7
370
    25
100
AcDbPolyline
 90
        7
 70
     1
 43
0.0
 10
-53.8212
 20
-32.1359
 10
-54.4012
 20
-33.3771
 10
-56.1423
 20
-33.3771
 10
-57.0129
 20
-32.1359
 10
-56.1423
 20
-30.9093
 10
-54.4012
 20
-30.9093
 10
-53.8212
 20
-32.1359
  0
LWPOLYLINE
  5
11F
330
1F
100
AcDbEntity
  8
Layer 1
 62
     7
370
    25
100
AcDbPolyline
 90
        7
 70
     1
 43
0.0
 10
-53.8212
 20
-52.9234
 10
-54.4012
 20
-54.1477
 10
-56.1423
 20
-54.1477
 10
-57.0129
 20
-52.9234
 10
-56.1423
 20
-51.6822
 10
-54.4012
 20
-51.6822
 10
-53.8212
 20
-52.9234
  0
LWPOLYLINE
  5
120
330
1F
100
AcDbEntity
  8
Layer 1
 62
     7
370
    25
100
AcDbPolyline
 90
        7
 70
     1
 43
0.0
 10
-53.8212
 20
-73.9437
 10
-54.4012
 20
-75.1703
 10
-56.1423
 20
-75.1703
 10
-57.0129
 20
-73.9437
 10
-56.1423
 20
-72.7025
 10
-54.4012
 20
-72.7025
 10
-53.8212
 20
-73.9437
  0
LWPOLYLINE
  5
121
330
1F
100
AcDbEntity
  8
Layer 1
 62
     7
370
    25
100
AcDbPolyline
 90
        7
 70
     1
 43
0.0
 10
-53.8212
 20
-94.716
 10
-54.4012
 20
-95.9567
 10
-56.1423
 20
-95.9567
 10
-57.0129
 20
-94.716
 10
-56.1423
 20
-93.4748
 10
-54.4012
 20
-93.4748
 10
-53.8212
 20
-94.716
  0
LWPOLYLINE
  5
122
330
1F
100
AcDbEntity
  8
Layer 1
 62
     7
370
    25
100
AcDbPolyline
 90
        7
 70
     1
 43
0.0
 10
-53.8212
 20
-115.7363
 10
-54.4012
 20
-116.977
 10
-56.1423
 20
-116.977
 10
-57.0129
 20
-115.7363
 10
-56.1423
 20
-114.5097
 10
-54.4012
 20
-114.5097
 10
-53.8212
 20
-115.7363
  0
LWPOLYLINE
  5
123
330
1F
100
AcDbEntity
  8
Layer 1
 62
     7
370
    25
100
AcDbPolyline
 90
        7
 70
     1
 43
0.0
 10
-53.8212
 20
-136.5086
 10
-54.4012
 20
-137.7493
 10
-56.1423
 20
-137.7493
 10
-57.0129
 20
-136.5086
 10
-56.1423
 20
-135.2838
 10
-54.4012
 20
-135.2838
 10
-53.8212
 20
-136.5086
  0
LWPOLYLINE
  5
124
330
1F
100
AcDbEntity
  8
Layer 1
 62
     7
370
    25
100
AcDbPolyline
 90
        7
 70
     1
 43
0.0
 10
-29.2096
 20
135.3129
 10
-30.0802
 20
134.0723
 10
-31.8213
 20
134.0723
 10
-32.6919
 20
135.3129
 10
-31.8213
 20
136.5395
 10
-30.0802
 20
136.5395
 10
-29.2096
 20
135.3129
  0
LWPOLYLINE
  5
125
330
1F
100
AcDbEntity
  8
Layer 1
 62
     7
370
    25
100
AcDbPolyline
 90
        7
 70
     1
 43
0.0
 10
-29.2096
 20
114.2774
 10
-30.0802
 20
113.0508
 10
-31.8213
 20
113.0508
 10
-32.6919
 20
114.2774
 10
-31.8213
 20
115.5187
 10
-30.0802
 20
115.5187
 10
-29.2096
 20
114.2774
  0
LWPOLYLINE
  5
126
330
1F
100
AcDbEntity
  8
Layer 1
 62
     7
370
    25
100
AcDbPolyline
 90
        7
 70
     1
 43
0.0
 10
-29.2096
 20
93.5051
 10
-30.0802
 20
92.0159
 10
-31.8213
 20
92.0159
 10
-32.6919
 20
93.5051
 10
-31.8213
 20
94.7458
 10
-30.0802
 20
94.7458
 10
-29.2096
 20
93.5051
  0
LWPOLYLINE
  5
127
330
1F
100
AcDbEntity
  8
Layer 1
 62
     7
370
    25
100
AcDbPolyline
 90
        7
 70
     1
 43
0.0
 10
-29.2096
 20
72.4848
 10
-30.0802
 20
71.2436
 10
-31.8213
 20
71.2436
 10
-32.6919
 20
72.4848
 10
-31.8213
 20
73.7261
 10
-30.0802
 20
73.7261
 10
-29.2096
 20
72.4848
  0
LWPOLYLINE
  5
128
330
1F
100
AcDbEntity
  8
Layer 1
 62
     7
370
    25
100
AcDbPolyline
 90
        7
 70
     1
 43
0.0
 10
-29.2096
 20
51.4645
 10
-30.0802
 20
50.2233
 10
-31.8213
 20
50.2233
 10
-32.6919
 20
51.4645
 10
-31.8213
 20
52.6893
 10
-30.0802
 20
52.6893
 10
-29.2096
 20
51.4645
  0
LWPOLYLINE
  5
129
330
1F
100
AcDbEntity
  8
Layer 1
 62
     7
370
    25
100
AcDbPolyline
 90
        7
 70
     1
 43
0.0
 10
-29.2096
 20
30.677
 10
-30.0802
 20
29.4522
 10
-31.8213
 20
29.4522
 10
-32.6919
 20
30.677
 10
-31.8213
 20
31.9176
 10
-30.0802
 20
31.9176
 10
-29.2096
 20
30.677
  0
LWPOLYLINE
  5
12A
330
1F
100
AcDbEntity
  8
Layer 1
 62
     7
370
    25
100
AcDbPolyline
 90
        7
 70
     1
 43
0.0
 10
-29.2096
 20
9.6567
 10
-30.0802
 20
8.4154
 10
-31.8213
 20
8.4154
 10
-32.6919
 20
9.6567
 10
-31.8213
 20
10.8979
 10
-30.0802
 20
10.8979
 10
-29.2096
 20
9.6567
  0
LWPOLYLINE
  5
12B
330
1F
100
AcDbEntity
  8
Layer 1
 62
     7
370
    25
100
AcDbPolyline
 90
        7
 70
     1
 43
0.0
 10
-29.2096
 20
-11.1156
 10
-30.0802
 20
-12.3563
 10
-31.8213
 20
-12.3563
 10
-32.6919
 20
-11.1156
 10
-31.8213
 20
-9.8743
 10
-30.0802
 20
-9.8743
 10
-29.2096
 20
-11.1156
  0
LWPOLYLINE
  5
12C
330
1F
100
AcDbEntity
  8
Layer 1
 62
     7
370
    25
100
AcDbPolyline
 90
        7
 70
     1
 43
0.0
 10
-29.2096
 20
-32.1359
 10
-30.0802
 20
-33.3771
 10
-31.8213
 20
-33.3771
 10
-32.6919
 20
-32.1359
 10
-31.8213
 20
-30.9093
 10
-30.0802
 20
-30.9093
 10
-29.2096
 20
-32.1359
  0
LWPOLYLINE
  5
12D
330
1F
100
AcDbEntity
  8
Layer 1
 62
     7
370
    25
100
AcDbPolyline
 90
        7
 70
     1
 43
0.0
 10
-29.2096
 20
-52.9234
 10
-30.0802
 20
-54.1477
 10
-31.8213
 20
-54.1477
 10
-32.6919
 20
-52.9234
 10
-31.8213
 20
-51.6822
 10
-30.0802
 20
-51.6822
 10
-29.2096
 20
-52.9234
  0
LWPOLYLINE
  5
12E
330
1F
100
AcDbEntity
  8
Layer 1
 62
     7
370
    25
100
AcDbPolyline
 90
        7
 70
     1
 43
0.0
 10
-29.2096
 20
-73.9437
 10
-30.0802
 20
-75.1703
 10
-31.8213
 20
-75.1703
 10
-32.6919
 20
-73.9437
 10
-31.8213
 20
-72.7025
 10
-30.0802
 20
-72.7025
 10
-29.2096
 20
-73.9437
  0
LWPOLYLINE
  5
12F
330
1F
100
AcDbEntity
  8
Layer 1
 62
     7
370
    25
100
AcDbPolyline
 90
        7
 70
     1
 43
0.0
 10
-29.2096
 20
-94.716
 10
-30.0802
 20
-95.9567
 10
-31.8213
 20
-95.9567
 10
-32.6919
 20
-94.716
 10
-31.8213
 20
-93.4748
 10
-30.0802
 20
-93.4748
 10
-29.2096
 20
-94.716
  0
LWPOLYLINE
  5
130
330
1F
100
AcDbEntity
  8
Layer 1
 62
     7
370
    25
100
AcDbPolyline
 90
        7
 70
     1
 43
0.0
 10
-29.2096
 20
-115.7363
 10
-30.0802
 20
-116.977
 10
-31.8213
 20
-116.977
 10
-32.6919
 20
-115.7363
 10
-31.8213
 20
-114.5097
 10
-30.0802
 20
-114.5097
 10
-29.2096
 20
-115.7363
  0
LWPOLYLINE
  5
131
330
1F
100
AcDbEntity
  8
Layer 1
 62
     7
370
    25
100
AcDbPolyline
 90
        7
 70
     1
 43
0.0
 10
-29.2096
 20
-136.5086
 10
-30.0802
 20
-137.7493
 10
-31.8213
 20
-137.7493
 10
-32.6919
 20
-136.5086
 10
-31.8213
 20
-135.2838
 10
-30.0802
 20
-135.2838
 10
-29.2096
 20
-136.5086
  0
LWPOLYLINE
  5
132
330
1F
100
AcDbEntity
  8
Layer 1
 62
     7
370
    25
100
AcDbPolyline
 90
        7
 70
     1
 43
0.0
 10
-4.8887
 20
135.3129
 10
-5.4686
 20
134.0723
 10
-7.2097
 20
134.0723
 10
-8.0803
 20
135.3129
 10
-7.2097
 20
136.5395
 10
-5.4686
 20
136.5395
 10
-4.8887
 20
135.3129
  0
LWPOLYLINE
  5
133
330
1F
100
AcDbEntity
  8
Layer 1
 62
     7
370
    25
100
AcDbPolyline
 90
        7
 70
     1
 43
0.0
 10
-4.8887
 20
114.2774
 10
-5.4686
 20
113.0508
 10
-7.2097
 20
113.0508
 10
-8.0803
 20
114.2774
 10
-7.2097
 20
115.5187
 10
-5.4686
 20
115.5187
 10
-4.8887
 20
114.2774
  0
LWPOLYLINE
  5
134
330
1F
100
AcDbEntity
  8
Layer 1
 62
     7
370
    25
100
AcDbPolyline
 90
        7
 70
     1
 43
0.0
 10
-4.8887
 20
93.5051
 10
-5.4686
 20
92.0159
 10
-7.2097
 20
92.0159
 10
-8.0803
 20
93.5051
 10
-7.2097
 20
94.7458
 10
-5.4686
 20
94.7458
 10
-4.8887
 20
93.5051
  0
LWPOLYLINE
  5
135
330
1F
100
AcDbEntity
  8
Layer 1
 62
     7
370
    25
100
AcDbPolyline
 90
        7
 70
     1
 43
0.0
 10
-4.8887
 20
72.4848
 10
-5.4686
 20
71.2436
 10
-7.2097
 20
71.2436
 10
-8.0803
 20
72.4848
 10
-7.2097
 20
73.7261
 10
-5.4686
 20
73.7261
 10
-4.8887
 20
72.4848
  0
LWPOLYLINE
  5
136
330
1F
100
AcDbEntity
  8
Layer 1
 62
     7
370
    25
100
AcDbPolyline
 90
        7
 70
     1
 43
0.0
 10
-4.8887
 20
51.4645
 10
-5.4686
 20
50.2233
 10
-7.2097
 20
50.2233
 10
-8.0803
 20
51.4645
 10
-7.2097
 20
52.6893
 10
-5.4686
 20
52.6893
 10
-4.8887
 20
51.4645
  0
LWPOLYLINE
  5
137
330
1F
100
AcDbEntity
  8
Layer 1
 62
     7
370
    25
100
AcDbPolyline
 90
        7
 70
     1
 43
0.0
 10
-4.8887
 20
30.677
 10
-5.4686
 20
29.4522
 10
-7.2097
 20
29.4522
 10
-8.0803
 20
30.677
 10
-7.2097
 20
31.9176
 10
-5.4686
 20
31.9176
 10
-4.8887
 20
30.677
  0
LWPOLYLINE
  5
138
330
1F
100
AcDbEntity
  8
Layer 1
 62
     7
370
    25
100
AcDbPolyline
 90
        7
 70
     1
 43
0.0
 10
-4.8887
 20
9.6567
 10
-5.4686
 20
8.4154
 10
-7.2097
 20
8.4154
 10
-8.0803
 20
9.6567
 10
-7.2097
 20
10.8979
 10
-5.4686
 20
10.8979
 10
-4.8887
 20
9.6567
  0
LWPOLYLINE
  5
139
330
1F
100
AcDbEntity
  8
Layer 1
 62
     7
370
    25
100
AcDbPolyline
 90
        7
 70
     1
 43
0.0
 10
-4.8887
 20
-11.1156
 10
-5.4686
 20
-12.3563
 10
-7.2097
 20
-12.3563
 10
-8.0803
 20
-11.1156
 10
-7.2097
 20
-9.8743
 10
-5.4686
 20
-9.8743
 10
-4.8887
 20
-11.1156
  0
LWPOLYLINE
  5
13A
330
1F
100
AcDbEntity
  8
Layer 1
 62
     7
370
    25
100
AcDbPolyline
 90
        7
 70
     1
 43
0.0
 10
-4.8887
 20
-32.1359
 10
-5.4686
 20
-33.3771
 10
-7.2097
 20
-33.3771
 10
-8.0803
 20
-32.1359
 10
-7.2097
 20
-30.9093
 10
-5.4686
 20
-30.9093
 10
-4.8887
 20
-32.1359
  0
LWPOLYLINE
  5
13B
330
1F
100
AcDbEntity
  8
Layer 1
 62
     7
370
    25
100
AcDbPolyline
 90
        7
 70
     1
 43
0.0
 10
-4.8887
 20
-52.9234
 10
-5.4686
 20
-54.1477
 10
-7.2097
 20
-54.1477
 10
-8.0803
 20
-52.9234
 10
-7.2097
 20
-51.6822
 10
-5.4686
 20
-51.6822
 10
-4.8887
 20
-52.9234
  0
LWPOLYLINE
  5
13C
330
1F
100
AcDbEntity
  8
Layer 1
 62
     7
370
    25
100
AcDbPolyline
 90
        7
 70
     1
 43
0.0
 10
-4.8887
 20
-73.9437
 10
-5.4686
 20
-75.1703
 10
-7.2097
 20
-75.1703
 10
-8.0803
 20
-73.9437
 10
-7.2097
 20
-72.7025
 10
-5.4686
 20
-72.7025
 10
-4.8887
 20
-73.9437
  0
LWPOLYLINE
  5
13D
330
1F
100
AcDbEntity
  8
Layer 1
 62
     7
370
    25
100
AcDbPolyline
 90
        7
 70
     1
 43
0.0
 10
-4.8887
 20
-94.716
 10
-5.4686
 20
-95.9567
 10
-7.2097
 20
-95.9567
 10
-8.0803
 20
-94.716
 10
-7.2097
 20
-93.4748
 10
-5.4686
 20
-93.4748
 10
-4.8887
 20
-94.716
  0
LWPOLYLINE
  5
13E
330
1F
100
AcDbEntity
  8
Layer 1
 62
     7
370
    25
100
AcDbPolyline
 90
        7
 70
     1
 43
0.0
 10
-4.8887
 20
-115.7363
 10
-5.4686
 20
-116.977
 10
-7.2097
 20
-116.977
 10
-8.0803
 20
-115.7363
 10
-7.2097
 20
-114.5097
 10
-5.4686
 20
-114.5097
 10
-4.8887
 20
-115.7363
  0
LWPOLYLINE
  5
13F
330
1F
100
AcDbEntity
  8
Layer 1
 62
     7
370
    25
100
AcDbPolyline
 90
        7
 70
     1
 43
0.0
 10
-4.8887
 20
-136.5086
 10
-5.4686
 20
-137.7493
 10
-7.2097
 20
-137.7493
 10
-8.0803
 20
-136.5086
 10
-7.2097
 20
-135.2838
 10
-5.4686
 20
-135.2838
 10
-4.8887
 20
-136.5086
  0
LWPOLYLINE
  5
140
330
1F
100
AcDbEntity
  8
Layer 1
 62
     7
370
    25
100
AcDbPolyline
 90
        7
 70
     1
 43
0.0
 10
19.7229
 20
135.3129
 10
18.8524
 20
134.0723
 10
17.1311
 20
134.0723
 10
16.2606
 20
135.3129
 10
17.1311
 20
136.5395
 10
18.8524
 20
136.5395
 10
19.7229
 20
135.3129
  0
LWPOLYLINE
  5
141
330
1F
100
AcDbEntity
  8
Layer 1
 62
     7
370
    25
100
AcDbPolyline
 90
        7
 70
     1
 43
0.0
 10
19.7229
 20
114.2774
 10
18.8524
 20
113.0508
 10
17.1311
 20
113.0508
 10
16.2606
 20
114.2774
 10
17.1311
 20
115.5187
 10
18.8524
 20
115.5187
 10
19.7229
 20
114.2774
  0
LWPOLYLINE
  5
142
330
1F
100
AcDbEntity
  8
Layer 1
 62
     7
370
    25
100
AcDbPolyline
 90
        7
 70
     1
 43
0.0
 10
19.7229
 20
93.5051
 10
18.8524
 20
92.0159
 10
17.1311
 20
92.0159
 10
16.2606
 20
93.5051
 10
17.1311
 20
94.7458
 10
18.8524
 20
94.7458
 10
19.7229
 20
93.5051
  0
LWPOLYLINE
  5
143
330
1F
100
AcDbEntity
  8
Layer 1
 62
     7
370
    25
100
AcDbPolyline
 90
        2
 70
     0
 43
0.0
 10
-270.4465
 20
138.5242
 10
-268.996
 20
138.5242
  0
LWPOLYLINE
  5
144
330
1F
100
AcDbEntity
  8
Layer 1
 62
     7
370
    25
100
AcDbPolyline
 90
        2
 70
     0
 43
0.0
 10
182.7728
 20
138.5242
 10
184.224
 20
138.5242
  0
LWPOLYLINE
  5
145
330
1F
100
AcDbEntity
  8
Layer 1
 62
     7
370
    25
100
AcDbPolyline
 90
        2
 70
     0
 43
0.0
 10
184.224
 20
-139.9832
 10
182.7728
 20
-139.9832
  0
LWPOLYLINE
  5
146
330
1F
100
AcDbEntity
  8
Layer 1
 62
     7
370
    25
100
AcDbPolyline
 90
        2
 70
     0
 43
0.0
 10
-268.996
 20
-139.9832
 10
-270.4465
 20
-139.9832
  0
LWPOLYLINE
  5
147
330
1F
100
AcDbEntity
  8
Layer 1
 62
   250
100
AcDbPolyline
 90
        9
 70
     1
 43
0.0
 10
294.0616
 20
174.1436
 10
332.9665
 20
174.1436
 10
332.9665
 20
170.5936
 10
315.5897
 20
170.5936
 10
315.5897
 20
63.0618
 10
311.4399
 20
63.0618
 10
311.4399
 20
170.5936
 10
294.0616
 20
170.5936
 10
294.0616
 20
174.1436
  0
LWPOLYLINE
  5
148
330
1F
100
AcDbEntity
  8
Layer 1
 62
   250
100
AcDbPolyline
 90
        9
 70
     1
 43
0.0
 10
-354.5233
 20
191.1218
 10
-354.5233
 20
224.3981
 10
-350.3736
 20
224.3981
 10
-350.3736
 20
209.535
 10
-145.6487
 20
209.535
 10
-145.6487
 20
205.9855
 10
-350.3736
 20
205.9855
 10
-350.3736
 20
191.1218
 10
-354.5233
 20
191.1218
  0
LWPOLYLINE
  5
149
330
1F
100
AcDbEntity
  8
Layer 1
 62
   250
100
AcDbPolyline
 90
        9
 70
     1
 43
0.0
 10
294.0616
 20
-175.6018
 10
332.9665
 20
-175.6018
 10
332.9665
 20
-172.0524
 10
315.5897
 20
-172.0524
 10
315.5897
 20
-66.1984
 10
311.4399
 20
-66.1984
 10
311.4399
 20
-172.0524
 10
294.0616
 20
-172.0524
 10
294.0616
 20
-175.6018
  0
LWPOLYLINE
  5
14A
330
1F
100
AcDbEntity
  8
Layer 1
 62
   250
100
AcDbPolyline
 90
        9
 70
     1
 43
0.0
 10
267.7341
 20
191.1218
 10
267.7341
 20
224.3981
 10
263.5844
 20
224.3981
 10
263.5844
 20
209.535
 10
58.8595
 20
209.535
 10
58.8595
 20
205.9855
 10
263.5844
 20
205.9855
 10
263.5844
 20
191.1218
 10
267.7341
 20
191.1218
  0
LWPOLYLINE
  5
14B
330
1F
100
AcDbEntity
  8
Layer 1
 62
   250
100
AcDbPolyline
 90
       73
 70
     1
 43
0.0
 10
-94.2029
 20
213.3577
 10
-93.6393
 20
213.3355
 10
-93.0967
 20
213.2688
 10
-92.575
 20
213.1578
 10
-92.0742
 20
213.0023
 10
-91.5944
 20
212.8025
 10
-91.1355
 20
212.5582
 10
-90.6976
 20
212.2697
 10
-90.2805
 20
211.9368
 10
-89.9037
 20
211.577
 10
-89.5771
 20
211.2001
 10
-89.3008
 20
210.8062
 10
-89.0748
 20
210.3953
 10
-88.899
 20
209.9673
 10
-88.7734
 20
209.5224
 10
-88.698
 20
209.0605
 10
-88.6729
 20
208.5816
 10
-88.6983
 20
208.1136
 10
-88.7745
 20
207.6616
 10
-88.9014
 20
207.2257
 10
-89.0792
 20
206.8059
 10
-89.3077
 20
206.4021
 10
-89.5871
 20
206.0144
 10
-89.9172
 20
205.6428
 10
-90.2981
 20
205.2872
 10
-90.7073
 20
204.9684
 10
-91.1396
 20
204.6921
 10
-91.5952
 20
204.4583
 10
-92.074
 20
204.2671
 10
-92.5759
 20
204.1183
 10
-93.1009
 20
204.012
 10
-93.6491
 20
203.9483
 10
-94.2204
 20
203.927
 10
-94.781
 20
203.949
 10
-95.3227
 20
204.0148
 10
-95.8456
 20
204.1246
 10
-96.3498
 20
204.2783
 10
-96.8351
 20
204.4759
 10
-97.3017
 20
204.7174
 10
-97.7496
 20
205.0029
 10
-98.1787
 20
205.3322
 10
-98.5678
 20
205.6885
 10
-98.905
 20
206.0623
 10
-99.1904
 20
206.4537
 10
-99.4239
 20
206.8625
 10
-99.6054
 20
207.2888
 10
-99.7351
 20
207.7325
 10
-99.813
 20
208.1937
 10
-99.8389
 20
208.6723
 10
-99.813
 20
209.1485
 10
-99.7351
 20
209.6064
 10
-99.6054
 20
210.0458
 10
-99.4239
 20
210.4668
 10
-99.1904
 20
210.8694
 10
-98.905
 20
211.2536
 10
-98.5678
 20
211.6194
 10
-98.1787
 20
211.9668
 10
-97.9804
 20
212.1216
 10
-97.7744
 20
212.2683
 10
-97.5607
 20
212.4069
 10
-97.3393
 20
212.5376
 10
-97.1101
 20
212.6601
 10
-96.8733
 20
212.7746
 10
-96.6287
 20
212.881
 10
-96.3765
 20
212.9793
 10
-96.1182
 20
213.0679
 10
-95.8561
 20
213.1447
 10
-95.5902
 20
213.2098
 10
-95.3204
 20
213.263
 10
-95.0468
 20
213.3044
 10
-94.7693
 20
213.334
 10
-94.488
 20
213.3518
 10
-94.2029
 20
213.3577
  0
LWPOLYLINE
  5
14C
330
1F
100
AcDbEntity
  8
Layer 1
 62
   250
100
AcDbPolyline
 90
       69
 70
     1
 43
0.0
 10
-86.1637
 20
208.733
 10
-86.2024
 20
209.4606
 10
-86.3183
 20
210.1552
 10
-86.5116
 20
210.8168
 10
-86.7822
 20
211.4454
 10
-87.1301
 20
212.041
 10
-87.5554
 20
212.6035
 10
-88.0579
 20
213.1331
 10
-88.6378
 20
213.6297
 10
-89.2304
 20
214.0479
 10
-89.8645
 20
214.4147
 10
-90.54
 20
214.7299
 10
-91.2569
 20
214.9937
 10
-92.0153
 20
215.206
 10
-92.815
 20
215.3668
 10
-93.656
 20
215.4761
 10
-94.5384
 20
215.534
 10
-95.2455
 20
215.1406
 10
-87.8957
 20
222.697
 10
-91.1461
 20
222.697
 10
-100.5459
 20
212.995
 10
-100.9682
 20
212.5224
 10
-101.3343
 20
212.0304
 10
-101.644
 20
211.5191
 10
-101.8975
 20
210.9884
 10
-102.0946
 20
210.4384
 10
-102.2354
 20
209.8691
 10
-102.3199
 20
209.2804
 10
-102.3481
 20
208.6723
 10
-102.3111
 20
207.9716
 10
-102.2002
 20
207.2979
 10
-102.0153
 20
206.6511
 10
-101.7564
 20
206.0312
 10
-101.4235
 20
205.4382
 10
-101.0166
 20
204.8721
 10
-100.5357
 20
204.3329
 10
-99.9808
 20
203.8206
 10
-99.3696
 20
203.3496
 10
-98.7286
 20
202.9414
 10
-98.0577
 20
202.596
 10
-97.3571
 20
202.3133
 10
-96.6266
 20
202.0934
 10
-95.8663
 20
201.9363
 10
-95.0762
 20
201.842
 10
-94.2563
 20
201.8106
 10
-93.4246
 20
201.8418
 10
-92.6261
 20
201.9354
 10
-91.8607
 20
202.0913
 10
-91.1286
 20
202.3095
 10
-90.4296
 20
202.5901
 10
-89.7638
 20
202.933
 10
-89.1312
 20
203.3382
 10
-88.5318
 20
203.8056
 10
-88.2651
 20
204.0446
 10
-88.0127
 20
204.2931
 10
-87.7746
 20
204.5509
 10
-87.5509
 20
204.8183
 10
-87.3415
 20
205.095
 10
-87.1465
 20
205.3812
 10
-86.9659
 20
205.6768
 10
-86.7997
 20
205.9819
 10
-86.6506
 20
206.2959
 10
-86.5215
 20
206.6185
 10
-86.4121
 20
206.9496
 10
-86.3227
 20
207.2892
 10
-86.2531
 20
207.6373
 10
-86.2035
 20
207.994
 10
-86.1736
 20
208.3592
 10
-86.1637
 20
208.733
  0
LWPOLYLINE
  5
14D
330
1F
100
AcDbEntity
  8
Layer 1
 62
   250
100
AcDbPolyline
 90
       73
 70
     1
 43
0.0
 10
-76.2171
 20
211.4834
 10
-76.781
 20
211.5056
 10
-77.3238
 20
211.5722
 10
-77.8456
 20
211.6832
 10
-78.3464
 20
211.8385
 10
-78.8262
 20
212.0383
 10
-79.2849
 20
212.2826
 10
-79.7227
 20
212.5712
 10
-80.1395
 20
212.9043
 10
-80.5163
 20
213.2641
 10
-80.8429
 20
213.6409
 10
-81.1192
 20
214.0347
 10
-81.3453
 20
214.4456
 10
-81.5211
 20
214.8735
 10
-81.6467
 20
215.3184
 10
-81.7221
 20
215.7804
 10
-81.7472
 20
216.2595
 10
-81.7218
 20
216.7273
 10
-81.6456
 20
217.1792
 10
-81.5186
 20
217.6151
 10
-81.3409
 20
218.035
 10
-81.1123
 20
218.4388
 10
-80.833
 20
218.8266
 10
-80.5029
 20
219.1983
 10
-80.122
 20
219.5539
 10
-79.7129
 20
219.8727
 10
-79.2806
 20
220.149
 10
-78.8251
 20
220.3828
 10
-78.3464
 20
220.5741
 10
-77.8445
 20
220.7228
 10
-77.3195
 20
220.8291
 10
-76.7711
 20
220.8928
 10
-76.1996
 20
220.9141
 10
-75.6393
 20
220.8921
 10
-75.0976
 20
220.8263
 10
-74.5748
 20
220.7165
 10
-74.0706
 20
220.5627
 10
-73.5853
 20
220.365
 10
-73.1188
 20
220.1234
 10
-72.6711
 20
219.8378
 10
-72.2422
 20
219.5082
 10
-71.8528
 20
219.1519
 10
-71.5153
 20
218.7782
 10
-71.2298
 20
218.3869
 10
-70.9963
 20
217.9783
 10
-70.8146
 20
217.5521
 10
-70.6849
 20
217.1085
 10
-70.607
 20
216.6474
 10
-70.5811
 20
216.1688
 10
-70.6073
 20
215.704
 10
-70.686
 20
215.2544
 10
-70.8171
 20
214.8199
 10
-71.0007
 20
214.4005
 10
-71.2367
 20
213.9961
 10
-71.5252
 20
213.6069
 10
-71.8662
 20
213.2327
 10
-72.2597
 20
212.8736
 10
-72.4538
 20
212.7191
 10
-72.6562
 20
212.5725
 10
-72.8668
 20
212.434
 10
-73.0857
 20
212.3034
 10
-73.3129
 20
212.1808
 10
-73.5484
 20
212.0662
 10
-73.7922
 20
211.9596
 10
-74.0444
 20
211.8611
 10
-74.3024
 20
211.7725
 10
-74.5643
 20
211.6958
 10
-74.8301
 20
211.6309
 10
-75.0998
 20
211.5778
 10
-75.3733
 20
211.5365
 10
-75.6507
 20
211.507
 10
-75.932
 20
211.4893
 10
-76.2171
 20
211.4834
  0
LWPOLYLINE
  5
14E
330
1F
100
AcDbEntity
  8
Layer 1
 62
   250
100
AcDbPolyline
 90
       69
 70
     1
 43
0.0
 10
-84.2563
 20
216.1081
 10
-84.2176
 20
215.3803
 10
-84.1017
 20
214.6855
 10
-83.9084
 20
214.0238
 10
-83.6379
 20
213.3952
 10
-83.2901
 20
212.7996
 10
-82.865
 20
212.2372
 10
-82.3627
 20
211.7077
 10
-81.7831
 20
211.2114
 10
-81.1902
 20
210.7932
 10
-80.556
 20
210.4264
 10
-79.8805
 20
210.1112
 10
-79.1635
 20
209.8474
 10
-78.4052
 20
209.6351
 10
-77.6054
 20
209.4743
 10
-76.7642
 20
209.365
 10
-75.8816
 20
209.3071
 10
-75.1746
 20
209.6998
 10
-82.5251
 20
202.1434
 10
-79.2739
 20
202.1434
 10
-69.8741
 20
211.8461
 10
-69.4518
 20
212.3185
 10
-69.0858
 20
212.8103
 10
-68.776
 20
213.3215
 10
-68.5226
 20
213.8522
 10
-68.3254
 20
214.4022
 10
-68.1846
 20
214.9716
 10
-68.1001
 20
215.5605
 10
-68.0719
 20
216.1688
 10
-68.1089
 20
216.8692
 10
-68.22
 20
217.5428
 10
-68.405
 20
218.1895
 10
-68.6641
 20
218.8093
 10
-68.9971
 20
219.4023
 10
-69.4041
 20
219.9683
 10
-69.8851
 20
220.5075
 10
-70.44
 20
221.0198
 10
-71.0512
 20
221.491
 10
-71.6923
 20
221.8993
 10
-72.3631
 20
222.2447
 10
-73.0638
 20
222.5274
 10
-73.7943
 20
222.7472
 10
-74.5546
 20
222.9042
 10
-75.3447
 20
222.9984
 10
-76.1646
 20
223.0298
 10
-76.996
 20
222.9986
 10
-77.7943
 20
222.9051
 10
-78.5595
 20
222.7493
 10
-79.2916
 20
222.5311
 10
-79.9907
 20
222.2506
 10
-80.6566
 20
221.9077
 10
-81.2894
 20
221.5024
 10
-81.8891
 20
221.0348
 10
-82.1558
 20
220.7958
 10
-82.4081
 20
220.5473
 10
-82.646
 20
220.2895
 10
-82.8696
 20
220.0221
 10
-83.0788
 20
219.7454
 10
-83.2736
 20
219.4592
 10
-83.4541
 20
219.1636
 10
-83.6203
 20
218.8585
 10
-83.7694
 20
218.5445
 10
-83.8986
 20
218.2219
 10
-84.0079
 20
217.8909
 10
-84.0973
 20
217.5513
 10
-84.1669
 20
217.2033
 10
-84.2166
 20
216.8467
 10
-84.2464
 20
216.4817
 10
-84.2563
 20
216.1081
  0
LWPOLYLINE
  5
14F
330
1F
100
AcDbEntity
  8
Layer 1
 62
   250
100
AcDbPolyline
 90
      125
 70
     1
 43
0.0
 10
-55.299
 20
220.3094
 10
-54.8909
 20
220.0724
 10
-54.5104
 20
219.8032
 10
-54.1575
 20
219.5019
 10
-53.8322
 20
219.1684
 10
-53.5346
 20
218.8028
 10
-53.2646
 20
218.405
 10
-53.0222
 20
217.9752
 10
-52.8074
 20
217.5133
 10
-52.5673
 20
216.9005
 10
-52.3592
 20
216.2788
 10
-52.183
 20
215.6481
 10
-52.0388
 20
215.0085
 10
-51.9266
 20
214.3599
 10
-51.8465
 20
213.7023
 10
-51.7983
 20
213.0358
 10
-51.7823
 20
212.3602
 10
-51.789
 20
212.0285
 10
-51.809
 20
211.6684
 10
-51.8422
 20
211.2801
 10
-51.8883
 20
210.8636
 10
-52.011
 20
210.0511
 10
-52.1712
 20
209.2835
 10
-52.3689
 20
208.5606
 10
-52.6041
 20
207.8826
 10
-52.8769
 20
207.2494
 10
-53.1873
 20
206.6611
 10
-53.5353
 20
206.1177
 10
-53.9209
 20
205.6192
 10
-54.2724
 20
205.2439
 10
-54.6428
 20
204.9186
 10
-55.0321
 20
204.6434
 10
-55.4401
 20
204.4181
 10
-55.8669
 20
204.243
 10
-56.3125
 20
204.1178
 10
-56.7768
 20
204.0427
 10
-57.2598
 20
204.0177
 10
-57.799
 20
204.0425
 10
-58.3122
 20
204.1168
 10
-58.7994
 20
204.2407
 10
-59.2607
 20
204.4141
 10
-59.6961
 20
204.6372
 10
-60.1055
 20
204.9099
 10
-60.489
 20
205.2322
 10
-60.8466
 20
205.6042
 10
-60.9979
 20
205.7846
 10
-61.1425
 20
205.9706
 10
-61.2806
 20
206.1624
 10
-61.412
 20
206.3598
 10
-61.5368
 20
206.563
 10
-61.655
 20
206.7718
 10
-61.7666
 20
206.9863
 10
-61.8716
 20
207.2065
 10
-61.97
 20
207.43
 10
-62.0624
 20
207.6549
 10
-62.1487
 20
207.8814
 10
-62.229
 20
208.1092
 10
-62.3032
 20
208.3385
 10
-62.3713
 20
208.5693
 10
-62.4333
 20
208.8014
 10
-62.4893
 20
209.035
 10
-62.5406
 20
209.2683
 10
-62.5879
 20
209.4997
 10
-62.6313
 20
209.7292
 10
-62.6709
 20
209.9568
 10
-62.7065
 20
210.1826
 10
-62.7382
 20
210.4064
 10
-62.7659
 20
210.6284
 10
-62.7898
 20
210.8486
 10
-62.8106
 20
211.0719
 10
-62.8286
 20
211.3037
 10
-62.8439
 20
211.5439
 10
-62.8563
 20
211.7925
 10
-62.8659
 20
212.0493
 10
-62.8728
 20
212.3143
 10
-62.8769
 20
212.5874
 10
-62.8783
 20
212.8686
 10
-62.8722
 20
213.1625
 10
-62.854
 20
213.4734
 10
-62.8237
 20
213.8014
 10
-62.7812
 20
214.1465
 10
-62.7265
 20
214.5088
 10
-62.6596
 20
214.8884
 10
-62.5805
 20
215.2854
 10
-62.4893
 20
215.6997
 10
-62.4336
 20
215.93
 10
-62.3724
 20
216.1598
 10
-62.3056
 20
216.3891
 10
-62.2333
 20
216.618
 10
-62.1555
 20
216.8463
 10
-62.0722
 20
217.0742
 10
-61.9834
 20
217.3015
 10
-61.8891
 20
217.5283
 10
-61.7882
 20
217.7522
 10
-61.6802
 20
217.9705
 10
-61.565
 20
218.183
 10
-61.4427
 20
218.3899
 10
-61.3132
 20
218.5911
 10
-61.1765
 20
218.7866
 10
-61.0326
 20
218.9764
 10
-60.8816
 20
219.1605
 10
-60.7231
 20
219.3375
 10
-60.557
 20
219.5055
 10
-60.3831
 20
219.6645
 10
-60.2015
 20
219.8145
 10
-60.0122
 20
219.9554
 10
-59.8151
 20
220.0874
 10
-59.6102
 20
220.2104
 10
-59.3975
 20
220.3244
 10
-59.1762
 20
220.4273
 10
-58.9449
 20
220.5164
 10
-58.7036
 20
220.5917
 10
-58.4524
 20
220.6534
 10
-58.1912
 20
220.7013
 10
-57.9202
 20
220.7355
 10
-57.6392
 20
220.756
 10
-57.3483
 20
220.7628
 10
-57.0572
 20
220.7557
 10
-56.7761
 20
220.7344
 10
-56.5049
 20
220.699
 10
-56.2438
 20
220.6494
 10
-55.9927
 20
220.5856
 10
-55.7515
 20
220.5077
 10
-55.5203
 20
220.4156
 10
-55.299
 20
220.3094
  0
LWPOLYLINE
  5
150
330
1F
100
AcDbEntity
  8
Layer 1
 62
   250
100
AcDbPolyline
 90
       65
 70
     1
 43
0.0
 10
-57.2247
 20
201.8713
 10
-56.193
 20
201.9273
 10
-55.227
 20
202.0952
 10
-54.3267
 20
202.375
 10
-53.4921
 20
202.7667
 10
-52.7233
 20
203.2704
 10
-52.0201
 20
203.8859
 10
-51.3826
 20
204.6134
 10
-50.8107
 20
205.4528
 10
-50.4092
 20
206.1854
 10
-50.0612
 20
206.9585
 10
-49.7667
 20
207.7724
 10
-49.5256
 20
208.6268
 10
-49.3381
 20
209.5219
 10
-49.2042
 20
210.4576
 10
-49.1238
 20
211.4339
 10
-49.097
 20
212.4509
 10
-49.1238
 20
213.4676
 10
-49.2042
 20
214.4438
 10
-49.3381
 20
215.3794
 10
-49.5256
 20
216.2744
 10
-49.7667
 20
217.1288
 10
-50.0612
 20
217.9426
 10
-50.4092
 20
218.7157
 10
-50.8107
 20
219.4483
 10
-51.3826
 20
220.2877
 10
-52.0201
 20
221.0152
 10
-52.7233
 20
221.6307
 10
-53.4921
 20
222.1344
 10
-54.3267
 20
222.5261
 10
-55.227
 20
222.8059
 10
-56.193
 20
222.9738
 10
-57.2247
 20
223.0298
 10
-58.2564
 20
222.9738
 10
-59.2224
 20
222.8059
 10
-60.1226
 20
222.5261
 10
-60.9572
 20
222.1344
 10
-61.7259
 20
221.6307
 10
-62.429
 20
221.0152
 10
-63.0663
 20
220.2877
 10
-63.6379
 20
219.4483
 10
-64.0396
 20
218.7157
 10
-64.3877
 20
217.9426
 10
-64.6823
 20
217.1288
 10
-64.9233
 20
216.2744
 10
-65.1107
 20
215.3794
 10
-65.2445
 20
214.4438
 10
-65.3248
 20
213.4676
 10
-65.3516
 20
212.4509
 10
-65.3248
 20
211.4339
 10
-65.2445
 20
210.4576
 10
-65.1107
 20
209.5219
 10
-64.9233
 20
208.6268
 10
-64.6823
 20
207.7724
 10
-64.3877
 20
206.9585
 10
-64.0396
 20
206.1854
 10
-63.6379
 20
205.4528
 10
-63.0663
 20
204.6134
 10
-62.429
 20
203.8859
 10
-61.7259
 20
203.2704
 10
-60.9572
 20
202.7667
 10
-60.1226
 20
202.375
 10
-59.2224
 20
202.0952
 10
-58.2564
 20
201.9273
 10
-57.2247
 20
201.8713
  0
LWPOLYLINE
  5
151
330
1F
100
AcDbEntity
  8
Layer 1
 62
   250
100
AcDbPolyline
 90
      165
 70
     1
 43
0.0
 10
-24.9627
 20
202.2041
 10
-22.4895
 20
202.2041
 10
-22.4895
 20
210.5159
 10
-22.5096
 20
211.0679
 10
-22.5701
 20
211.5938
 10
-22.6708
 20
212.0937
 10
-22.8119
 20
212.5676
 10
-22.9932
 20
213.0156
 10
-23.2149
 20
213.4376
 10
-23.4768
 20
213.8337
 10
-23.7791
 20
214.2038
 10
-23.9477
 20
214.3806
 10
-24.1269
 20
214.5484
 10
-24.3165
 20
214.7073
 10
-24.5167
 20
214.8572
 10
-24.7274
 20
214.9982
 10
-24.9486
 20
215.1303
 10
-25.1804
 20
215.2535
 10
-25.4227
 20
215.3677
 10
-25.6799
 20
215.4704
 10
-25.957
 20
215.5594
 10
-26.254
 20
215.6347
 10
-26.5708
 20
215.6964
 10
-26.9075
 20
215.7444
 10
-27.2641
 20
215.7787
 10
-27.6406
 20
215.7992
 10
-28.037
 20
215.8061
 10
-28.437
 20
215.7943
 10
-28.8243
 20
215.7588
 10
-29.1989
 20
215.6998
 10
-29.5608
 20
215.617
 10
-29.91
 20
215.5107
 10
-30.2466
 20
215.3807
 10
-30.5705
 20
215.2271
 10
-30.8817
 20
215.0499
 10
-31.1517
 20
214.8733
 10
-31.4096
 20
214.6836
 10
-31.6554
 20
214.481
 10
-31.8889
 20
214.2655
 10
-32.1103
 20
214.0372
 10
-32.3195
 20
213.7963
 10
-32.5166
 20
213.5429
 10
-32.7014
 20
213.277
 10
-32.8451
 20
213.5222
 10
-33.0019
 20
213.7592
 10
-33.1719
 20
213.9867
 10
-33.355
 20
214.2038
 10
-33.5237
 20
214.3806
 10
-33.7029
 20
214.5484
 10
-33.8927
 20
214.7073
 10
-34.093
 20
214.8572
 10
-34.3037
 20
214.9982
 10
-34.5249
 20
215.1303
 10
-34.7565
 20
215.2535
 10
-34.9986
 20
215.3677
 10
-35.2558
 20
215.4704
 10
-35.5329
 20
215.5594
 10
-35.8299
 20
215.6347
 10
-36.1468
 20
215.6964
 10
-36.4835
 20
215.7444
 10
-36.8401
 20
215.7787
 10
-37.2166
 20
215.7992
 10
-37.6129
 20
215.8061
 10
-38.0131
 20
215.7943
 10
-38.4006
 20
215.7588
 10
-38.7754
 20
215.6998
 10
-39.1373
 20
215.617
 10
-39.4866
 20
215.5107
 10
-39.823
 20
215.3807
 10
-40.1467
 20
215.2271
 10
-40.4577
 20
215.0499
 10
-40.7151
 20
214.8817
 10
-40.9613
 20
214.7021
 10
-41.1966
 20
214.5111
 10
-41.4207
 20
214.3087
 10
-41.6339
 20
214.0946
 10
-41.836
 20
213.869
 10
-42.0271
 20
213.6317
 10
-42.2072
 20
213.3827
 10
-42.2072
 20
215.5033
 10
-44.6805
 20
215.5033
 10
-44.6805
 20
202.2041
 10
-42.2072
 20
202.2041
 10
-42.2072
 20
209.0101
 10
-42.1496
 20
209.4066
 10
-42.0743
 20
209.7877
 10
-41.9815
 20
210.1533
 10
-41.8711
 20
210.5038
 10
-41.743
 20
210.8391
 10
-41.5973
 20
211.1594
 10
-41.4341
 20
211.4648
 10
-41.2532
 20
211.7555
 10
-41.1056
 20
211.9623
 10
-40.946
 20
212.1596
 10
-40.7741
 20
212.3476
 10
-40.5902
 20
212.526
 10
-40.3941
 20
212.6951
 10
-40.1859
 20
212.8547
 10
-39.9656
 20
213.0049
 10
-39.7331
 20
213.1456
 10
-39.4924
 20
213.2731
 10
-39.2473
 20
213.3837
 10
-38.9978
 20
213.4772
 10
-38.7439
 20
213.5537
 10
-38.4856
 20
213.6132
 10
-38.2228
 20
213.6557
 10
-37.9556
 20
213.6812
 10
-37.6839
 20
213.6897
 10
-37.4188
 20
213.6852
 10
-37.1715
 20
213.6718
 10
-36.9418
 20
213.6493
 10
-36.7298
 20
213.6179
 10
-36.5355
 20
213.5776
 10
-36.3589
 20
213.5282
 10
-36.2
 20
213.47
 10
-36.0587
 20
213.4027
 10
-35.7024
 20
213.1774
 10
-35.3937
 20
212.9134
 10
-35.1324
 20
212.6106
 10
-34.9187
 20
212.2691
 10
-34.7524
 20
211.8889
 10
-34.6337
 20
211.4699
 10
-34.5624
 20
211.0123
 10
-34.5387
 20
210.5159
 10
-34.5387
 20
202.2041
 10
-32.0654
 20
202.2041
 10
-32.0654
 20
210.5159
 10
-32.0829
 20
211.025
 10
-31.9913
 20
211.2178
 10
-31.8931
 20
211.4034
 10
-31.7882
 20
211.5824
 10
-31.6764
 20
211.7555
 10
-31.5291
 20
211.9623
 10
-31.3696
 20
212.1596
 10
-31.198
 20
212.3476
 10
-31.0142
 20
212.526
 10
-30.8181
 20
212.6951
 10
-30.61
 20
212.8547
 10
-30.3897
 20
213.0049
 10
-30.1572
 20
213.1456
 10
-29.9165
 20
213.2731
 10
-29.6714
 20
213.3837
 10
-29.4219
 20
213.4772
 10
-29.168
 20
213.5537
 10
-28.9096
 20
213.6132
 10
-28.6468
 20
213.6557
 10
-28.3796
 20
213.6812
 10
-28.108
 20
213.6897
 10
-27.8429
 20
213.6852
 10
-27.5956
 20
213.6718
 10
-27.3659
 20
213.6493
 10
-27.1539
 20
213.6179
 10
-26.9596
 20
213.5776
 10
-26.783
 20
213.5282
 10
-26.6241
 20
213.47
 10
-26.4828
 20
213.4027
 10
-26.1265
 20
213.1774
 10
-25.8178
 20
212.9134
 10
-25.5565
 20
212.6106
 10
-25.3427
 20
212.2691
 10
-25.1765
 20
211.8889
 10
-25.0577
 20
211.4699
 10
-24.9865
 20
211.0123
 10
-24.9627
 20
210.5159
 10
-24.9627
 20
202.2041
  0
LWPOLYLINE
  5
152
330
1F
100
AcDbEntity
  8
Layer 1
 62
   250
100
AcDbPolyline
 90
      165
 70
     1
 43
0.0
 10
1.9988
 20
202.2041
 10
4.472
 20
202.2041
 10
4.472
 20
210.5159
 10
4.4519
 20
211.0679
 10
4.3914
 20
211.5938
 10
4.2907
 20
212.0937
 10
4.1496
 20
212.5676
 10
3.9683
 20
213.0156
 10
3.7466
 20
213.4376
 10
3.4847
 20
213.8337
 10
3.1824
 20
214.2038
 10
3.0138
 20
214.3806
 10
2.8346
 20
214.5484
 10
2.645
 20
214.7073
 10
2.4448
 20
214.8572
 10
2.2341
 20
214.9982
 10
2.0129
 20
215.1303
 10
1.7811
 20
215.2535
 10
1.5388
 20
215.3677
 10
1.2816
 20
215.4704
 10
1.0045
 20
215.5594
 10
0.7075
 20
215.6347
 10
0.3907
 20
215.6964
 10
0.054
 20
215.7444
 10
-0.3026
 20
215.7787
 10
-0.6791
 20
215.7992
 10
-1.0755
 20
215.8061
 10
-1.4755
 20
215.7943
 10
-1.8628
 20
215.7588
 10
-2.2374
 20
215.6998
 10
-2.5993
 20
215.617
 10
-2.9485
 20
215.5107
 10
-3.2851
 20
215.3807
 10
-3.609
 20
215.2271
 10
-3.9202
 20
215.0499
 10
-4.1902
 20
214.8733
 10
-4.4481
 20
214.6836
 10
-4.6939
 20
214.481
 10
-4.9274
 20
214.2655
 10
-5.1488
 20
214.0372
 10
-5.358
 20
213.7963
 10
-5.5551
 20
213.5429
 10
-5.7399
 20
213.277
 10
-5.8836
 20
213.5222
 10
-6.0404
 20
213.7592
 10
-6.2104
 20
213.9867
 10
-6.3935
 20
214.2038
 10
-6.5622
 20
214.3806
 10
-6.7414
 20
214.5484
 10
-6.9311
 20
214.7073
 10
-7.1314
 20
214.8572
 10
-7.3422
 20
214.9982
 10
-7.5634
 20
215.1303
 10
-7.795
 20
215.2535
 10
-8.0371
 20
215.3677
 10
-8.2943
 20
215.4704
 10
-8.5714
 20
215.5594
 10
-8.8684
 20
215.6347
 10
-9.1853
 20
215.6964
 10
-9.522
 20
215.7444
 10
-9.8786
 20
215.7787
 10
-10.2551
 20
215.7992
 10
-10.6514
 20
215.8061
 10
-11.0516
 20
215.7943
 10
-11.4391
 20
215.7588
 10
-11.8139
 20
215.6998
 10
-12.1758
 20
215.617
 10
-12.5251
 20
215.5107
 10
-12.8615
 20
215.3807
 10
-13.1852
 20
215.2271
 10
-13.4962
 20
215.0499
 10
-13.7536
 20
214.8817
 10
-13.9998
 20
214.7021
 10
-14.2351
 20
214.5111
 10
-14.4592
 20
214.3087
 10
-14.6724
 20
214.0946
 10
-14.8745
 20
213.869
 10
-15.0656
 20
213.6317
 10
-15.2457
 20
213.3827
 10
-15.2457
 20
215.5033
 10
-17.719
 20
215.5033
 10
-17.719
 20
202.2041
 10
-15.2457
 20
202.2041
 10
-15.2457
 20
209.0101
 10
-15.1881
 20
209.4066
 10
-15.1128
 20
209.7877
 10
-15.02
 20
210.1533
 10
-14.9096
 20
210.5038
 10
-14.7815
 20
210.8391
 10
-14.6358
 20
211.1594
 10
-14.4726
 20
211.4648
 10
-14.2917
 20
211.7555
 10
-14.1441
 20
211.9623
 10
-13.9845
 20
212.1596
 10
-13.8126
 20
212.3476
 10
-13.6287
 20
212.526
 10
-13.4326
 20
212.6951
 10
-13.2244
 20
212.8547
 10
-13.0041
 20
213.0049
 10
-12.7716
 20
213.1456
 10
-12.5309
 20
213.2731
 10
-12.2858
 20
213.3837
 10
-12.0363
 20
213.4772
 10
-11.7824
 20
213.5537
 10
-11.5241
 20
213.6132
 10
-11.2613
 20
213.6557
 10
-10.9941
 20
213.6812
 10
-10.7224
 20
213.6897
 10
-10.4573
 20
213.6852
 10
-10.21
 20
213.6718
 10
-9.9803
 20
213.6493
 10
-9.7683
 20
213.6179
 10
-9.574
 20
213.5776
 10
-9.3974
 20
213.5282
 10
-9.2385
 20
213.47
 10
-9.0972
 20
213.4027
 10
-8.7409
 20
213.1774
 10
-8.4322
 20
212.9134
 10
-8.1709
 20
212.6106
 10
-7.9572
 20
212.2691
 10
-7.7909
 20
211.8889
 10
-7.6722
 20
211.4699
 10
-7.6009
 20
211.0123
 10
-7.5772
 20
210.5159
 10
-7.5772
 20
202.2041
 10
-5.1039
 20
202.2041
 10
-5.1039
 20
210.5159
 10
-5.1214
 20
211.025
 10
-5.0298
 20
211.2178
 10
-4.9316
 20
211.4034
 10
-4.8267
 20
211.5824
 10
-4.7149
 20
211.7555
 10
-4.5676
 20
211.9623
 10
-4.4081
 20
212.1596
 10
-4.2365
 20
212.3476
 10
-4.0527
 20
212.526
 10
-3.8566
 20
212.6951
 10
-3.6485
 20
212.8547
 10
-3.4282
 20
213.0049
 10
-3.1957
 20
213.1456
 10
-2.955
 20
213.2731
 10
-2.7099
 20
213.3837
 10
-2.4603
 20
213.4772
 10
-2.2064
 20
213.5537
 10
-1.9481
 20
213.6132
 10
-1.6853
 20
213.6557
 10
-1.4181
 20
213.6812
 10
-1.1465
 20
213.6897
 10
-0.8814
 20
213.6852
 10
-0.6341
 20
213.6718
 10
-0.4044
 20
213.6493
 10
-0.1924
 20
213.6179
 10
0.0019
 20
213.5776
 10
0.1786
 20
213.5282
 10
0.3375
 20
213.47
 10
0.4787
 20
213.4027
 10
0.835
 20
213.1774
 10
1.1437
 20
212.9134
 10
1.405
 20
212.6106
 10
1.6188
 20
212.2691
 10
1.785
 20
211.8889
 10
1.9038
 20
211.4699
 10
1.975
 20
211.0123
 10
1.9988
 20
210.5159
 10
1.9988
 20
202.2041
  0
LWPOLYLINE
  5
153
330
1F
100
AcDbEntity
  8
Layer 1
 62
   250
100
AcDbPolyline
 90
        4
 70
     1
 43
0.0
 10
322.8081
 20
34.5273
 10
308.9209
 20
34.5273
 10
308.9209
 20
42.3865
 10
322.8081
 20
34.5273
  0
LWPOLYLINE
  5
154
330
1F
100
AcDbEntity
  8
Layer 1
 62
   250
100
AcDbPolyline
 90
       11
 70
     1
 43
0.0
 10
306.3766
 20
32.321
 10
306.3766
 20
29.7213
 10
308.9209
 20
29.7213
 10
308.9209
 20
32.321
 10
325.4934
 20
32.351
 10
325.4934
 20
35.3134
 10
306.3766
 20
46.1344
 10
306.3766
 20
34.5273
 10
301.4651
 20
34.5273
 10
301.4651
 20
32.321
 10
306.3766
 20
32.321
  0
LWPOLYLINE
  5
155
330
1F
100
AcDbEntity
  8
Layer 1
 62
   250
100
AcDbPolyline
 90
      129
 70
     1
 43
0.0
 10
322.7021
 20
18.1906
 10
322.4251
 20
17.8415
 10
322.1104
 20
17.516
 10
321.7581
 20
17.2141
 10
321.3682
 20
16.9359
 10
320.9408
 20
16.6813
 10
320.4758
 20
16.4504
 10
319.9733
 20
16.243
 10
319.4333
 20
16.0593
 10
318.7169
 20
15.8539
 10
317.9901
 20
15.6759
 10
317.2529
 20
15.5252
 10
316.5052
 20
15.4019
 10
315.747
 20
15.3059
 10
314.9782
 20
15.2374
 10
314.199
 20
15.1962
 10
313.4092
 20
15.1825
 10
313.2194
 20
15.1839
 10
313.0214
 20
15.1882
 10
312.815
 20
15.1954
 10
312.6004
 20
15.2054
 10
312.3776
 20
15.2181
 10
312.1465
 20
15.2337
 10
311.9072
 20
15.2521
 10
311.6596
 20
15.2732
 10
310.7098
 20
15.3781
 10
309.8123
 20
15.5151
 10
308.9673
 20
15.6842
 10
308.1746
 20
15.8854
 10
307.4344
 20
16.1188
 10
306.7467
 20
16.3843
 10
306.1114
 20
16.682
 10
305.5286
 20
17.0118
 10
305.0898
 20
17.3125
 10
304.7096
 20
17.6293
 10
304.3878
 20
17.9623
 10
304.1245
 20
18.3113
 10
303.9196
 20
18.6764
 10
303.7733
 20
19.0575
 10
303.6856
 20
19.4546
 10
303.6563
 20
19.8678
 10
303.6853
 20
20.329
 10
303.7721
 20
20.768
 10
303.917
 20
21.1848
 10
304.1198
 20
21.5794
 10
304.3806
 20
21.9518
 10
304.6993
 20
22.302
 10
305.0762
 20
22.6301
 10
305.511
 20
22.936
 10
305.7219
 20
23.0654
 10
305.9394
 20
23.1892
 10
306.1635
 20
23.3072
 10
306.3943
 20
23.4196
 10
306.6318
 20
23.5264
 10
306.8759
 20
23.6275
 10
307.1267
 20
23.723
 10
307.3841
 20
23.8128
 10
307.6454
 20
23.897
 10
307.9084
 20
23.976
 10
308.1731
 20
24.0498
 10
308.4395
 20
24.1185
 10
308.7076
 20
24.182
 10
308.9774
 20
24.2402
 10
309.2488
 20
24.2933
 10
309.5219
 20
24.3412
 10
309.7946
 20
24.385
 10
310.0651
 20
24.4255
 10
310.3334
 20
24.4626
 10
310.5995
 20
24.4964
 10
310.8634
 20
24.5269
 10
311.1251
 20
24.554
 10
311.3847
 20
24.5778
 10
311.6421
 20
24.5982
 10
311.9031
 20
24.616
 10
312.1741
 20
24.6314
 10
312.4549
 20
24.6444
 10
312.7455
 20
24.6551
 10
313.0457
 20
24.6633
 10
313.3555
 20
24.6692
 10
313.6748
 20
24.6727
 10
314.0035
 20
24.6739
 10
314.3471
 20
24.6687
 10
314.7106
 20
24.6531
 10
315.094
 20
24.6272
 10
315.4974
 20
24.5908
 10
315.921
 20
24.544
 10
316.3648
 20
24.4868
 10
316.8288
 20
24.4192
 10
317.3132
 20
24.3412
 10
317.5824
 20
24.2936
 10
317.8511
 20
24.2412
 10
318.1192
 20
24.1841
 10
318.3867
 20
24.1222
 10
318.6537
 20
24.0557
 10
318.92
 20
23.9844
 10
319.1858
 20
23.9084
 10
319.4509
 20
23.8278
 10
319.7127
 20
23.7415
 10
319.9678
 20
23.649
 10
320.2163
 20
23.5505
 10
320.4582
 20
23.4459
 10
320.6933
 20
23.3351
 10
320.9219
 20
23.2182
 10
321.1438
 20
23.0952
 10
321.359
 20
22.966
 10
321.566
 20
22.8304
 10
321.7624
 20
22.6883
 10
321.9482
 20
22.5395
 10
322.1235
 20
22.3842
 10
322.2883
 20
22.2222
 10
322.4426
 20
22.0536
 10
322.5863
 20
21.8783
 10
322.7196
 20
21.6964
 10
322.8399
 20
21.5071
 10
322.9441
 20
21.3093
 10
323.0322
 20
21.1029
 10
323.1043
 20
20.888
 10
323.1603
 20
20.6646
 10
323.2002
 20
20.4327
 10
323.2242
 20
20.1923
 10
323.2322
 20
19.9435
 10
323.2239
 20
19.6945
 10
323.199
 20
19.4541
 10
323.1576
 20
19.2222
 10
323.0996
 20
18.9988
 10
323.025
 20
18.784
 10
322.9339
 20
18.5777
 10
322.8263
 20
18.3799
 10
322.7021
 20
18.1906
  0
LWPOLYLINE
  5
156
330
1F
100
AcDbEntity
  8
Layer 1
 62
   250
100
AcDbPolyline
 90
       65
 70
     1
 43
0.0
 10
301.1471
 20
19.8379
 10
301.2125
 20
18.9554
 10
301.4088
 20
18.1291
 10
301.7359
 20
17.359
 10
302.1939
 20
16.6451
 10
302.7827
 20
15.9874
 10
303.5023
 20
15.3859
 10
304.3528
 20
14.8405
 10
305.3341
 20
14.3514
 10
306.1905
 20
14.008
 10
307.0943
 20
13.7103
 10
308.0457
 20
13.4583
 10
309.0446
 20
13.2522
 10
310.091
 20
13.0918
 10
311.1849
 20
12.9772
 10
312.3263
 20
12.9084
 10
313.5152
 20
12.8855
 10
314.7038
 20
12.9084
 10
315.845
 20
12.9772
 10
316.9387
 20
13.0918
 10
317.985
 20
13.2522
 10
318.9838
 20
13.4583
 10
319.9352
 20
13.7103
 10
320.839
 20
14.008
 10
321.6954
 20
14.3514
 10
322.6767
 20
14.8405
 10
323.5272
 20
15.3859
 10
324.2468
 20
15.9874
 10
324.8356
 20
16.6451
 10
325.2936
 20
17.359
 10
325.6207
 20
18.1291
 10
325.817
 20
18.9554
 10
325.8824
 20
19.8379
 10
325.817
 20
20.7204
 10
325.6207
 20
21.5467
 10
325.2936
 20
22.3167
 10
324.8356
 20
23.0306
 10
324.2468
 20
23.6882
 10
323.5272
 20
24.2895
 10
322.6767
 20
24.8347
 10
321.6954
 20
25.3236
 10
320.839
 20
25.6672
 10
319.9352
 20
25.965
 10
318.9838
 20
26.217
 10
317.985
 20
26.4231
 10
316.9387
 20
26.5834
 10
315.845
 20
26.6979
 10
314.7038
 20
26.7666
 10
313.5152
 20
26.7895
 10
312.3263
 20
26.7666
 10
311.1849
 20
26.6979
 10
310.091
 20
26.5834
 10
309.0446
 20
26.4231
 10
308.0457
 20
26.217
 10
307.0943
 20
25.965
 10
306.1905
 20
25.6672
 10
305.3341
 20
25.3236
 10
304.3528
 20
24.8347
 10
303.5023
 20
24.2895
 10
302.7827
 20
23.6882
 10
302.1939
 20
23.0306
 10
301.7359
 20
22.3167
 10
301.4088
 20
21.5467
 10
301.2125
 20
20.7204
 10
301.1471
 20
19.8379
  0
LWPOLYLINE
  5
157
330
1F
100
AcDbEntity
  8
Layer 1
 62
   250
100
AcDbPolyline
 90
      129
 70
     1
 43
0.0
 10
322.7021
 20
1.2642
 10
322.4251
 20
0.9151
 10
322.1104
 20
0.5896
 10
321.7581
 20
0.2877
 10
321.3682
 20
0.0095
 10
320.9408
 20
-0.2452
 10
320.4758
 20
-0.4761
 10
319.9733
 20
-0.6835
 10
319.4333
 20
-0.8672
 10
318.7169
 20
-1.0726
 10
317.9901
 20
-1.2506
 10
317.2529
 20
-1.4013
 10
316.5052
 20
-1.5246
 10
315.747
 20
-1.6206
 10
314.9782
 20
-1.6891
 10
314.199
 20
-1.7303
 10
313.4092
 20
-1.744
 10
313.2194
 20
-1.7426
 10
313.0214
 20
-1.7383
 10
312.815
 20
-1.7311
 10
312.6004
 20
-1.7212
 10
312.3776
 20
-1.7084
 10
312.1465
 20
-1.6928
 10
311.9072
 20
-1.6744
 10
311.6596
 20
-1.6533
 10
310.7098
 20
-1.5484
 10
309.8123
 20
-1.4114
 10
308.9673
 20
-1.2423
 10
308.1746
 20
-1.0411
 10
307.4344
 20
-0.8077
 10
306.7467
 20
-0.5422
 10
306.1114
 20
-0.2445
 10
305.5286
 20
0.0853
 10
305.0898
 20
0.386
 10
304.7096
 20
0.7028
 10
304.3878
 20
1.0358
 10
304.1245
 20
1.3848
 10
303.9196
 20
1.7499
 10
303.7733
 20
2.131
 10
303.6856
 20
2.5282
 10
303.6563
 20
2.9414
 10
303.6853
 20
3.4026
 10
303.7721
 20
3.8416
 10
303.917
 20
4.2584
 10
304.1198
 20
4.653
 10
304.3806
 20
5.0254
 10
304.6993
 20
5.3756
 10
305.0762
 20
5.7036
 10
305.511
 20
6.0095
 10
305.7219
 20
6.1389
 10
305.9394
 20
6.2627
 10
306.1635
 20
6.3807
 10
306.3943
 20
6.4932
 10
306.6318
 20
6.5999
 10
306.8759
 20
6.701
 10
307.1267
 20
6.7965
 10
307.3841
 20
6.8863
 10
307.6454
 20
6.9705
 10
307.9084
 20
7.0495
 10
308.1731
 20
7.1234
 10
308.4395
 20
7.192
 10
308.7076
 20
7.2555
 10
308.9774
 20
7.3138
 10
309.2488
 20
7.3668
 10
309.5219
 20
7.4147
 10
309.7946
 20
7.4586
 10
310.0651
 20
7.4991
 10
310.3334
 20
7.5362
 10
310.5995
 20
7.57
 10
310.8634
 20
7.6005
 10
311.1251
 20
7.6276
 10
311.3847
 20
7.6513
 10
311.6421
 20
7.6717
 10
311.9031
 20
7.6895
 10
312.1741
 20
7.7049
 10
312.4549
 20
7.7179
 10
312.7455
 20
7.7286
 10
313.0457
 20
7.7368
 10
313.3555
 20
7.7427
 10
313.6748
 20
7.7462
 10
314.0035
 20
7.7474
 10
314.3471
 20
7.7422
 10
314.7106
 20
7.7266
 10
315.094
 20
7.7007
 10
315.4974
 20
7.6643
 10
315.921
 20
7.6175
 10
316.3648
 20
7.5603
 10
316.8288
 20
7.4927
 10
317.3132
 20
7.4147
 10
317.5824
 20
7.3671
 10
317.8511
 20
7.3147
 10
318.1192
 20
7.2576
 10
318.3867
 20
7.1958
 10
318.6537
 20
7.1292
 10
318.92
 20
7.0579
 10
319.1858
 20
6.982
 10
319.4509
 20
6.9013
 10
319.7127
 20
6.815
 10
319.9678
 20
6.7226
 10
320.2163
 20
6.6241
 10
320.4582
 20
6.5194
 10
320.6933
 20
6.4086
 10
320.9219
 20
6.2917
 10
321.1438
 20
6.1687
 10
321.359
 20
6.0395
 10
321.566
 20
5.904
 10
321.7624
 20
5.7618
 10
321.9482
 20
5.6131
 10
322.1235
 20
5.4578
 10
322.2883
 20
5.2958
 10
322.4426
 20
5.1272
 10
322.5863
 20
4.9519
 10
322.7196
 20
4.77
 10
322.8399
 20
4.5807
 10
322.9441
 20
4.3828
 10
323.0322
 20
4.1764
 10
323.1043
 20
3.9615
 10
323.1603
 20
3.7381
 10
323.2002
 20
3.5062
 10
323.2242
 20
3.2659
 10
323.2322
 20
3.0171
 10
323.2239
 20
2.7681
 10
323.199
 20
2.5276
 10
323.1576
 20
2.2957
 10
323.0996
 20
2.0723
 10
323.025
 20
1.8575
 10
322.9339
 20
1.6512
 10
322.8263
 20
1.4534
 10
322.7021
 20
1.2642
  0
LWPOLYLINE
  5
158
330
1F
100
AcDbEntity
  8
Layer 1
 62
   250
100
AcDbPolyline
 90
       65
 70
     1
 43
0.0
 10
301.1471
 20
2.9114
 10
301.2125
 20
2.0289
 10
301.4088
 20
1.2026
 10
301.7359
 20
0.4325
 10
302.1939
 20
-0.2814
 10
302.7827
 20
-0.9391
 10
303.5023
 20
-1.5406
 10
304.3528
 20
-2.086
 10
305.3341
 20
-2.5751
 10
306.1905
 20
-2.9185
 10
307.0943
 20
-3.2162
 10
308.0457
 20
-3.4682
 10
309.0446
 20
-3.6744
 10
310.091
 20
-3.8347
 10
311.1849
 20
-3.9493
 10
312.3263
 20
-4.0181
 10
313.5152
 20
-4.041
 10
314.7038
 20
-4.0181
 10
315.845
 20
-3.9493
 10
316.9387
 20
-3.8347
 10
317.985
 20
-3.6744
 10
318.9838
 20
-3.4682
 10
319.9352
 20
-3.2162
 10
320.839
 20
-2.9185
 10
321.6954
 20
-2.5751
 10
322.6767
 20
-2.086
 10
323.5272
 20
-1.5406
 10
324.2468
 20
-0.9391
 10
324.8356
 20
-0.2814
 10
325.2936
 20
0.4325
 10
325.6207
 20
1.2026
 10
325.817
 20
2.0289
 10
325.8824
 20
2.9114
 10
325.817
 20
3.7939
 10
325.6207
 20
4.6202
 10
325.2936
 20
5.3903
 10
324.8356
 20
6.1042
 10
324.2468
 20
6.7618
 10
323.5272
 20
7.3631
 10
322.6767
 20
7.9083
 10
321.6954
 20
8.3972
 10
320.839
 20
8.7408
 10
319.9352
 20
9.0386
 10
318.9838
 20
9.2906
 10
317.985
 20
9.4967
 10
316.9387
 20
9.657
 10
315.845
 20
9.7715
 10
314.7038
 20
9.8402
 10
313.5152
 20
9.8631
 10
312.3263
 20
9.8402
 10
311.1849
 20
9.7715
 10
310.091
 20
9.657
 10
309.0446
 20
9.4967
 10
308.0457
 20
9.2906
 10
307.0943
 20
9.0386
 10
306.1905
 20
8.7408
 10
305.3341
 20
8.3972
 10
304.3528
 20
7.9083
 10
303.5023
 20
7.3631
 10
302.7827
 20
6.7618
 10
302.1939
 20
6.1042
 10
301.7359
 20
5.3903
 10
301.4088
 20
4.6202
 10
301.2125
 20
3.7939
 10
301.1471
 20
2.9114
  0
LWPOLYLINE
  5
159
330
1F
100
AcDbEntity
  8
Layer 1
 62
   250
100
AcDbPolyline
 90
      165
 70
     1
 43
0.0
 10
301.5361
 20
-24.6853
 10
301.5361
 20
-26.801
 10
311.2531
 20
-26.801
 10
311.8983
 20
-26.7838
 10
312.5132
 20
-26.7321
 10
313.0976
 20
-26.6459
 10
313.6516
 20
-26.5252
 10
314.1753
 20
-26.3701
 10
314.6687
 20
-26.1805
 10
315.1317
 20
-25.9564
 10
315.5644
 20
-25.6978
 10
315.7711
 20
-25.5536
 10
315.9673
 20
-25.4003
 10
316.153
 20
-25.2381
 10
316.3283
 20
-25.0669
 10
316.4931
 20
-24.8867
 10
316.6475
 20
-24.6974
 10
316.7915
 20
-24.4992
 10
316.925
 20
-24.2919
 10
317.045
 20
-24.0719
 10
317.1491
 20
-23.8348
 10
317.2372
 20
-23.5808
 10
317.3093
 20
-23.3098
 10
317.3654
 20
-23.0217
 10
317.4054
 20
-22.7167
 10
317.4295
 20
-22.3946
 10
317.4375
 20
-22.0556
 10
317.4237
 20
-21.7135
 10
317.3823
 20
-21.3822
 10
317.3132
 20
-21.0618
 10
317.2165
 20
-20.7522
 10
317.0922
 20
-20.4534
 10
316.9403
 20
-20.1655
 10
316.7608
 20
-19.8885
 10
316.5536
 20
-19.6223
 10
316.3471
 20
-19.3913
 10
316.1254
 20
-19.1707
 10
315.8885
 20
-18.9605
 10
315.6365
 20
-18.7607
 10
315.3696
 20
-18.5713
 10
315.088
 20
-18.3924
 10
314.7917
 20
-18.2238
 10
314.4809
 20
-18.0657
 10
314.7676
 20
-17.9428
 10
315.0446
 20
-17.8087
 10
315.3106
 20
-17.6633
 10
315.5644
 20
-17.5066
 10
315.7711
 20
-17.3623
 10
315.9673
 20
-17.209
 10
316.153
 20
-17.0467
 10
316.3283
 20
-16.8754
 10
316.4931
 20
-16.6952
 10
316.6475
 20
-16.5059
 10
316.7915
 20
-16.3078
 10
316.925
 20
-16.1007
 10
317.045
 20
-15.8807
 10
317.1491
 20
-15.6437
 10
317.2372
 20
-15.3896
 10
317.3093
 20
-15.1186
 10
317.3654
 20
-14.8306
 10
317.4054
 20
-14.5255
 10
317.4295
 20
-14.2035
 10
317.4375
 20
-13.8644
 10
317.4237
 20
-13.522
 10
317.3823
 20
-13.1906
 10
317.3132
 20
-12.8701
 10
317.2165
 20
-12.5605
 10
317.0922
 20
-12.2617
 10
316.9403
 20
-11.974
 10
316.7608
 20
-11.6971
 10
316.5536
 20
-11.4311
 10
316.357
 20
-11.2109
 10
316.147
 20
-11.0002
 10
315.9237
 20
-10.799
 10
315.687
 20
-10.6073
 10
315.4368
 20
-10.425
 10
315.173
 20
-10.2521
 10
314.8956
 20
-10.0886
 10
314.6045
 20
-9.9345
 10
317.0836
 20
-9.9345
 10
317.0836
 20
-7.8188
 10
301.5361
 20
-7.8188
 10
301.5361
 20
-9.9345
 10
309.4926
 20
-9.9345
 10
309.9562
 20
-9.9838
 10
310.4017
 20
-10.0482
 10
310.8292
 20
-10.1276
 10
311.2389
 20
-10.2221
 10
311.6309
 20
-10.3316
 10
312.0053
 20
-10.4562
 10
312.3623
 20
-10.5959
 10
312.7021
 20
-10.7506
 10
312.9439
 20
-10.8768
 10
313.1746
 20
-11.0134
 10
313.3944
 20
-11.1603
 10
313.603
 20
-11.3177
 10
313.8007
 20
-11.4854
 10
313.9873
 20
-11.6635
 10
314.1628
 20
-11.852
 10
314.3274
 20
-12.0508
 10
314.4765
 20
-12.2567
 10
314.6057
 20
-12.4664
 10
314.715
 20
-12.6798
 10
314.8044
 20
-12.897
 10
314.874
 20
-13.118
 10
314.9237
 20
-13.3428
 10
314.9535
 20
-13.5713
 10
314.9634
 20
-13.8037
 10
314.9582
 20
-14.0304
 10
314.9424
 20
-14.242
 10
314.9162
 20
-14.4385
 10
314.8795
 20
-14.6199
 10
314.8324
 20
-14.7861
 10
314.7747
 20
-14.9371
 10
314.7065
 20
-15.0731
 10
314.6279
 20
-15.1939
 10
314.3645
 20
-15.4986
 10
314.0559
 20
-15.7627
 10
313.7019
 20
-15.9862
 10
313.3026
 20
-16.1691
 10
312.8581
 20
-16.3113
 10
312.3684
 20
-16.4128
 10
311.8333
 20
-16.4738
 10
311.2531
 20
-16.4941
 10
301.5361
 20
-16.4941
 10
301.5361
 20
-18.6098
 10
311.2531
 20
-18.6098
 10
311.8482
 20
-18.5948
 10
312.0736
 20
-18.6731
 10
312.2905
 20
-18.7571
 10
312.4998
 20
-18.8469
 10
312.7021
 20
-18.9425
 10
312.9439
 20
-19.0685
 10
313.1746
 20
-19.2049
 10
313.3944
 20
-19.3517
 10
313.603
 20
-19.509
 10
313.8007
 20
-19.6766
 10
313.9873
 20
-19.8547
 10
314.1628
 20
-20.0432
 10
314.3274
 20
-20.242
 10
314.4765
 20
-20.4479
 10
314.6057
 20
-20.6576
 10
314.715
 20
-20.871
 10
314.8044
 20
-21.0882
 10
314.874
 20
-21.3092
 10
314.9237
 20
-21.534
 10
314.9535
 20
-21.7625
 10
314.9634
 20
-21.9949
 10
314.9582
 20
-22.2216
 10
314.9424
 20
-22.4332
 10
314.9162
 20
-22.6297
 10
314.8795
 20
-22.8111
 10
314.8324
 20
-22.9773
 10
314.7747
 20
-23.1283
 10
314.7065
 20
-23.2643
 10
314.6279
 20
-23.3851
 10
314.3645
 20
-23.6898
 10
314.0559
 20
-23.9539
 10
313.7019
 20
-24.1774
 10
313.3026
 20
-24.3603
 10
312.8581
 20
-24.5025
 10
312.3684
 20
-24.604
 10
311.8333
 20
-24.665
 10
311.2531
 20
-24.6853
 10
301.5361
 20
-24.6853
  0
LWPOLYLINE
  5
15A
330
1F
100
AcDbEntity
  8
Layer 1
 62
   250
100
AcDbPolyline
 90
      165
 70
     1
 43
0.0
 10
301.5361
 20
-47.7481
 10
301.5361
 20
-49.8637
 10
311.2531
 20
-49.8637
 10
311.8983
 20
-49.8465
 10
312.5132
 20
-49.7948
 10
313.0976
 20
-49.7086
 10
313.6516
 20
-49.5879
 10
314.1753
 20
-49.4328
 10
314.6687
 20
-49.2432
 10
315.1317
 20
-49.0191
 10
315.5644
 20
-48.7605
 10
315.7711
 20
-48.6163
 10
315.9673
 20
-48.463
 10
316.153
 20
-48.3008
 10
316.3283
 20
-48.1296
 10
316.4931
 20
-47.9494
 10
316.6475
 20
-47.7601
 10
316.7915
 20
-47.5619
 10
316.925
 20
-47.3546
 10
317.045
 20
-47.1346
 10
317.1491
 20
-46.8976
 10
317.2372
 20
-46.6435
 10
317.3093
 20
-46.3725
 10
317.3654
 20
-46.0845
 10
317.4054
 20
-45.7794
 10
317.4295
 20
-45.4574
 10
317.4375
 20
-45.1183
 10
317.4237
 20
-44.7762
 10
317.3823
 20
-44.4449
 10
317.3132
 20
-44.1245
 10
317.2165
 20
-43.8149
 10
317.0922
 20
-43.5162
 10
316.9403
 20
-43.2283
 10
316.7608
 20
-42.9512
 10
316.5536
 20
-42.685
 10
316.3471
 20
-42.454
 10
316.1254
 20
-42.2334
 10
315.8885
 20
-42.0232
 10
315.6365
 20
-41.8234
 10
315.3696
 20
-41.634
 10
315.088
 20
-41.4551
 10
314.7917
 20
-41.2865
 10
314.4809
 20
-41.1284
 10
314.7676
 20
-41.0055
 10
315.0446
 20
-40.8714
 10
315.3106
 20
-40.726
 10
315.5644
 20
-40.5694
 10
315.7711
 20
-40.4251
 10
315.9673
 20
-40.2718
 10
316.153
 20
-40.1094
 10
316.3283
 20
-39.9382
 10
316.4931
 20
-39.7579
 10
316.6475
 20
-39.5687
 10
316.7915
 20
-39.3705
 10
316.925
 20
-39.1635
 10
317.045
 20
-38.9435
 10
317.1491
 20
-38.7064
 10
317.2372
 20
-38.4524
 10
317.3093
 20
-38.1813
 10
317.3654
 20
-37.8933
 10
317.4054
 20
-37.5882
 10
317.4295
 20
-37.2662
 10
317.4375
 20
-36.9272
 10
317.4237
 20
-36.5848
 10
317.3823
 20
-36.2533
 10
317.3132
 20
-35.9328
 10
317.2165
 20
-35.6232
 10
317.0922
 20
-35.3244
 10
316.9403
 20
-35.0367
 10
316.7608
 20
-34.7598
 10
316.5536
 20
-34.4938
 10
316.357
 20
-34.2736
 10
316.147
 20
-34.0629
 10
315.9237
 20
-33.8617
 10
315.687
 20
-33.67
 10
315.4368
 20
-33.4877
 10
315.173
 20
-33.3148
 10
314.8956
 20
-33.1513
 10
314.6045
 20
-32.9972
 10
317.0836
 20
-32.9972
 10
317.0836
 20
-30.8816
 10
301.5361
 20
-30.8816
 10
301.5361
 20
-32.9972
 10
309.4926
 20
-32.9972
 10
309.9562
 20
-33.0465
 10
310.4017
 20
-33.1109
 10
310.8292
 20
-33.1903
 10
311.2389
 20
-33.2848
 10
311.6309
 20
-33.3943
 10
312.0053
 20
-33.5189
 10
312.3623
 20
-33.6586
 10
312.7021
 20
-33.8133
 10
312.9439
 20
-33.9395
 10
313.1746
 20
-34.0761
 10
313.3944
 20
-34.2231
 10
313.603
 20
-34.3805
 10
313.8007
 20
-34.5482
 10
313.9873
 20
-34.7263
 10
314.1628
 20
-34.9148
 10
314.3274
 20
-35.1136
 10
314.4765
 20
-35.3195
 10
314.6057
 20
-35.5291
 10
314.715
 20
-35.7425
 10
314.8044
 20
-35.9598
 10
314.874
 20
-36.1807
 10
314.9237
 20
-36.4055
 10
314.9535
 20
-36.6341
 10
314.9634
 20
-36.8665
 10
314.9582
 20
-37.0932
 10
314.9424
 20
-37.3048
 10
314.9162
 20
-37.5012
 10
314.8795
 20
-37.6826
 10
314.8324
 20
-37.8488
 10
314.7747
 20
-37.9999
 10
314.7065
 20
-38.1359
 10
314.6279
 20
-38.2567
 10
314.3645
 20
-38.5614
 10
314.0559
 20
-38.8255
 10
313.7019
 20
-39.049
 10
313.3026
 20
-39.2319
 10
312.8581
 20
-39.3741
 10
312.3684
 20
-39.4756
 10
311.8333
 20
-39.5366
 10
311.2531
 20
-39.5569
 10
301.5361
 20
-39.5569
 10
301.5361
 20
-41.6725
 10
311.2531
 20
-41.6725
 10
311.8482
 20
-41.6575
 10
312.0736
 20
-41.7358
 10
312.2905
 20
-41.8199
 10
312.4998
 20
-41.9096
 10
312.7021
 20
-42.0052
 10
312.9439
 20
-42.1312
 10
313.1746
 20
-42.2676
 10
313.3944
 20
-42.4145
 10
313.603
 20
-42.5717
 10
313.8007
 20
-42.7394
 10
313.9873
 20
-42.9174
 10
314.1628
 20
-43.1059
 10
314.3274
 20
-43.3047
 10
314.4765
 20
-43.5106
 10
314.6057
 20
-43.7203
 10
314.715
 20
-43.9337
 10
314.8044
 20
-44.1509
 10
314.874
 20
-44.3719
 10
314.9237
 20
-44.5967
 10
314.9535
 20
-44.8253
 10
314.9634
 20
-45.0577
 10
314.9582
 20
-45.2844
 10
314.9424
 20
-45.496
 10
314.9162
 20
-45.6924
 10
314.8795
 20
-45.8738
 10
314.8324
 20
-46.04
 10
314.7747
 20
-46.191
 10
314.7065
 20
-46.327
 10
314.6279
 20
-46.4478
 10
314.3645
 20
-46.7526
 10
314.0559
 20
-47.0167
 10
313.7019
 20
-47.2402
 10
313.3026
 20
-47.423
 10
312.8581
 20
-47.5653
 10
312.3684
 20
-47.6668
 10
311.8333
 20
-47.7278
 10
311.2531
 20
-47.7481
 10
301.5361
 20
-47.7481
  0
ENDSEC
  0
SECTION
  2
OBJECTS
  0
DICTIONARY
  5
C
330
0
100
AcDbDictionary
281
     1
  3
ACAD_DETAILVIEWSTYLE
350
162
  3
ACAD_GROUP
350
D
  3
ACAD_IMAGE_DICT
350
62
  3
ACAD_LAYOUT
350
1A
  3
ACAD_MATERIAL
350
43
  3
ACAD_MLEADERSTYLE
350
5B
  3
ACAD_MLINESTYLE
350
17
  3
ACAD_PLOTSETTINGS
350
19
  3
ACAD_PLOTSTYLENAME
350
E
  3
ACAD_SCALELIST
350
47
  3
ACAD_SECTIONVIEWSTYLE
350
163
  3
ACAD_TABLESTYLE
350
59
  3
ACAD_VISUALSTYLE
350
2A
  3
ACDB_RECOMPOSE_DATA
350
15F
  3
AcDbVariableDictionary
350
15B
  0
SUN
  5
5D
330
29
100
AcDbSun
 90
        1
290
     0
 63
     7
421
 16777215
 40
1.0
291
     1
 91
  2455826
 92
 54000000
292
     0
 70
     2
 71
   256
280
     1
  0
IMAGEDEF_REACTOR
  5
65
330
64
100
AcDbRasterImageDefReactor
 90
        2
330
64
  0
IMAGEDEF_REACTOR
  5
68
330
67
100
AcDbRasterImageDefReactor
 90
        2
330
67
  0
DICTIONARY
  5
162
102
{ACAD_REACTORS
330
C
102
}
330
C
100
AcDbDictionary
281
     1
  0
DICTIONARY
  5
D
102
{ACAD_REACTORS
330
C
102
}
330
C
100
AcDbDictionary
281
     1
  0
DICTIONARY
  5
62
102
{ACAD_REACTORS
330
C
102
}
330
C
100
AcDbDictionary
281
     1
  3
Image #1
350
63
  3
Image #2
350
66
  0
DICTIONARY
  5
1A
102
{ACAD_REACTORS
330
C
102
}
330
C
100
AcDbDictionary
281
     1
  3
Layout1
350
1E
  3
Layout2
350
26
  3
Model
350
22
  0
DICTIONARY
  5
43
102
{ACAD_REACTORS
330
C
102
}
330
C
100
AcDbDictionary
281
     1
  3
ByBlock
350
45
  3
ByLayer
350
44
  3
Global
350
46
  0
DICTIONARY
  5
5B
102
{ACAD_REACTORS
330
C
102
}
330
C
100
AcDbDictionary
281
     1
  3
Standard
350
5C
  0
DICTIONARY
  5
17
102
{ACAD_REACTORS
330
C
102
}
330
C
100
AcDbDictionary
281
     1
  3
Standard
350
18
  0
DICTIONARY
  5
19
102
{ACAD_REACTORS
330
C
102
}
330
C
100
AcDbDictionary
281
     1
  0
ACDBDICTIONARYWDFLT
  5
E
102
{ACAD_REACTORS
330
C
102
}
330
C
100
AcDbDictionary
281
     1
  3
Normal
350
F
100
AcDbDictionaryWithDefault
340
F
  0
DICTIONARY
  5
47
102
{ACAD_REACTORS
330
C
102
}
330
C
100
AcDbDictionary
281
     1
  3
A0
350
48
  3
A1
350
49
  3
A2
350
4A
  3
A3
350
4B
  3
A4
350
4C
  3
A5
350
4D
  3
A6
350
4E
  3
A7
350
4F
  3
A8
350
50
  3
A9
350
51
  3
B1
350
52
  3
B2
350
53
  3
B3
350
54
  3
B4
350
55
  3
B5
350
56
  3
B6
350
57
  3
B7
350
58
  0
DICTIONARY
  5
163
102
{ACAD_REACTORS
330
C
102
}
330
C
100
AcDbDictionary
281
     1
  0
DICTIONARY
  5
59
102
{ACAD_REACTORS
330
C
102
}
330
C
100
AcDbDictionary
281
     1
  3
Standard
350
5A
  0
DICTIONARY
  5
2A
102
{ACAD_REACTORS
330
C
102
}
330
C
100
AcDbDictionary
281
     1
  3
2dWireframe
350
2F
  3
Basic
350
32
  3
Brighten
350
36
  3
ColorChange
350
3A
  3
Conceptual
350
34
  3
Dim
350
35
  3
EdgeColorOff
350
3D
  3
Facepattern
350
39
  3
Flat
350
2B
  3
FlatWithEdges
350
2C
  3
Gouraud
350
2D
  3
GouraudWithEdges
350
2E
  3
Hidden
350
31
  3
JitterOff
350
3B
  3
Linepattern
350
38
  3
OverhangOff
350
3C
  3
Realistic
350
33
  3
Shaded
350
42
  3
Shaded with edges
350
41
  3
Shades of Gray
350
3E
  3
Sketchy
350
3F
  3
Thicken
350
37
  3
Wireframe
350
30
  3
X-Ray
350
40
  0
XRECORD
  5
15F
102
{ACAD_REACTORS
330
C
102
}
330
C
100
AcDbXrecord
280
     1
 90
        1
330
5A
  0
DICTIONARY
  5
15B
102
{ACAD_REACTORS
330
C
102
}
330
C
100
AcDbDictionary
281
     1
  3
CANNOSCALE
350
15C
  3
CMLEADERSTYLE
350
161
  3
CTABLESTYLE
350
160
  0
IMAGEDEF
  5
63
102
{ACAD_REACTORS
330
62
330
65
102
}
330
62
100
AcDbRasterImageDef
 90
        0
  1
C:\Users\Office Desk\Desktop\CC002_ACD_0.jpg
 10
2626.0
 20
20162.0
 11
0.0003808073115003808
 21
0.0003808073115003808
280
     1
281
     5
  0
IMAGEDEF
  5
66
102
{ACAD_REACTORS
330
62
330
68
102
}
330
62
100
AcDbRasterImageDef
 90
        0
  1
C:\Users\Office Desk\Desktop\CC002_ACD_1.jpg
 10
2626.0
 20
20162.0
 11
0.0003808073115003808
 21
0.0003808073115003808
280
     1
281
     5
  0
LAYOUT
  5
1E
102
{ACAD_REACTORS
330
1A
102
}
330
1A
100
AcDbPlotSettings
  1

  2
none_device
  4

  6

 40
0.0
 41
0.0
 42
0.0
 43
0.0
 44
0.0
 45
0.0
 46
0.0
 47
0.0
 48
0.0
 49
0.0
140
0.0
141
0.0
142
1.0
143
1.0
 70
   688
 72
     0
 73
     0
 74
     5
  7

 75
    16
 76
     0
 77
     2
 78
   300
147
1.0
148
0.0
149
0.0
100
AcDbLayout
  1
Layout1
 70
     1
 71
     1
 10
0.0
 20
0.0
 11
12.0
 21
9.0
 12
0.0
 22
0.0
 32
0.0
 14
1.000000000000000E+20
 24
1.000000000000000E+20
 34
1.000000000000000E+20
 15
-1.000000000000000E+20
 25
-1.000000000000000E+20
 35
-1.000000000000000E+20
146
0.0
 13
0.0
 23
0.0
 33
0.0
 16
1.0
 26
0.0
 36
0.0
 17
0.0
 27
1.0
 37
0.0
 76
     0
330
1B
  0
LAYOUT
  5
26
102
{ACAD_REACTORS
330
1A
102
}
330
1A
100
AcDbPlotSettings
  1

  2
none_device
  4

  6

 40
0.0
 41
0.0
 42
0.0
 43
0.0
 44
0.0
 45
0.0
 46
0.0
 47
0.0
 48
0.0
 49
0.0
140
0.0
141
0.0
142
1.0
143
1.0
 70
   688
 72
     0
 73
     0
 74
     5
  7

 75
    16
 76
     0
 77
     2
 78
   300
147
1.0
148
0.0
149
0.0
100
AcDbLayout
  1
Layout2
 70
     1
 71
     2
 10
0.0
 20
0.0
 11
0.0
 21
0.0
 12
0.0
 22
0.0
 32
0.0
 14
0.0
 24
0.0
 34
0.0
 15
0.0
 25
0.0
 35
0.0
146
0.0
 13
0.0
 23
0.0
 33
0.0
 16
1.0
 26
0.0
 36
0.0
 17
0.0
 27
1.0
 37
0.0
 76
     0
330
23
  0
LAYOUT
  5
22
102
{ACAD_REACTORS
330
1A
102
}
330
1A
100
AcDbPlotSettings
  1

  2
none_device
  4
Letter_(8.50_x_11.00_Inches)
  6

 40
6.35
 41
6.35
 42
6.35000508
 43
6.35000508
 44
215.9
 45
279.4
 46
0.0
 47
0.0
 48
0.0
 49
0.0
140
0.0
141
0.0
142
1.0
143
1.0
 70
  1712
 72
     0
 73
     0
 74
     0
  7

 75
     0
 76
     0
 77
     2
 78
   300
147
1.0
148
0.0
149
0.0
100
AcDbLayout
  1
Model
 70
     1
 71
     0
 10
0.0
 20
0.0
 11
12.0
 21
9.0
 12
0.0
 22
0.0
 32
0.0
 14
-357.2084
 24
-175.7781
 34
0.0
 15
332.9665
 25
224.3981
 35
0.0
146
0.0
 13
0.0
 23
0.0
 33
0.0
 16
1.0
 26
0.0
 36
0.0
 17
0.0
 27
1.0
 37
0.0
 76
     0
330
1F
331
29
  0
MATERIAL
  5
45
102
{ACAD_REACTORS
330
43
102
}
330
43
100
AcDbMaterial
  1
ByBlock
 72
     1
 94
      127
  0
MATERIAL
  5
44
102
{ACAD_REACTORS
330
43
102
}
330
43
100
AcDbMaterial
  1
ByLayer
 72
     1
 94
      127
  0
MATERIAL
  5
46
102
{ACAD_REACTORS
330
43
102
}
330
43
100
AcDbMaterial
  1
Global
 72
     1
 94
      127
  0
MLEADERSTYLE
  5
5C
102
{ACAD_REACTORS
330
5B
102
}
330
5B
100
AcDbMLeaderStyle
179
     2
170
     2
171
     1
172
     0
 90
        2
 40
0.0
 41
0.0
173
     1
 91
-1056964608
340
14
 92
       -2
290
     1
 42
0.09
291
     1
 43
0.36
  3
Standard
341
0
 44
0.18
300

342
11
174
     1
178
     6
175
     1
176
     0
 93
-1056964608
 45
0.18
292
     0
297
     0
 46
0.18
343
0
 94
-1056964608
 47
1.0
 49
1.0
140
1.0
293
     1
141
0.0
294
     1
177
     0
142
1.0
295
     0
296
     0
143
0.125
271
     0
272
     9
273
     9
298
     0
  0
MLINESTYLE
  5
18
102
{ACAD_REACTORS
330
17
102
}
330
17
100
AcDbMlineStyle
  2
Standard
 70
     0
  3

 62
   256
 51
90.0
 52
90.0
 71
     2
 49
0.5
 62
   256
  6
BYLAYER
 49
-0.5
 62
   256
  6
BYLAYER
  0
ACDBPLACEHOLDER
  5
F
102
{ACAD_REACTORS
330
E
102
}
330
E
  0
SCALE
  5
48
102
{ACAD_REACTORS
330
47
102
}
330
47
100
AcDbScale
 70
     0
300
1:1
140
1.0
141
1.0
290
     1
  0
SCALE
  5
49
102
{ACAD_REACTORS
330
47
102
}
330
47
100
AcDbScale
 70
     0
300
1/128" = 1'-0"
140
0.0078125
141
12.0
290
     0
  0
SCALE
  5
4A
102
{ACAD_REACTORS
330
47
102
}
330
47
100
AcDbScale
 70
     0
300
1/64" = 1'-0"
140
0.015625
141
12.0
290
     0
  0
SCALE
  5
4B
102
{ACAD_REACTORS
330
47
102
}
330
47
100
AcDbScale
 70
     0
300
1/32" = 1'-0"
140
0.03125
141
12.0
290
     0
  0
SCALE
  5
4C
102
{ACAD_REACTORS
330
47
102
}
330
47
100
AcDbScale
 70
     0
300
1/16" = 1'-0"
140
0.0625
141
12.0
290
     0
  0
SCALE
  5
4D
102
{ACAD_REACTORS
330
47
102
}
330
47
100
AcDbScale
 70
     0
300
3/32" = 1'-0"
140
0.09375
141
12.0
290
     0
  0
SCALE
  5
4E
102
{ACAD_REACTORS
330
47
102
}
330
47
100
AcDbScale
 70
     0
300
1/8" = 1'-0"
140
0.125
141
12.0
290
     0
  0
SCALE
  5
4F
102
{ACAD_REACTORS
330
47
102
}
330
47
100
AcDbScale
 70
     0
300
3/16" = 1'-0"
140
0.1875
141
12.0
290
     0
  0
SCALE
  5
50
102
{ACAD_REACTORS
330
47
102
}
330
47
100
AcDbScale
 70
     0
300
1/4" = 1'-0"
140
0.25
141
12.0
290
     0
  0
SCALE
  5
51
102
{ACAD_REACTORS
330
47
102
}
330
47
100
AcDbScale
 70
     0
300
3/8" = 1'-0"
140
0.375
141
12.0
290
     0
  0
SCALE
  5
52
102
{ACAD_REACTORS
330
47
102
}
330
47
100
AcDbScale
 70
     0
300
1/2" = 1'-0"
140
0.5
141
12.0
290
     0
  0
SCALE
  5
53
102
{ACAD_REACTORS
330
47
102
}
330
47
100
AcDbScale
 70
     0
300
3/4" = 1'-0"
140
0.75
141
12.0
290
     0
  0
SCALE
  5
54
102
{ACAD_REACTORS
330
47
102
}
330
47
100
AcDbScale
 70
     0
300
1" = 1'-0"
140
1.0
141
12.0
290
     0
  0
SCALE
  5
55
102
{ACAD_REACTORS
330
47
102
}
330
47
100
AcDbScale
 70
     0
300
1-1/2" = 1'-0"
140
1.5
141
12.0
290
     0
  0
SCALE
  5
56
102
{ACAD_REACTORS
330
47
102
}
330
47
100
AcDbScale
 70
     0
300
3" = 1'-0"
140
3.0
141
12.0
290
     0
  0
SCALE
  5
57
102
{ACAD_REACTORS
330
47
102
}
330
47
100
AcDbScale
 70
     0
300
6" = 1'-0"
140
6.0
141
12.0
290
     0
  0
SCALE
  5
58
102
{ACAD_REACTORS
330
47
102
}
330
47
100
AcDbScale
 70
     0
300
1'-0" = 1'-0"
140
12.0
141
12.0
290
     0
  0
TABLESTYLE
  5
5A
102
{ACAD_REACTORS
330
59
102
}
102
{ACAD_XDICTIONARY
360
15D
102
}
330
59
100
AcDbTableStyle
  3
Standard
 70
     0
 71
     0
 40
0.06
 41
0.06
280
     0
281
     0
  7
Standard
140
0.18
170
     2
 62
     0
 63
   257
283
     0
 90
        4
 91
        0
  1

274
    -2
284
     1
 64
     0
275
    -2
285
     1
 65
     0
276
    -2
286
     1
 66
     0
277
    -2
287
     1
 67
     0
278
    -2
288
     1
 68
     0
279
    -2
289
     1
 69
     0
  7
Standard
140
0.25
170
     5
 62
     0
 63
   257
283
     0
 90
        4
 91
        0
  1

274
    -2
284
     1
 64
     0
275
    -2
285
     1
 65
     0
276
    -2
286
     1
 66
     0
277
    -2
287
     1
 67
     0
278
    -2
288
     1
 68
     0
279
    -2
289
     1
 69
     0
  7
Standard
140
0.18
170
     5
 62
     0
 63
   257
283
     0
 90
        4
 91
        0
  1

274
    -2
284
     1
 64
     0
275
    -2
285
     1
 65
     0
276
    -2
286
     1
 66
     0
277
    -2
287
     1
 67
     0
278
    -2
288
     1
 68
     0
279
    -2
289
     1
 69
     0
  0
VISUALSTYLE
  5
2F
102
{ACAD_REACTORS
330
2A
102
}
330
2A
100
AcDbVisualStyle
  2
2dWireframe
 70
     4
177
     3
291
     0
 70
    58
 90
        0
176
     1
 90
        2
176
     1
 90
        0
176
     1
 90
        0
176
     1
 40
0.6
176
     1
 40
30.0
176
     1
 62
     7
420
 16777215
176
     1
 90
        1
176
     1
 90
        4
176
     1
 62
     7
176
     1
 62
   257
176
     1
 90
        1
176
     1
 90
        1
176
     1
 40
1.0
176
     1
 90
        0
176
     1
 62
   257
176
     1
 40
1.0
176
     1
 90
        1
176
     1
 90
        6
176
     1
 90
        2
176
     1
 62
     7
176
     1
 90
        5
176
     1
 90
        0
176
     1
 90
        0
176
     1
290
     0
176
     1
 90
        1
176
     1
 40
0.0
176
     1
 90
        0
176
     1
290
     1
176
     1
290
     1
176
     1
290
     0
176
     1
290
     0
176
     1
290
     0
176
     1
290
     0
176
     1
290
     0
176
     1
290
     0
176
     1
290
     0
176
     1
 90
       50
176
     1
 40
0.0
176
     1
 40
1.0
176
     1
 90
        0
176
     1
 62
    18
420
        0
176
     1
 90
       50
176
     1
 90
        3
176
     1
 62
     5
420
      255
176
     1
290
     0
176
     1
 90
       50
176
     1
 90
       50
176
     1
 90
       50
176
     1
290
     0
176
     1
 90
       50
176
     1
 62
   256
176
     0
 40
1.0
176
     0
 90
        2
176
     1
  1
strokes_ogs.tif
176
     1
290
     0
176
     1
 40
1.0
176
     1
 40
1.0
176
     1
  0
VISUALSTYLE
  5
32
102
{ACAD_REACTORS
330
2A
102
}
330
2A
100
AcDbVisualStyle
  2
Basic
 70
     7
177
     3
291
     1
 70
    58
 90
        1
176
     1
 90
        0
176
     1
 90
        1
176
     1
 90
        0
176
     1
 40
0.6
176
     1
 40
30.0
176
     1
 62
     7
420
 16777215
176
     1
 90
        0
176
     1
 90
        4
176
     1
 62
     7
176
     1
 62
   257
176
     1
 90
        1
176
     1
 90
        1
176
     1
 40
1.0
176
     1
 90
        8
176
     1
 62
     7
176
     1
 40
1.0
176
     1
 90
        1
176
     1
 90
        6
176
     1
 90
        2
176
     1
 62
     7
176
     1
 90
        5
176
     1
 90
        0
176
     1
 90
        0
176
     1
290
     0
176
     1
 90
        1
176
     1
 40
0.0
176
     1
 90
        0
176
     1
290
     0
176
     1
290
     1
176
     1
290
     1
176
     1
290
     0
176
     1
290
     0
176
     1
290
     0
176
     1
290
     0
176
     1
290
     0
176
     1
290
     0
176
     1
 90
       50
176
     1
 40
0.0
176
     1
 40
1.0
176
     1
 90
        0
176
     1
 62
    18
420
        0
176
     1
 90
       50
176
     1
 90
        3
176
     1
 62
     5
420
      255
176
     1
290
     0
176
     1
 90
       50
176
     1
 90
       50
176
     1
 90
       50
176
     1
290
     0
176
     1
 90
       50
176
     1
 62
   256
176
     0
 40
1.0
176
     0
 90
        2
176
     1
  1
strokes_ogs.tif
176
     1
290
     0
176
     1
 40
1.0
176
     1
 40
1.0
176
     1
  0
VISUALSTYLE
  5
36
102
{ACAD_REACTORS
330
2A
102
}
330
2A
100
AcDbVisualStyle
  2
Brighten
 70
    12
177
     3
291
     1
 70
    58
 90
        2
176
     1
 90
        2
176
     1
 90
        0
176
     1
 90
        0
176
     1
 40
0.6
176
     1
 40
30.0
176
     1
 62
     7
420
 16777215
176
     1
 90
        1
176
     1
 90
        4
176
     1
 62
     7
176
     1
 62
   257
176
     1
 90
        1
176
     1
 90
        1
176
     1
 40
1.0
176
     1
 90
        8
176
     1
 62
     7
176
     1
 40
1.0
176
     1
 90
        1
176
     1
 90
        6
176
     1
 90
        2
176
     1
 62
     7
176
     1
 90
        5
176
     1
 90
        0
176
     1
 90
        0
176
     1
290
     0
176
     1
 90
        1
176
     1
 40
50.0
176
     1
 90
        0
176
     1
290
     0
176
     1
290
     1
176
     1
290
     1
176
     1
290
     0
176
     1
290
     0
176
     1
290
     0
176
     1
290
     0
176
     1
290
     0
176
     1
290
     0
176
     1
 90
       50
176
     1
 40
0.0
176
     1
 40
1.0
176
     1
 90
        0
176
     1
 62
    18
420
        0
176
     1
 90
       50
176
     1
 90
        3
176
     1
 62
     5
420
      255
176
     1
290
     0
176
     1
 90
       50
176
     1
 90
       50
176
     1
 90
       50
176
     1
290
     0
176
     1
 90
       50
176
     1
 62
   256
176
     0
 40
1.0
176
     0
 90
        2
176
     1
  1
strokes_ogs.tif
176
     1
290
     0
176
     1
 40
1.0
176
     1
 40
1.0
176
     1
  0
VISUALSTYLE
  5
3A
102
{ACAD_REACTORS
330
2A
102
}
330
2A
100
AcDbVisualStyle
  2
ColorChange
 70
    16
177
     3
291
     1
 70
    58
 90
        2
176
     1
 90
        2
176
     1
 90
        3
176
     1
 90
        0
176
     1
 40
0.6
176
     1
 40
30.0
176
     1
 62
     8
420
  8421504
176
     1
 90
        1
176
     1
 90
        4
176
     1
 62
     7
176
     1
 62
   257
176
     1
 90
        1
176
     1
 90
        1
176
     1
 40
1.0
176
     1
 90
        8
176
     1
 62
     8
420
  8421504
176
     1
 40
1.0
176
     1
 90
        1
176
     1
 90
        6
176
     1
 90
        2
176
     1
 62
     7
176
     1
 90
        5
176
     1
 90
        0
176
     1
 90
        0
176
     1
290
     0
176
     1
 90
        1
176
     1
 40
0.0
176
     1
 90
        0
176
     1
290
     0
176
     1
290
     1
176
     1
290
     1
176
     1
290
     0
176
     1
290
     0
176
     1
290
     0
176
     1
290
     0
176
     1
290
     0
176
     1
290
     0
176
     1
 90
       50
176
     1
 40
0.0
176
     1
 40
1.0
176
     1
 90
        0
176
     1
 62
    18
420
        0
176
     1
 90
       50
176
     1
 90
        3
176
     1
 62
     5
420
      255
176
     1
290
     0
176
     1
 90
       50
176
     1
 90
       50
176
     1
 90
       50
176
     1
290
     0
176
     1
 90
       50
176
     1
 62
   256
176
     0
 40
1.0
176
     0
 90
        2
176
     1
  1
strokes_ogs.tif
176
     1
290
     0
176
     1
 40
1.0
176
     1
 40
1.0
176
     1
  0
VISUALSTYLE
  5
34
102
{ACAD_REACTORS
330
2A
102
}
330
2A
100
AcDbVisualStyle
  2
Conceptual
 70
     9
177
     3
291
     0
 70
    58
 90
        3
176
     1
 90
        2
176
     1
 90
        0
176
     1
 90
        0
176
     1
 40
0.6
176
     1
 40
30.0
176
     1
 62
     7
420
 16777215
176
     1
 90
        2
176
     1
 90
        2
176
     1
 62
     7
176
     1
 62
   257
176
     1
 90
        1
176
     1
 90
        1
176
     1
 40
179.0
176
     1
 90
        8
176
     1
 62
     7
176
     1
 40
1.0
176
     1
 90
        1
176
     1
 90
        6
176
     1
 90
        2
176
     1
 62
     7
176
     1
 90
        3
176
     1
 90
        0
176
     1
 90
        0
176
     1
290
     0
176
     1
 90
        1
176
     1
 40
0.0
176
     1
 90
        0
176
     1
290
     0
176
     1
290
     1
176
     1
290
     1
176
     1
290
     0
176
     1
290
     0
176
     1
290
     0
176
     1
290
     0
176
     1
290
     0
176
     1
290
     0
176
     1
 90
       50
176
     1
 40
0.0
176
     1
 40
1.0
176
     1
 90
        0
176
     1
 62
    18
420
        0
176
     1
 90
       50
176
     1
 90
        3
176
     1
 62
     5
420
      255
176
     1
290
     0
176
     1
 90
       50
176
     1
 90
       50
176
     1
 90
       50
176
     1
290
     0
176
     1
 90
       50
176
     1
 62
   256
176
     0
 40
1.0
176
     0
 90
        2
176
     1
  1
strokes_ogs.tif
176
     1
290
     0
176
     1
 40
1.0
176
     1
 40
1.0
176
     1
  0
VISUALSTYLE
  5
35
102
{ACAD_REACTORS
330
2A
102
}
330
2A
100
AcDbVisualStyle
  2
Dim
 70
    11
177
     3
291
     1
 70
    58
 90
        2
176
     1
 90
        2
176
     1
 90
        0
176
     1
 90
        0
176
     1
 40
0.6
176
     1
 40
30.0
176
     1
 62
     7
420
 16777215
176
     1
 90
        1
176
     1
 90
        4
176
     1
 62
     7
176
     1
 62
   257
176
     1
 90
        1
176
     1
 90
        1
176
     1
 40
1.0
176
     1
 90
        8
176
     1
 62
     7
176
     1
 40
1.0
176
     1
 90
        1
176
     1
 90
        6
176
     1
 90
        2
176
     1
 62
     7
176
     1
 90
        5
176
     1
 90
        0
176
     1
 90
        0
176
     1
290
     0
176
     1
 90
        1
176
     1
 40
-50.0
176
     1
 90
        0
176
     1
290
     0
176
     1
290
     1
176
     1
290
     1
176
     1
290
     0
176
     1
290
     0
176
     1
290
     0
176
     1
290
     0
176
     1
290
     0
176
     1
290
     0
176
     1
 90
       50
176
     1
 40
0.0
176
     1
 40
1.0
176
     1
 90
        0
176
     1
 62
    18
420
        0
176
     1
 90
       50
176
     1
 90
        3
176
     1
 62
     5
420
      255
176
     1
290
     0
176
     1
 90
       50
176
     1
 90
       50
176
     1
 90
       50
176
     1
290
     0
176
     1
 90
       50
176
     1
 62
   256
176
     0
 40
1.0
176
     0
 90
        2
176
     1
  1
strokes_ogs.tif
176
     1
290
     0
176
     1
 40
1.0
176
     1
 40
1.0
176
     1
  0
VISUALSTYLE
  5
3D
102
{ACAD_REACTORS
330
2A
102
}
330
2A
100
AcDbVisualStyle
  2
EdgeColorOff
 70
    22
177
     3
291
     1
 70
    58
 90
        2
176
     0
 90
        2
176
     0
 90
        0
176
     0
 90
        0
176
     0
 40
0.6
176
     0
 40
30.0
176
     0
 62
     7
420
 16777215
176
     0
 90
        1
176
     0
 90
        4
176
     0
 62
     7
176
     0
 62
   257
176
     0
 90
        1
176
     0
 90
        1
176
     0
 40
1.0
176
     0
 90
        8
176
     2
 62
     7
176
     0
 40
1.0
176
     0
 90
        1
176
     0
 90
        6
176
     0
 90
        2
176
     0
 62
     7
176
     0
 90
        5
176
     0
 90
        0
176
     0
 90
        0
176
     0
290
     0
176
     0
 90
        1
176
     0
 40
0.0
176
     0
 90
        0
176
     0
290
     0
176
     0
290
     1
176
     0
290
     1
176
     0
290
     0
176
     0
290
     0
176
     0
290
     0
176
     0
290
     0
176
     0
290
     0
176
     0
290
     0
176
     0
 90
       50
176
     0
 40
0.0
176
     0
 40
1.0
176
     0
 90
        0
176
     0
 62
    18
420
        0
176
     0
 90
       50
176
     0
 90
        3
176
     0
 62
     5
420
      255
176
     0
290
     0
176
     0
 90
       50
176
     0
 90
       50
176
     0
 90
       50
176
     0
290
     0
176
     0
 90
       50
176
     0
 62
   256
176
     0
 40
1.0
176
     0
 90
        2
176
     0
  1
strokes_ogs.tif
176
     0
290
     0
176
     0
 40
1.0
176
     0
 40
1.0
176
     0
  0
VISUALSTYLE
  5
39
102
{ACAD_REACTORS
330
2A
102
}
330
2A
100
AcDbVisualStyle
  2
Facepattern
 70
    15
177
     3
291
     1
 70
    58
 90
        2
176
     1
 90
        2
176
     1
 90
        0
176
     1
 90
        0
176
     1
 40
0.6
176
     1
 40
30.0
176
     1
 62
     7
420
 16777215
176
     1
 90
        1
176
     1
 90
        4
176
     1
 62
     7
176
     1
 62
   257
176
     1
 90
        1
176
     1
 90
        1
176
     1
 40
1.0
176
     1
 90
        8
176
     1
 62
     7
176
     1
 40
1.0
176
     1
 90
        1
176
     1
 90
        6
176
     1
 90
        2
176
     1
 62
     7
176
     1
 90
        5
176
     1
 90
        0
176
     1
 90
        0
176
     1
290
     0
176
     1
 90
        1
176
     1
 40
0.0
176
     1
 90
        0
176
     1
290
     0
176
     1
290
     1
176
     1
290
     1
176
     1
290
     0
176
     1
290
     0
176
     1
290
     0
176
     1
290
     0
176
     1
290
     0
176
     1
290
     0
176
     1
 90
       50
176
     1
 40
0.0
176
     1
 40
1.0
176
     1
 90
        0
176
     1
 62
    18
420
        0
176
     1
 90
       50
176
     1
 90
        3
176
     1
 62
     5
420
      255
176
     1
290
     0
176
     1
 90
       50
176
     1
 90
       50
176
     1
 90
       50
176
     1
290
     0
176
     1
 90
       50
176
     1
 62
   256
176
     0
 40
1.0
176
     0
 90
        2
176
     1
  1
strokes_ogs.tif
176
     1
290
     0
176
     1
 40
1.0
176
     1
 40
1.0
176
     1
  0
VISUALSTYLE
  5
2B
102
{ACAD_REACTORS
330
2A
102
}
330
2A
100
AcDbVisualStyle
  2
Flat
 70
     0
177
     3
291
     1
 70
    58
 90
        2
176
     1
 90
        1
176
     1
 90
        1
176
     1
 90
        2
176
     1
 40
0.6
176
     1
 40
30.0
176
     1
 62
     7
420
 16777215
176
     1
 90
        0
176
     1
 90
        0
176
     1
 62
     7
176
     1
 62
   257
176
     1
 90
        1
176
     1
 90
        1
176
     1
 40
1.0
176
     1
 90
        8
176
     1
 62
     7
176
     1
 40
1.0
176
     1
 90
        1
176
     1
 90
        6
176
     1
 90
        2
176
     1
 62
     7
176
     1
 90
        5
176
     1
 90
        0
176
     1
 90
        0
176
     1
290
     0
176
     1
 90
       13
176
     1
 40
0.0
176
     1
 90
        0
176
     1
290
     0
176
     1
290
     1
176
     1
290
     1
176
     1
290
     0
176
     1
290
     0
176
     1
290
     0
176
     1
290
     0
176
     1
290
     0
176
     1
290
     0
176
     1
 90
       50
176
     1
 40
0.0
176
     1
 40
1.0
176
     1
 90
        0
176
     1
 62
    18
420
        0
176
     1
 90
       50
176
     1
 90
        3
176
     1
 62
     5
420
      255
176
     1
290
     0
176
     1
 90
       50
176
     1
 90
       50
176
     1
 90
       50
176
     1
290
     0
176
     1
 90
       50
176
     1
 62
   256
176
     0
 40
1.0
176
     0
 90
        2
176
     1
  1
strokes_ogs.tif
176
     1
290
     0
176
     1
 40
1.0
176
     1
 40
1.0
176
     1
  0
VISUALSTYLE
  5
2C
102
{ACAD_REACTORS
330
2A
102
}
330
2A
100
AcDbVisualStyle
  2
FlatWithEdges
 70
     1
177
     3
291
     1
 70
    58
 90
        2
176
     1
 90
        1
176
     1
 90
        1
176
     1
 90
        2
176
     1
 40
0.6
176
     1
 40
30.0
176
     1
 62
     7
420
 16777215
176
     1
 90
        1
176
     1
 90
        0
176
     1
 62
     7
176
     1
 62
   257
176
     1
 90
        1
176
     1
 90
        1
176
     1
 40
1.0
176
     1
 90
        0
176
     1
 62
   257
176
     1
 40
1.0
176
     1
 90
        1
176
     1
 90
        6
176
     1
 90
        2
176
     1
 62
     7
176
     1
 90
        5
176
     1
 90
        0
176
     1
 90
        0
176
     1
290
     0
176
     1
 90
       13
176
     1
 40
0.0
176
     1
 90
        0
176
     1
290
     0
176
     1
290
     1
176
     1
290
     1
176
     1
290
     0
176
     1
290
     0
176
     1
290
     0
176
     1
290
     0
176
     1
290
     0
176
     1
290
     0
176
     1
 90
       50
176
     1
 40
0.0
176
     1
 40
1.0
176
     1
 90
        0
176
     1
 62
    18
420
        0
176
     1
 90
       50
176
     1
 90
        3
176
     1
 62
     5
420
      255
176
     1
290
     0
176
     1
 90
       50
176
     1
 90
       50
176
     1
 90
       50
176
     1
290
     0
176
     1
 90
       50
176
     1
 62
   256
176
     0
 40
1.0
176
     0
 90
        2
176
     1
  1
strokes_ogs.tif
176
     1
290
     0
176
     1
 40
1.0
176
     1
 40
1.0
176
     1
  0
VISUALSTYLE
  5
2D
102
{ACAD_REACTORS
330
2A
102
}
330
2A
100
AcDbVisualStyle
  2
Gouraud
 70
     2
177
     3
291
     1
 70
    58
 90
        2
176
     1
 90
        2
176
     1
 90
        1
176
     1
 90
        2
176
     1
 40
0.6
176
     1
 40
30.0
176
     1
 62
     7
420
 16777215
176
     1
 90
        0
176
     1
 90
        0
176
     1
 62
     7
176
     1
 62
   257
176
     1
 90
        1
176
     1
 90
        1
176
     1
 40
1.0
176
     1
 90
        0
176
     1
 62
     7
176
     1
 40
1.0
176
     1
 90
        1
176
     1
 90
        6
176
     1
 90
        2
176
     1
 62
     7
176
     1
 90
        5
176
     1
 90
        0
176
     1
 90
        0
176
     1
290
     0
176
     1
 90
       13
176
     1
 40
0.0
176
     1
 90
        0
176
     1
290
     0
176
     1
290
     1
176
     1
290
     1
176
     1
290
     0
176
     1
290
     0
176
     1
290
     0
176
     1
290
     0
176
     1
290
     0
176
     1
290
     0
176
     1
 90
       50
176
     1
 40
0.0
176
     1
 40
1.0
176
     1
 90
        0
176
     1
 62
    18
420
        0
176
     1
 90
       50
176
     1
 90
        3
176
     1
 62
     5
420
      255
176
     1
290
     0
176
     1
 90
       50
176
     1
 90
       50
176
     1
 90
       50
176
     1
290
     0
176
     1
 90
       50
176
     1
 62
   256
176
     0
 40
1.0
176
     0
 90
        2
176
     1
  1
strokes_ogs.tif
176
     1
290
     0
176
     1
 40
1.0
176
     1
 40
1.0
176
     1
  0
VISUALSTYLE
  5
2E
102
{ACAD_REACTORS
330
2A
102
}
330
2A
100
AcDbVisualStyle
  2
GouraudWithEdges
 70
     3
177
     3
291
     1
 70
    58
 90
        2
176
     1
 90
        2
176
     1
 90
        1
176
     1
 90
        2
176
     1
 40
0.6
176
     1
 40
30.0
176
     1
 62
     7
420
 16777215
176
     1
 90
        1
176
     1
 90
        0
176
     1
 62
     7
176
     1
 62
   257
176
     1
 90
        1
176
     1
 90
        1
176
     1
 40
1.0
176
     1
 90
        0
176
     1
 62
   257
176
     1
 40
1.0
176
     1
 90
        1
176
     1
 90
        6
176
     1
 90
        2
176
     1
 62
     7
176
     1
 90
        5
176
     1
 90
        0
176
     1
 90
        0
176
     1
290
     0
176
     1
 90
       13
176
     1
 40
0.0
176
     1
 90
        0
176
     1
290
     0
176
     1
290
     1
176
     1
290
     1
176
     1
290
     0
176
     1
290
     0
176
     1
290
     0
176
     1
290
     0
176
     1
290
     0
176
     1
290
     0
176
     1
 90
       50
176
     1
 40
0.0
176
     1
 40
1.0
176
     1
 90
        0
176
     1
 62
    18
420
        0
176
     1
 90
       50
176
     1
 90
        3
176
     1
 62
     5
420
      255
176
     1
290
     0
176
     1
 90
       50
176
     1
 90
       50
176
     1
 90
       50
176
     1
290
     0
176
     1
 90
       50
176
     1
 62
   256
176
     0
 40
1.0
176
     0
 90
        2
176
     1
  1
strokes_ogs.tif
176
     1
290
     0
176
     1
 40
1.0
176
     1
 40
1.0
176
     1
  0
VISUALSTYLE
  5
31
102
{ACAD_REACTORS
330
2A
102
}
330
2A
100
AcDbVisualStyle
  2
Hidden
 70
     6
177
     3
291
     0
 70
    58
 90
        1
176
     1
 90
        2
176
     1
 90
        2
176
     1
 90
        0
176
     1
 40
0.6
176
     1
 40
30.0
176
     1
 62
     7
420
 16777215
176
     1
 90
        2
176
     1
 90
        2
176
     1
 62
     7
176
     1
 62
   257
176
     1
 90
        2
176
     1
 90
        1
176
     1
 40
40.0
176
     1
 90
        0
176
     1
 62
   257
176
     1
 40
1.0
176
     1
 90
        1
176
     1
 90
        6
176
     1
 90
        2
176
     1
 62
     7
176
     1
 90
        3
176
     1
 90
        0
176
     1
 90
        0
176
     1
290
     0
176
     1
 90
        1
176
     1
 40
0.0
176
     1
 90
        0
176
     1
290
     0
176
     1
290
     1
176
     1
290
     1
176
     1
290
     0
176
     1
290
     0
176
     1
290
     0
176
     1
290
     0
176
     1
290
     0
176
     1
290
     0
176
     1
 90
       50
176
     1
 40
0.0
176
     1
 40
1.0
176
     1
 90
        0
176
     1
 62
    18
420
        0
176
     1
 90
       50
176
     1
 90
        3
176
     1
 62
     5
420
      255
176
     1
290
     0
176
     1
 90
       50
176
     1
 90
       50
176
     1
 90
       50
176
     1
290
     0
176
     1
 90
       50
176
     1
 62
   256
176
     0
 40
1.0
176
     0
 90
        2
176
     1
  1
strokes_ogs.tif
176
     1
290
     0
176
     1
 40
1.0
176
     1
 40
1.0
176
     1
  0
VISUALSTYLE
  5
3B
102
{ACAD_REACTORS
330
2A
102
}
330
2A
100
AcDbVisualStyle
  2
JitterOff
 70
    20
177
     3
291
     1
 70
    58
 90
        2
176
     0
 90
        2
176
     0
 90
        0
176
     0
 90
        0
176
     0
 40
0.6
176
     0
 40
30.0
176
     0
 62
     7
420
 16777215
176
     0
 90
        1
176
     0
 90
        4
176
     0
 62
     7
176
     0
 62
   257
176
     0
 90
        1
176
     0
 90
        1
176
     0
 40
1.0
176
     0
 90
       10
176
     2
 62
     7
176
     0
 40
1.0
176
     0
 90
        1
176
     0
 90
        6
176
     0
 90
        2
176
     0
 62
     7
176
     0
 90
        5
176
     0
 90
        0
176
     0
 90
        0
176
     0
290
     0
176
     0
 90
        1
176
     0
 40
0.0
176
     0
 90
        0
176
     0
290
     0
176
     0
290
     1
176
     0
290
     1
176
     0
290
     0
176
     0
290
     0
176
     0
290
     0
176
     0
290
     0
176
     0
290
     0
176
     0
290
     0
176
     0
 90
       50
176
     0
 40
0.0
176
     0
 40
1.0
176
     0
 90
        0
176
     0
 62
    18
420
        0
176
     0
 90
       50
176
     0
 90
        3
176
     0
 62
     5
420
      255
176
     0
290
     0
176
     0
 90
       50
176
     0
 90
       50
176
     0
 90
       50
176
     0
290
     0
176
     0
 90
       50
176
     0
 62
   256
176
     0
 40
1.0
176
     0
 90
        2
176
     0
  1
strokes_ogs.tif
176
     0
290
     0
176
     0
 40
1.0
176
     0
 40
1.0
176
     0
  0
VISUALSTYLE
  5
38
102
{ACAD_REACTORS
330
2A
102
}
330
2A
100
AcDbVisualStyle
  2
Linepattern
 70
    14
177
     3
291
     1
 70
    58
 90
        2
176
     1
 90
        2
176
     1
 90
        0
176
     1
 90
        0
176
     1
 40
0.6
176
     1
 40
30.0
176
     1
 62
     7
420
 16777215
176
     1
 90
        1
176
     1
 90
        4
176
     1
 62
     7
176
     1
 62
   257
176
     1
 90
        7
176
     1
 90
        7
176
     1
 40
1.0
176
     1
 90
        8
176
     1
 62
     7
176
     1
 40
1.0
176
     1
 90
        1
176
     1
 90
        6
176
     1
 90
        2
176
     1
 62
     7
176
     1
 90
        5
176
     1
 90
        0
176
     1
 90
        0
176
     1
290
     0
176
     1
 90
        1
176
     1
 40
0.0
176
     1
 90
        0
176
     1
290
     0
176
     1
290
     1
176
     1
290
     1
176
     1
290
     0
176
     1
290
     0
176
     1
290
     0
176
     1
290
     0
176
     1
290
     0
176
     1
290
     0
176
     1
 90
       50
176
     1
 40
0.0
176
     1
 40
1.0
176
     1
 90
        0
176
     1
 62
    18
420
        0
176
     1
 90
       50
176
     1
 90
        3
176
     1
 62
     5
420
      255
176
     1
290
     0
176
     1
 90
       50
176
     1
 90
       50
176
     1
 90
       50
176
     1
290
     0
176
     1
 90
       50
176
     1
 62
   256
176
     0
 40
1.0
176
     0
 90
        2
176
     1
  1
strokes_ogs.tif
176
     1
290
     0
176
     1
 40
1.0
176
     1
 40
1.0
176
     1
  0
VISUALSTYLE
  5
3C
102
{ACAD_REACTORS
330
2A
102
}
330
2A
100
AcDbVisualStyle
  2
OverhangOff
 70
    21
177
     3
291
     1
 70
    58
 90
        2
176
     0
 90
        2
176
     0
 90
        0
176
     0
 90
        0
176
     0
 40
0.6
176
     0
 40
30.0
176
     0
 62
     7
420
 16777215
176
     0
 90
        1
176
     0
 90
        4
176
     0
 62
     7
176
     0
 62
   257
176
     0
 90
        1
176
     0
 90
        1
176
     0
 40
1.0
176
     0
 90
        9
176
     2
 62
     7
176
     0
 40
1.0
176
     0
 90
        1
176
     0
 90
        6
176
     0
 90
        2
176
     0
 62
     7
176
     0
 90
        5
176
     0
 90
        0
176
     0
 90
        0
176
     0
290
     0
176
     0
 90
        1
176
     0
 40
0.0
176
     0
 90
        0
176
     0
290
     0
176
     0
290
     1
176
     0
290
     1
176
     0
290
     0
176
     0
290
     0
176
     0
290
     0
176
     0
290
     0
176
     0
290
     0
176
     0
290
     0
176
     0
 90
       50
176
     0
 40
0.0
176
     0
 40
1.0
176
     0
 90
        0
176
     0
 62
    18
420
        0
176
     0
 90
       50
176
     0
 90
        3
176
     0
 62
     5
420
      255
176
     0
290
     0
176
     0
 90
       50
176
     0
 90
       50
176
     0
 90
       50
176
     0
290
     0
176
     0
 90
       50
176
     0
 62
   256
176
     0
 40
1.0
176
     0
 90
        2
176
     0
  1
strokes_ogs.tif
176
     0
290
     0
176
     0
 40
1.0
176
     0
 40
1.0
176
     0
  0
VISUALSTYLE
  5
33
102
{ACAD_REACTORS
330
2A
102
}
330
2A
100
AcDbVisualStyle
  2
Realistic
 70
     8
177
     3
291
     0
 70
    58
 90
        2
176
     1
 90
        3
176
     1
 90
        0
176
     1
 90
        2
176
     1
 40
0.6
176
     1
 40
30.0
176
     1
 62
     7
420
 16777215
176
     1
 90
        0
176
     1
 90
        0
176
     1
 62
     7
176
     1
 62
   257
176
     1
 90
        1
176
     1
 90
        1
176
     1
 40
1.0
176
     1
 90
        8
176
     1
 62
   257
176
     1
 40
1.0
176
     1
 90
        1
176
     1
 90
        6
176
     1
 90
        2
176
     1
 62
     7
176
     1
 90
        3
176
     1
 90
        0
176
     1
 90
        0
176
     1
290
     0
176
     1
 90
       13
176
     1
 40
0.0
176
     1
 90
        0
176
     1
290
     0
176
     1
290
     1
176
     1
290
     1
176
     1
290
     0
176
     1
290
     0
176
     1
290
     0
176
     1
290
     0
176
     1
290
     0
176
     1
290
     0
176
     1
 90
       50
176
     1
 40
0.0
176
     1
 40
1.0
176
     1
 90
        0
176
     1
 62
    18
420
        0
176
     1
 90
       50
176
     1
 90
        3
176
     1
 62
     5
420
      255
176
     1
290
     0
176
     1
 90
       50
176
     1
 90
       50
176
     1
 90
       50
176
     1
290
     0
176
     1
 90
       50
176
     1
 62
   256
176
     0
 40
1.0
176
     0
 90
        2
176
     1
  1
strokes_ogs.tif
176
     1
290
     0
176
     1
 40
1.0
176
     1
 40
1.0
176
     1
  0
VISUALSTYLE
  5
42
102
{ACAD_REACTORS
330
2A
102
}
330
2A
100
AcDbVisualStyle
  2
Shaded
 70
    27
177
     3
291
     0
 70
    58
 90
        2
176
     1
 90
        2
176
     1
 90
        1
176
     1
 90
        2
176
     1
 40
0.6
176
     1
 40
30.0
176
     1
 62
     7
420
 16777215
176
     1
 90
        0
176
     1
 90
        4
176
     1
 62
     7
176
     1
 62
   257
176
     1
 90
        1
176
     1
 90
        1
176
     1
 40
1.0
176
     1
 90
        8
176
     1
 62
   257
176
     1
 40
1.0
176
     1
 90
        1
176
     1
 90
        6
176
     1
 90
        2
176
     1
 62
     8
420
  7895160
176
     1
 90
        3
176
     1
 90
        0
176
     1
 90
        0
176
     1
290
     0
176
     1
 90
        5
176
     1
 40
0.0
176
     1
 90
        0
176
     1
290
     0
176
     1
290
     1
176
     1
290
     1
176
     1
290
     0
176
     1
290
     0
176
     1
290
     0
176
     1
290
     0
176
     1
290
     0
176
     1
290
     0
176
     1
 90
       50
176
     1
 40
0.0
176
     1
 40
1.0
176
     1
 90
        0
176
     1
 62
    18
420
        0
176
     1
 90
       50
176
     1
 90
        3
176
     1
 62
     5
420
      255
176
     1
290
     0
176
     1
 90
       50
176
     1
 90
       50
176
     1
 90
       50
176
     1
290
     0
176
     1
 90
       50
176
     1
 62
   256
176
     0
 40
1.0
176
     0
 90
        2
176
     1
  1
strokes_ogs.tif
176
     1
290
     0
176
     1
 40
1.0
176
     1
 40
1.0
176
     1
  0
VISUALSTYLE
  5
41
102
{ACAD_REACTORS
330
2A
102
}
330
2A
100
AcDbVisualStyle
  2
Shaded with edges
 70
    26
177
     3
291
     0
 70
    58
 90
        2
176
     1
 90
        2
176
     1
 90
        1
176
     1
 90
        2
176
     1
 40
0.6
176
     1
 40
30.0
176
     1
 62
     7
420
 16777215
176
     1
 90
        1
176
     1
 90
       10
176
     1
 62
     7
176
     1
 62
   257
176
     1
 90
        2
176
     1
 90
        1
176
     1
 40
1.0
176
     1
 90
        8
176
     1
 62
   257
176
     1
 40
1.0
176
     1
 90
        1
176
     1
 90
        6
176
     1
 90
        2
176
     1
 62
     7
176
     1
 90
        3
176
     1
 90
        0
176
     1
 90
        0
176
     1
290
     0
176
     1
 90
        5
176
     1
 40
0.0
176
     1
 90
        0
176
     1
290
     0
176
     1
290
     1
176
     1
290
     1
176
     1
290
     0
176
     1
290
     0
176
     1
290
     0
176
     1
290
     0
176
     1
290
     0
176
     1
290
     0
176
     1
 90
       50
176
     1
 40
0.0
176
     1
 40
1.0
176
     1
 90
        0
176
     1
 62
    18
420
        0
176
     1
 90
       50
176
     1
 90
        3
176
     1
 62
     5
420
      255
176
     1
290
     0
176
     1
 90
       50
176
     1
 90
       50
176
     1
 90
       50
176
     1
290
     0
176
     1
 90
       50
176
     1
 62
   256
176
     0
 40
1.0
176
     0
 90
        2
176
     1
  1
strokes_ogs.tif
176
     1
290
     0
176
     1
 40
1.0
176
     1
 40
1.0
176
     1
  0
VISUALSTYLE
  5
3E
102
{ACAD_REACTORS
330
2A
102
}
330
2A
100
AcDbVisualStyle
  2
Shades of Gray
 70
    23
177
     3
291
     0
 70
    58
 90
        2
176
     1
 90
        2
176
     1
 90
        3
176
     1
 90
        0
176
     1
 40
0.6
176
     1
 40
30.0
176
     1
 62
     7
420
 16777215
176
     1
 90
        2
176
     1
 90
        2
176
     1
 62
     7
176
     1
 62
     7
176
     1
 90
        1
176
     1
 90
        1
176
     1
 40
40.0
176
     1
 90
        8
176
     1
 62
     7
176
     1
 40
1.0
176
     1
 90
        1
176
     1
 90
        6
176
     1
 90
        2
176
     1
 62
     7
176
     1
 90
        3
176
     1
 90
        0
176
     1
 90
        0
176
     1
290
     0
176
     1
 90
        1
176
     1
 40
0.0
176
     1
 90
        0
176
     1
290
     0
176
     1
290
     1
176
     1
290
     1
176
     1
290
     0
176
     1
290
     0
176
     1
290
     0
176
     1
290
     0
176
     1
290
     0
176
     1
290
     0
176
     1
 90
       50
176
     1
 40
0.0
176
     1
 40
1.0
176
     1
 90
        0
176
     1
 62
    18
420
        0
176
     1
 90
       50
176
     1
 90
        3
176
     1
 62
     5
420
      255
176
     1
290
     0
176
     1
 90
       50
176
     1
 90
       50
176
     1
 90
       50
176
     1
290
     0
176
     1
 90
       50
176
     1
 62
   256
176
     0
 40
1.0
176
     0
 90
        2
176
     1
  1
strokes_ogs.tif
176
     1
290
     0
176
     1
 40
1.0
176
     1
 40
1.0
176
     1
  0
VISUALSTYLE
  5
3F
102
{ACAD_REACTORS
330
2A
102
}
330
2A
100
AcDbVisualStyle
  2
Sketchy
 70
    24
177
     3
291
     0
 70
    58
 90
        1
176
     1
 90
        2
176
     1
 90
        2
176
     1
 90
        0
176
     1
 40
0.6
176
     1
 40
30.0
176
     1
 62
     7
420
 16777215
176
     1
 90
        2
176
     1
 90
        2
176
     1
 62
     7
176
     1
 62
     7
176
     1
 90
        1
176
     1
 90
        1
176
     1
 40
40.0
176
     1
 90
       11
176
     1
 62
     7
176
     1
 40
1.0
176
     1
 90
        1
176
     1
 90
        6
176
     1
 90
        2
176
     1
 62
     7
176
     1
 90
        6
176
     1
 90
        0
176
     1
 90
        0
176
     1
290
     0
176
     1
 90
        1
176
     1
 40
0.0
176
     1
 90
        0
176
     1
290
     0
176
     1
290
     1
176
     1
290
     1
176
     1
290
     0
176
     1
290
     0
176
     1
290
     0
176
     1
290
     0
176
     1
290
     0
176
     1
290
     0
176
     1
 90
       50
176
     1
 40
0.0
176
     1
 40
1.0
176
     1
 90
        0
176
     1
 62
    18
420
        0
176
     1
 90
       50
176
     1
 90
        3
176
     1
 62
     5
420
      255
176
     1
290
     0
176
     1
 90
       50
176
     1
 90
       50
176
     1
 90
       50
176
     1
290
     0
176
     1
 90
       50
176
     1
 62
   256
176
     0
 40
1.0
176
     0
 90
        2
176
     1
  1
strokes_ogs.tif
176
     1
290
     0
176
     1
 40
1.0
176
     1
 40
1.0
176
     1
  0
VISUALSTYLE
  5
37
102
{ACAD_REACTORS
330
2A
102
}
330
2A
100
AcDbVisualStyle
  2
Thicken
 70
    13
177
     3
291
     1
 70
    58
 90
        2
176
     1
 90
        2
176
     1
 90
        0
176
     1
 90
        0
176
     1
 40
0.6
176
     1
 40
30.0
176
     1
 62
     7
420
 16777215
176
     1
 90
        1
176
     1
 90
        4
176
     1
 62
     7
176
     1
 62
   257
176
     1
 90
        1
176
     1
 90
        1
176
     1
 40
1.0
176
     1
 90
       12
176
     1
 62
     7
176
     1
 40
1.0
176
     1
 90
        1
176
     1
 90
        6
176
     1
 90
        2
176
     1
 62
     7
176
     1
 90
        5
176
     1
 90
        0
176
     1
 90
        0
176
     1
290
     0
176
     1
 90
        1
176
     1
 40
0.0
176
     1
 90
        0
176
     1
290
     0
176
     1
290
     1
176
     1
290
     1
176
     1
290
     0
176
     1
290
     0
176
     1
290
     0
176
     1
290
     0
176
     1
290
     0
176
     1
290
     0
176
     1
 90
       50
176
     1
 40
0.0
176
     1
 40
1.0
176
     1
 90
        0
176
     1
 62
    18
420
        0
176
     1
 90
       50
176
     1
 90
        3
176
     1
 62
     5
420
      255
176
     1
290
     0
176
     1
 90
       50
176
     1
 90
       50
176
     1
 90
       50
176
     1
290
     0
176
     1
 90
       50
176
     1
 62
   256
176
     0
 40
1.0
176
     0
 90
        2
176
     1
  1
strokes_ogs.tif
176
     1
290
     0
176
     1
 40
1.0
176
     1
 40
1.0
176
     1
  0
VISUALSTYLE
  5
30
102
{ACAD_REACTORS
330
2A
102
}
330
2A
100
AcDbVisualStyle
  2
Wireframe
 70
     5
177
     3
291
     0
 70
    58
 90
        0
176
     1
 90
        2
176
     1
 90
        0
176
     1
 90
        0
176
     1
 40
0.6
176
     1
 40
30.0
176
     1
 62
     7
420
 16777215
176
     1
 90
        1
176
     1
 90
        4
176
     1
 62
     7
176
     1
 62
   257
176
     1
 90
        1
176
     1
 90
        1
176
     1
 40
1.0
176
     1
 90
        0
176
     1
 62
   257
176
     1
 40
1.0
176
     1
 90
        1
176
     1
 90
        6
176
     1
 90
        2
176
     1
 62
     7
176
     1
 90
        3
176
     1
 90
        0
176
     1
 90
        0
176
     1
290
     0
176
     1
 90
        1
176
     1
 40
0.0
176
     1
 90
        0
176
     1
290
     0
176
     1
290
     1
176
     1
290
     1
176
     1
290
     0
176
     1
290
     0
176
     1
290
     0
176
     1
290
     0
176
     1
290
     0
176
     1
290
     0
176
     1
 90
       50
176
     1
 40
0.0
176
     1
 40
1.0
176
     1
 90
        0
176
     1
 62
    18
420
        0
176
     1
 90
       50
176
     1
 90
        3
176
     1
 62
     5
420
      255
176
     1
290
     0
176
     1
 90
       50
176
     1
 90
       50
176
     1
 90
       50
176
     1
290
     0
176
     1
 90
       50
176
     1
 62
   256
176
     0
 40
1.0
176
     0
 90
        2
176
     1
  1
strokes_ogs.tif
176
     1
290
     0
176
     1
 40
1.0
176
     1
 40
1.0
176
     1
  0
VISUALSTYLE
  5
40
102
{ACAD_REACTORS
330
2A
102
}
330
2A
100
AcDbVisualStyle
  2
X-Ray
 70
    25
177
     3
291
     0
 70
    58
 90
        2
176
     1
 90
        2
176
     1
 90
        1
176
     1
 90
        1
176
     1
 40
0.5
176
     1
 40
30.0
176
     1
 62
     7
420
 16777215
176
     1
 90
        1
176
     1
 90
        0
176
     1
 62
     7
176
     1
 62
   257
176
     1
 90
        1
176
     1
 90
        1
176
     1
 40
1.0
176
     1
 90
        8
176
     1
 62
     7
176
     1
 40
1.0
176
     1
 90
        1
176
     1
 90
        6
176
     1
 90
        2
176
     1
 62
     7
176
     1
 90
        3
176
     1
 90
        0
176
     1
 90
        0
176
     1
290
     0
176
     1
 90
       13
176
     1
 40
0.0
176
     1
 90
        0
176
     1
290
     0
176
     1
290
     1
176
     1
290
     1
176
     1
290
     0
176
     1
290
     0
176
     1
290
     0
176
     1
290
     0
176
     1
290
     0
176
     1
290
     0
176
     1
 90
       50
176
     1
 40
0.0
176
     1
 40
1.0
176
     1
 90
        0
176
     1
 62
    18
420
        0
176
     1
 90
       50
176
     1
 90
        3
176
     1
 62
     5
420
      255
176
     1
290
     0
176
     1
 90
       50
176
     1
 90
       50
176
     1
 90
       50
176
     1
290
     0
176
     1
 90
       50
176
     1
 62
   256
176
     0
 40
1.0
176
     0
 90
        2
176
     1
  1
strokes_ogs.tif
176
     1
290
     0
176
     1
 40
1.0
176
     1
 40
1.0
176
     1
  0
DICTIONARYVAR
  5
15C
102
{ACAD_REACTORS
330
15B
102
}
330
15B
100
DictionaryVariables
280
     0
  1
1:1
  0
DICTIONARYVAR
  5
161
102
{ACAD_REACTORS
330
15B
102
}
330
15B
100
DictionaryVariables
280
     0
  1
Standard
  0
DICTIONARYVAR
  5
160
102
{ACAD_REACTORS
330
15B
102
}
330
15B
100
DictionaryVariables
280
     0
  1
Standard
  0
DICTIONARY
  5
15D
330
5A
100
AcDbDictionary
280
     1
281
     1
  3
ACAD_ROUNDTRIP_2008_TABLESTYLE_CELLSTYLEMAP
360
15E
  0
CELLSTYLEMAP
  5
15E
102
{ACAD_REACTORS
330
15D
102
}
330
15D
100
AcDbCellStyleMap
 90
        3
300
CELLSTYLE
  1
TABLEFORMAT_BEGIN
 90
        5
170
     1
 91
        0
 92
    32768
 62
   257
 93
        1
300
CONTENTFORMAT
  1
CONTENTFORMAT_BEGIN
 90
        0
 91
        0
 92
        4
 93
        0
300

 40
0.0
140
1.0
 94
        5
 62
     0
340
11
144
0.25
309
CONTENTFORMAT_END
171
     1
301
MARGIN
  1
CELLMARGIN_BEGIN
 40
0.06
 40
0.06
 40
0.06
 40
0.06
 40
0.06
 40
0.06
309
CELLMARGIN_END
 94
        6
 95
        1
302
GRIDFORMAT
  1
GRIDFORMAT_BEGIN
 90
        0
 91
        1
 62
     0
 92
       -2
340
14
 93
        0
 40
0.045
309
GRIDFORMAT_END
 95
        2
302
GRIDFORMAT
  1
GRIDFORMAT_BEGIN
 90
        0
 91
        1
 62
     0
 92
       -2
340
14
 93
        0
 40
0.045
309
GRIDFORMAT_END
 95
        4
302
GRIDFORMAT
  1
GRIDFORMAT_BEGIN
 90
        0
 91
        1
 62
     0
 92
       -2
340
14
 93
        0
 40
0.045
309
GRIDFORMAT_END
 95
        8
302
GRIDFORMAT
  1
GRIDFORMAT_BEGIN
 90
        0
 91
        1
 62
     0
 92
       -2
340
14
 93
        0
 40
0.045
309
GRIDFORMAT_END
 95
       16
302
GRIDFORMAT
  1
GRIDFORMAT_BEGIN
 90
        0
 91
        1
 62
     0
 92
       -2
340
14
 93
        0
 40
0.045
309
GRIDFORMAT_END
 95
       32
302
GRIDFORMAT
  1
GRIDFORMAT_BEGIN
 90
        0
 91
        1
 62
     0
 92
       -2
340
14
 93
        0
 40
0.045
309
GRIDFORMAT_END
309
TABLEFORMAT_END
  1
CELLSTYLE_BEGIN
 90
        1
 91
        1
300
_TITLE
309
CELLSTYLE_END
300
CELLSTYLE
  1
TABLEFORMAT_BEGIN
 90
        5
170
     1
 91
        0
 92
        0
 62
   257
 93
        1
300
CONTENTFORMAT
  1
CONTENTFORMAT_BEGIN
 90
        0
 91
        0
 92
        4
 93
        0
300

 40
0.0
140
1.0
 94
        5
 62
     0
340
11
144
0.18
309
CONTENTFORMAT_END
171
     1
301
MARGIN
  1
CELLMARGIN_BEGIN
 40
0.06
 40
0.06
 40
0.06
 40
0.06
 40
0.06
 40
0.06
309
CELLMARGIN_END
 94
        6
 95
        1
302
GRIDFORMAT
  1
GRIDFORMAT_BEGIN
 90
        0
 91
        1
 62
     0
 92
       -2
340
14
 93
        0
 40
0.045
309
GRIDFORMAT_END
 95
        2
302
GRIDFORMAT
  1
GRIDFORMAT_BEGIN
 90
        0
 91
        1
 62
     0
 92
       -2
340
14
 93
        0
 40
0.045
309
GRIDFORMAT_END
 95
        4
302
GRIDFORMAT
  1
GRIDFORMAT_BEGIN
 90
        0
 91
        1
 62
     0
 92
       -2
340
14
 93
        0
 40
0.045
309
GRIDFORMAT_END
 95
        8
302
GRIDFORMAT
  1
GRIDFORMAT_BEGIN
 90
        0
 91
        1
 62
     0
 92
       -2
340
14
 93
        0
 40
0.045
309
GRIDFORMAT_END
 95
       16
302
GRIDFORMAT
  1
GRIDFORMAT_BEGIN
 90
        0
 91
        1
 62
     0
 92
       -2
340
14
 93
        0
 40
0.045
309
GRIDFORMAT_END
 95
       32
302
GRIDFORMAT
  1
GRIDFORMAT_BEGIN
 90
        0
 91
        1
 62
     0
 92
       -2
340
14
 93
        0
 40
0.045
309
GRIDFORMAT_END
309
TABLEFORMAT_END
  1
CELLSTYLE_BEGIN
 90
        2
 91
        1
300
_HEADER
309
CELLSTYLE_END
300
CELLSTYLE
  1
TABLEFORMAT_BEGIN
 90
        5
170
     1
 91
        0
 92
        0
 62
   257
 93
        1
300
CONTENTFORMAT
  1
CONTENTFORMAT_BEGIN
 90
        0
 91
        0
 92
        4
 93
        0
300

 40
0.0
140
1.0
 94
        2
 62
     0
340
11
144
0.18
309
CONTENTFORMAT_END
171
     1
301
MARGIN
  1
CELLMARGIN_BEGIN
 40
0.06
 40
0.06
 40
0.06
 40
0.06
 40
0.06
 40
0.06
309
CELLMARGIN_END
 94
        6
 95
        1
302
GRIDFORMAT
  1
GRIDFORMAT_BEGIN
 90
        0
 91
        1
 62
     0
 92
       -2
340
14
 93
        0
 40
0.045
309
GRIDFORMAT_END
 95
        2
302
GRIDFORMAT
  1
GRIDFORMAT_BEGIN
 90
        0
 91
        1
 62
     0
 92
       -2
340
14
 93
        0
 40
0.045
309
GRIDFORMAT_END
 95
        4
302
GRIDFORMAT
  1
GRIDFORMAT_BEGIN
 90
        0
 91
        1
 62
     0
 92
       -2
340
14
 93
        0
 40
0.045
309
GRIDFORMAT_END
 95
        8
302
GRIDFORMAT
  1
GRIDFORMAT_BEGIN
 90
        0
 91
        1
 62
     0
 92
       -2
340
14
 93
        0
 40
0.045
309
GRIDFORMAT_END
 95
       16
302
GRIDFORMAT
  1
GRIDFORMAT_BEGIN
 90
        0
 91
        1
 62
     0
 92
       -2
340
14
 93
        0
 40
0.045
309
GRIDFORMAT_END
 95
       32
302
GRIDFORMAT
  1
GRIDFORMAT_BEGIN
 90
        0
 91
        1
 62
     0
 92
       -2
340
14
 93
        0
 40
0.045
309
GRIDFORMAT_END
309
TABLEFORMAT_END
  1
CELLSTYLE_BEGIN
 90
        3
 91
        2
300
_DATA
309
CELLSTYLE_END
  0
ENDSEC
  0
EOF
