  0
SECTION
  2
HEADER
  9
$ACADVER
  1
AC1027
  9
$ACADMAINTVER
 70
   105
  9
$DWGCODEPAGE
  3
ANSI_1252
  9
$LASTSAVEDBY
  1
Office Desk
  9
$REQUIREDVERSIONS
160
                 0
  9
$INSBASE
 10
0.0
 20
0.0
 30
0.0
  9
$EXTMIN
 10
595.9774
 20
-303.0627
 30
0.0
  9
$EXTMAX
 10
1396.4854
 20
583.1211
 30
0.0
  9
$LIMMIN
 10
0.0
 20
0.0
  9
$LIMMAX
 10
12.0
 20
9.0
  9
$ORTHOMODE
 70
     0
  9
$REGENMODE
 70
     1
  9
$FILLMODE
 70
     1
  9
$QTEXTMODE
 70
     0
  9
$MIRRTEXT
 70
     1
  9
$LTSCALE
 40
1.0
  9
$ATTMODE
 70
     1
  9
$TEXTSIZE
 40
0.2
  9
$TRACEWID
 40
0.05
  9
$TEXTSTYLE
  7
Standard
  9
$CLAYER
  8
0
  9
$CELTYPE
  6
ByLayer
  9
$CECOLOR
 62
   256
  9
$CELTSCALE
 40
1.0
  9
$DISPSILH
 70
     0
  9
$DIMSCALE
 40
1.0
  9
$DIMASZ
 40
0.18
  9
$DIMEXO
 40
0.0625
  9
$DIMDLI
 40
0.38
  9
$DIMRND
 40
0.0
  9
$DIMDLE
 40
0.0
  9
$DIMEXE
 40
0.18
  9
$DIMTP
 40
0.0
  9
$DIMTM
 40
0.0
  9
$DIMTXT
 40
0.18
  9
$DIMCEN
 40
0.09
  9
$DIMTSZ
 40
0.0
  9
$DIMTOL
 70
     0
  9
$DIMLIM
 70
     0
  9
$DIMTIH
 70
     1
  9
$DIMTOH
 70
     1
  9
$DIMSE1
 70
     0
  9
$DIMSE2
 70
     0
  9
$DIMTAD
 70
     0
  9
$DIMZIN
 70
     0
  9
$DIMBLK
  1

  9
$DIMASO
 70
     1
  9
$DIMSHO
 70
     1
  9
$DIMPOST
  1

  9
$DIMAPOST
  1

  9
$DIMALT
 70
     0
  9
$DIMALTD
 70
     2
  9
$DIMALTF
 40
25.4
  9
$DIMLFAC
 40
1.0
  9
$DIMTOFL
 70
     0
  9
$DIMTVP
 40
0.0
  9
$DIMTIX
 70
     0
  9
$DIMSOXD
 70
     0
  9
$DIMSAH
 70
     0
  9
$DIMBLK1
  1

  9
$DIMBLK2
  1

  9
$DIMSTYLE
  2
Standard
  9
$DIMCLRD
 70
     0
  9
$DIMCLRE
 70
     0
  9
$DIMCLRT
 70
     0
  9
$DIMTFAC
 40
1.0
  9
$DIMGAP
 40
0.09
  9
$DIMJUST
 70
     0
  9
$DIMSD1
 70
     0
  9
$DIMSD2
 70
     0
  9
$DIMTOLJ
 70
     1
  9
$DIMTZIN
 70
     0
  9
$DIMALTZ
 70
     0
  9
$DIMALTTZ
 70
     0
  9
$DIMUPT
 70
     0
  9
$DIMDEC
 70
     4
  9
$DIMTDEC
 70
     4
  9
$DIMALTU
 70
     2
  9
$DIMALTTD
 70
     2
  9
$DIMTXSTY
  7
Standard
  9
$DIMAUNIT
 70
     0
  9
$DIMADEC
 70
     0
  9
$DIMALTRND
 40
0.0
  9
$DIMAZIN
 70
     0
  9
$DIMDSEP
 70
    46
  9
$DIMATFIT
 70
     3
  9
$DIMFRAC
 70
     0
  9
$DIMLDRBLK
  1

  9
$DIMLUNIT
 70
     2
  9
$DIMLWD
 70
    -2
  9
$DIMLWE
 70
    -2
  9
$DIMTMOVE
 70
     0
  9
$DIMFXL
 40
1.0
  9
$DIMFXLON
 70
     0
  9
$DIMJOGANG
 40
0.7853981633974483
  9
$DIMTFILL
 70
     0
  9
$DIMTFILLCLR
 70
     0
  9
$DIMARCSYM
 70
     0
  9
$DIMLTYPE
  6

  9
$DIMLTEX1
  6

  9
$DIMLTEX2
  6

  9
$DIMTXTDIRECTION
 70
     0
  9
$LUNITS
 70
     2
  9
$LUPREC
 70
     4
  9
$SKETCHINC
 40
0.1
  9
$FILLETRAD
 40
0.0
  9
$AUNITS
 70
     0
  9
$AUPREC
 70
     0
  9
$MENU
  1
.
  9
$ELEVATION
 40
0.0
  9
$PELEVATION
 40
0.0
  9
$THICKNESS
 40
0.0
  9
$LIMCHECK
 70
     0
  9
$CHAMFERA
 40
0.0
  9
$CHAMFERB
 40
0.0
  9
$CHAMFERC
 40
0.0
  9
$CHAMFERD
 40
0.0
  9
$SKPOLY
 70
     0
  9
$TDCREATE
 40
2461000.603993322
  9
$TDUCREATE
 40
2461000.374826656
  9
$TDUPDATE
 40
2461000.603993947
  9
$TDUUPDATE
 40
2461000.37482728
  9
$TDINDWG
 40
0.0000000116
  9
$TDUSRTIMER
 40
0.0000000116
  9
$USRTIMER
 70
     1
  9
$ANGBASE
 50
0.0
  9
$ANGDIR
 70
     0
  9
$PDMODE
 70
     0
  9
$PDSIZE
 40
0.0
  9
$PLINEWID
 40
0.0
  9
$SPLFRAME
 70
     0
  9
$SPLINETYPE
 70
     6
  9
$SPLINESEGS
 70
     8
  9
$HANDSEED
  5
15C
  9
$SURFTAB1
 70
     6
  9
$SURFTAB2
 70
     6
  9
$SURFTYPE
 70
     6
  9
$SURFU
 70
     6
  9
$SURFV
 70
     6
  9
$UCSBASE
  2

  9
$UCSNAME
  2

  9
$UCSORG
 10
0.0
 20
0.0
 30
0.0
  9
$UCSXDIR
 10
1.0
 20
0.0
 30
0.0
  9
$UCSYDIR
 10
0.0
 20
1.0
 30
0.0
  9
$UCSORTHOREF
  2

  9
$UCSORTHOVIEW
 70
     0
  9
$UCSORGTOP
 10
0.0
 20
0.0
 30
0.0
  9
$UCSORGBOTTOM
 10
0.0
 20
0.0
 30
0.0
  9
$UCSORGLEFT
 10
0.0
 20
0.0
 30
0.0
  9
$UCSORGRIGHT
 10
0.0
 20
0.0
 30
0.0
  9
$UCSORGFRONT
 10
0.0
 20
0.0
 30
0.0
  9
$UCSORGBACK
 10
0.0
 20
0.0
 30
0.0
  9
$PUCSBASE
  2

  9
$PUCSNAME
  2

  9
$PUCSORG
 10
0.0
 20
0.0
 30
0.0
  9
$PUCSXDIR
 10
1.0
 20
0.0
 30
0.0
  9
$PUCSYDIR
 10
0.0
 20
1.0
 30
0.0
  9
$PUCSORTHOREF
  2

  9
$PUCSORTHOVIEW
 70
     0
  9
$PUCSORGTOP
 10
0.0
 20
0.0
 30
0.0
  9
$PUCSORGBOTTOM
 10
0.0
 20
0.0
 30
0.0
  9
$PUCSORGLEFT
 10
0.0
 20
0.0
 30
0.0
  9
$PUCSORGRIGHT
 10
0.0
 20
0.0
 30
0.0
  9
$PUCSORGFRONT
 10
0.0
 20
0.0
 30
0.0
  9
$PUCSORGBACK
 10
0.0
 20
0.0
 30
0.0
  9
$USERI1
 70
     0
  9
$USERI2
 70
     0
  9
$USERI3
 70
     0
  9
$USERI4
 70
     0
  9
$USERI5
 70
     0
  9
$USERR1
 40
0.0
  9
$USERR2
 40
0.0
  9
$USERR3
 40
0.0
  9
$USERR4
 40
0.0
  9
$USERR5
 40
0.0
  9
$WORLDVIEW
 70
     1
  9
$SHADEDGE
 70
     3
  9
$SHADEDIF
 70
    70
  9
$TILEMODE
 70
     1
  9
$MAXACTVP
 70
    64
  9
$PINSBASE
 10
0.0
 20
0.0
 30
0.0
  9
$PLIMCHECK
 70
     0
  9
$PEXTMIN
 10
1.000000000000000E+20
 20
1.000000000000000E+20
 30
1.000000000000000E+20
  9
$PEXTMAX
 10
-1.000000000000000E+20
 20
-1.000000000000000E+20
 30
-1.000000000000000E+20
  9
$PLIMMIN
 10
0.0
 20
0.0
  9
$PLIMMAX
 10
12.0
 20
9.0
  9
$UNITMODE
 70
     0
  9
$VISRETAIN
 70
     1
  9
$PLINEGEN
 70
     0
  9
$PSLTSCALE
 70
     1
  9
$TREEDEPTH
 70
  3020
  9
$CMLSTYLE
  2
Standard
  9
$CMLJUST
 70
     0
  9
$CMLSCALE
 40
1.0
  9
$PROXYGRAPHICS
 70
     1
  9
$MEASUREMENT
 70
     0
  9
$CELWEIGHT
370
    -1
  9
$ENDCAPS
280
     0
  9
$JOINSTYLE
280
     0
  9
$LWDISPLAY
290
     0
  9
$INSUNITS
 70
     4
  9
$HYPERLINKBASE
  1

  9
$STYLESHEET
  1

  9
$XEDIT
290
     1
  9
$CEPSNTYPE
380
     0
  9
$PSTYLEMODE
290
     1
  9
$FINGERPRINTGUID
  2
{f6297cdb-059c-4ba8-9d53-23bc47d645cf}
  9
$VERSIONGUID
  2
{FAEB1C32-E019-11D5-929B-00C0DF256EC4}
  9
$EXTNAMES
290
     1
  9
$PSVPSCALE
 40
0.0
  9
$OLESTARTUP
290
     0
  9
$SORTENTS
280
   127
  9
$INDEXCTL
280
     0
  9
$HIDETEXT
280
     1
  9
$XCLIPFRAME
280
     2
  9
$HALOGAP
280
     0
  9
$OBSCOLOR
 70
   257
  9
$OBSLTYPE
280
     0
  9
$INTERSECTIONDISPLAY
280
     0
  9
$INTERSECTIONCOLOR
 70
   257
  9
$DIMASSOC
280
     2
  9
$PROJECTNAME
  1

  9
$CAMERADISPLAY
290
     0
  9
$LENSLENGTH
 40
50.0
  9
$CAMERAHEIGHT
 40
0.0
  9
$STEPSPERSEC
 40
2.0
  9
$STEPSIZE
 40
6.0
  9
$3DDWFPREC
 40
2.0
  9
$PSOLWIDTH
 40
0.25
  9
$PSOLHEIGHT
 40
4.0
  9
$LOFTANG1
 40
1.570796326794897
  9
$LOFTANG2
 40
1.570796326794897
  9
$LOFTMAG1
 40
0.0
  9
$LOFTMAG2
 40
0.0
  9
$LOFTPARAM
 70
     7
  9
$LOFTNORMALS
280
     1
  9
$LATITUDE
 40
37.795
  9
$LONGITUDE
 40
-122.394
  9
$NORTHDIRECTION
 40
0.0
  9
$TIMEZONE
 70
 -8000
  9
$LIGHTGLYPHDISPLAY
280
     1
  9
$TILEMODELIGHTSYNCH
280
     1
  9
$CMATERIAL
347
44
  9
$SOLIDHIST
280
     0
  9
$SHOWHIST
280
     1
  9
$DWFFRAME
280
     2
  9
$DGNFRAME
280
     2
  9
$REALWORLDSCALE
290
     1
  9
$INTERFERECOLOR
 62
   256
  9
$CSHADOW
280
     0
  9
$SHADOWPLANELOCATION
 40
0.0
  0
ENDSEC
  0
SECTION
  2
CLASSES
  0
CLASS
  1
ACDBDICTIONARYWDFLT
  2
AcDbDictionaryWithDefault
  3
ObjectDBX Classes
 90
        0
 91
        3
280
     0
281
     0
  0
CLASS
  1
VISUALSTYLE
  2
AcDbVisualStyle
  3
ObjectDBX Classes
 90
     4095
 91
        3
280
     0
281
     0
  0
CLASS
  1
MATERIAL
  2
AcDbMaterial
  3
ObjectDBX Classes
 90
     1153
 91
        3
280
     0
281
     0
  0
CLASS
  1
SCALE
  2
AcDbScale
  3
ObjectDBX Classes
 90
     1153
 91
        3
280
     0
281
     0
  0
CLASS
  1
TABLESTYLE
  2
AcDbTableStyle
  3
ObjectDBX Classes
 90
     4095
 91
        3
280
     0
281
     0
  0
CLASS
  1
MLEADERSTYLE
  2
AcDbMLeaderStyle
  3
ACDB_MLEADERSTYLE_CLASS
 90
     4095
 91
        3
280
     0
281
     0
  0
CLASS
  1
SUN
  2
AcDbSun
  3
SCENEOE
 90
     1153
 91
        3
280
     0
281
     0
  0
CLASS
  1
IMAGEDEF
  2
AcDbRasterImageDef
  3
ISM
 90
        0
 91
        3
280
     0
281
     0
  0
CLASS
  1
IMAGE
  2
AcDbRasterImage
  3
ISM
 90
      127
 91
        4
280
     0
281
     1
  0
CLASS
  1
IMAGEDEF_REACTOR
  2
AcDbRasterImageDefReactor
  3
ISM
 90
        1
 91
        3
280
     0
281
     0
  0
CLASS
  1
DICTIONARYVAR
  2
AcDbDictionaryVar
  3
ObjectDBX Classes
 90
        0
 91
        3
280
     0
281
     0
  0
CLASS
  1
CELLSTYLEMAP
  2
AcDbCellStyleMap
  3
ObjectDBX Classes
 90
     1152
 91
        3
280
     0
281
     0
  0
ENDSEC
  0
SECTION
  2
TABLES
  0
TABLE
  2
VPORT
  5
8
330
0
100
AcDbSymbolTable
 70
     1
  0
VPORT
  5
29
330
8
100
AcDbSymbolTableRecord
100
AcDbViewportTableRecord
  2
*Active
 70
     0
 10
0.0
 20
0.0
 11
1.0
 21
1.0
 12
10.42990654205607
 22
4.5
 13
0.0
 23
0.0
 14
0.5
 24
0.5
 15
0.5
 25
0.5
 16
0.0
 26
0.0
 36
1.0
 17
0.0
 27
0.0
 37
0.0
 40
9.0
 41
1.972972972850329
 42
50.0
 43
0.0
 44
0.0
 50
0.0
 51
0.0
 71
     0
 72
   100
 73
     1
 74
     3
 75
     0
 76
     0
 77
     0
 78
     0
281
     0
 65
     1
110
0.0
120
0.0
130
0.0
111
1.0
121
0.0
131
0.0
112
0.0
122
1.0
132
0.0
 79
     0
146
0.0
348
2F
 60
     3
 61
     5
292
     1
282
     1
141
0.0
142
0.0
 63
   250
361
5D
  0
ENDTAB
  0
TABLE
  2
LTYPE
  5
5
330
0
100
AcDbSymbolTable
 70
     1
  0
LTYPE
  5
14
330
5
100
AcDbSymbolTableRecord
100
AcDbLinetypeTableRecord
  2
ByBlock
 70
     0
  3

 72
    65
 73
     0
 40
0.0
  0
LTYPE
  5
15
330
5
100
AcDbSymbolTableRecord
100
AcDbLinetypeTableRecord
  2
ByLayer
 70
     0
  3

 72
    65
 73
     0
 40
0.0
  0
LTYPE
  5
16
330
5
100
AcDbSymbolTableRecord
100
AcDbLinetypeTableRecord
  2
Continuous
 70
     0
  3
Solid line
 72
    65
 73
     0
 40
0.0
  0
ENDTAB
  0
TABLE
  2
LAYER
  5
2
330
0
100
AcDbSymbolTable
 70
     2
  0
LAYER
  5
10
330
2
100
AcDbSymbolTableRecord
100
AcDbLayerTableRecord
  2
0
 70
     0
 62
     7
  6
Continuous
370
    -3
390
F
347
46
348
0
  0
LAYER
  5
5F
330
2
100
AcDbSymbolTableRecord
100
AcDbLayerTableRecord
  2
Layer 1
 70
     0
 62
     7
  6
Continuous
370
    -3
390
F
347
46
348
0
  0
ENDTAB
  0
TABLE
  2
STYLE
  5
3
330
0
100
AcDbSymbolTable
 70
     1
  0
STYLE
  5
11
330
3
100
AcDbSymbolTableRecord
100
AcDbTextStyleTableRecord
  2
Standard
 70
     0
 40
0.0
 41
1.0
 50
0.0
 71
     0
 42
0.2
  3
txt
  4

  0
ENDTAB
  0
TABLE
  2
VIEW
  5
6
330
0
100
AcDbSymbolTable
 70
     0
  0
ENDTAB
  0
TABLE
  2
UCS
  5
7
330
0
100
AcDbSymbolTable
 70
     0
  0
ENDTAB
  0
TABLE
  2
APPID
  5
9
330
0
100
AcDbSymbolTable
 70
     2
  0
APPID
  5
12
330
9
100
AcDbSymbolTableRecord
100
AcDbRegAppTableRecord
  2
ACAD
 70
     0
  0
APPID
  5
5E
330
9
100
AcDbSymbolTableRecord
100
AcDbRegAppTableRecord
  2
ODA
 70
     0
  0
ENDTAB
  0
TABLE
  2
DIMSTYLE
  5
A
330
0
100
AcDbSymbolTable
 70
     1
100
AcDbDimStyleTable
  0
DIMSTYLE
105
27
330
A
100
AcDbSymbolTableRecord
100
AcDbDimStyleTableRecord
  2
Standard
 70
     0
178
     0
340
11
  0
ENDTAB
  0
TABLE
  2
BLOCK_RECORD
  5
1
330
0
100
AcDbSymbolTable
 70
     1
  0
BLOCK_RECORD
  5
1F
330
1
100
AcDbSymbolTableRecord
100
AcDbBlockTableRecord
  2
*Model_Space
340
22
 70
     0
280
     1
281
     0
  0
BLOCK_RECORD
  5
1B
330
1
100
AcDbSymbolTableRecord
100
AcDbBlockTableRecord
  2
*Paper_Space
340
1E
 70
     0
280
     1
281
     0
  0
BLOCK_RECORD
  5
23
330
1
100
AcDbSymbolTableRecord
100
AcDbBlockTableRecord
  2
*Paper_Space0
340
26
 70
     0
280
     1
281
     0
  0
ENDTAB
  0
ENDSEC
  0
SECTION
  2
BLOCKS
  0
BLOCK
  5
20
330
1F
100
AcDbEntity
  8
0
100
AcDbBlockBegin
  2
*Model_Space
 70
     0
 10
0.0
 20
0.0
 30
0.0
  3
*Model_Space
  1

  0
ENDBLK
  5
21
330
1F
100
AcDbEntity
  8
0
100
AcDbBlockEnd
  0
BLOCK
  5
1C
330
1B
100
AcDbEntity
 67
     1
  8
0
100
AcDbBlockBegin
  2
*Paper_Space
 70
     0
 10
0.0
 20
0.0
 30
0.0
  3
*Paper_Space
  1

  0
ENDBLK
  5
1D
330
1B
100
AcDbEntity
 67
     1
  8
0
100
AcDbBlockEnd
  0
BLOCK
  5
24
330
23
100
AcDbEntity
  8
0
100
AcDbBlockBegin
  2
*Paper_Space0
 70
     0
 10
0.0
 20
0.0
 30
0.0
  3
*Paper_Space0
  1

  0
ENDBLK
  5
25
330
23
100
AcDbEntity
  8
0
100
AcDbBlockEnd
  0
ENDSEC
  0
SECTION
  2
ENTITIES
  0
LWPOLYLINE
  5
60
330
1F
100
AcDbEntity
  8
Layer 1
 62
   251
100
AcDbPolyline
 90
       33
 70
     1
 43
0.0
 10
1396.4854
 20
95.9109
 10
1388.3549
 20
15.53
 10
1365.0364
 20
-59.3372
 10
1328.139
 20
-127.0867
 10
1279.272
 20
-186.1147
 10
1220.0447
 20
-234.8172
 10
1152.0662
 20
-271.5905
 10
1076.9458
 20
-294.8307
 10
996.2927
 20
-302.9338
 10
915.6407
 20
-294.8307
 10
840.5211
 20
-271.5905
 10
772.5431
 20
-234.8172
 10
713.3162
 20
-186.1147
 10
664.4494
 20
-127.0867
 10
627.5521
 20
-59.3372
 10
604.2336
 20
15.53
 10
596.1032
 20
95.9109
 10
604.2336
 20
176.2922
 10
627.5521
 20
251.1596
 10
664.4494
 20
318.9093
 10
713.3162
 20
377.9374
 10
772.5431
 20
426.6401
 10
840.5211
 20
463.4134
 10
915.6407
 20
486.6536
 10
996.2927
 20
494.7567
 10
1076.9458
 20
486.6536
 10
1152.0662
 20
463.4134
 10
1220.0447
 20
426.6401
 10
1279.272
 20
377.9374
 10
1328.139
 20
318.9093
 10
1365.0364
 20
251.1596
 10
1388.3549
 20
176.2922
 10
1396.4854
 20
95.9109
  0
LWPOLYLINE
  5
61
330
1F
100
AcDbEntity
  8
Layer 1
 62
     7
370
    25
100
AcDbPolyline
 90
        9
 70
     1
 43
0.0
 10
1209.1381
 20
-119.8295
 10
1211.047
 20
-119.1953
 10
1211.6865
 20
-117.301
 10
1211.047
 20
-115.7092
 10
1209.1381
 20
-114.7537
 10
1207.2259
 20
-115.7092
 10
1206.5907
 20
-117.301
 10
1207.2259
 20
-119.1953
 10
1209.1381
 20
-119.8295
  0
IMAGE
  5
64
330
1F
100
AcDbEntity
  8
Layer 1
 62
     7
160
               140
310
8C00000001000000840000000600000005000000F522889092018A404CD0967C148E79400000000000000000F522889092018A402A01E6CAD6847940000000000000000043C451566A288A402A01E6CAD6847940000000000000000043C451566A288A404CD0967C148E79400000000000000000F522889092018A404CD096
310
7C148E79400000000000000000
100
AcDbRasterImage
 90
        0
 10
820.7895
 20
372.4764
 30
0.0
 11
0.01388921292065636
 21
0.0
 31
0.0
 12
0.0
 22
0.01388907815631263
 32
0.0
 13
25169.0
 23
2994.0
340
63
 70
     7
280
     1
281
    50
282
    50
283
     0
360
65
 71
     1
 91
        2
 14
820.7895
 24
372.4764
 14
1170.3671
 24
414.0603
290
     0
  0
IMAGE
  5
67
330
1F
100
AcDbEntity
  8
Layer 1
 62
     7
160
               140
310
8C00000001000000840000000600000005000000F522889092018A40877C5D7F123866C00000000000000000F522889092018A40CB1ABFE28D4A66C0000000000000000043C451566A288A40CB1ABFE28D4A66C0000000000000000043C451566A288A40877C5D7F123866C00000000000000000F522889092018A40877C5D
310
7F123866C00000000000000000
100
AcDbRasterImage
 90
        0
 10
820.7895
 20
-222.4184
 30
0.0
 11
0.01388921292065636
 21
0.0
 31
0.0
 12
0.0
 22
0.01388907815631263
 32
0.0
 13
25169.0
 23
2994.0
340
66
 70
     7
280
     1
281
    50
282
    50
283
     0
360
68
 71
     1
 91
        2
 14
820.7895
 24
-222.4184
 14
1170.3671
 24
-180.8345
290
     0
  0
LWPOLYLINE
  5
69
330
1F
100
AcDbEntity
  8
Layer 1
 62
     7
370
    25
100
AcDbPolyline
 90
        9
 70
     1
 43
0.0
 10
1211.6865
 20
309.5122
 10
1211.0512
 20
311.4023
 10
1209.1391
 20
312.0407
 10
1207.2259
 20
311.4023
 10
1206.5917
 20
309.5122
 10
1207.2259
 20
307.599
 10
1209.1391
 20
306.9638
 10
1211.0512
 20
307.599
 10
1211.6865
 20
309.5122
  0
LWPOLYLINE
  5
6A
330
1F
100
AcDbEntity
  8
Layer 1
 62
   250
370
    25
100
AcDbPolyline
 90
      102
 70
     1
 43
0.0
 10
1395.0537
 20
95.936
 10
1394.0971
 20
71.1952
 10
1391.8668
 20
46.4365
 10
1388.0677
 20
22.017
 10
1382.6558
 20
-2.1064
 10
1375.6667
 20
-25.9095
 10
1367.407
 20
-49.3945
 10
1357.5566
 20
-72.2411
 10
1346.4282
 20
-94.4523
 10
1334.0304
 20
-115.7113
 10
1320.0595
 20
-136.3276
 10
1305.11
 20
-156.0135
 10
1288.5907
 20
-174.722
 10
1271.1169
 20
-192.4948
 10
1252.6666
 20
-208.9949
 10
1233.2797
 20
-224.5564
 10
1212.9612
 20
-238.5092
 10
1191.6653
 20
-251.5274
 10
1169.4128
 20
-262.9507
 10
1146.8431
 20
-273.1003
 10
1123.6571
 20
-281.6581
 10
1099.8095
 20
-288.9652
 10
1075.67
 20
-294.6764
 10
1051.1872
 20
-298.7967
 10
1026.4093
 20
-301.6622
 10
1001.6094
 20
-302.9359
 10
976.8283
 20
-302.2964
 10
952.0315
 20
-300.3885
 10
927.2505
 20
-296.9024
 10
903.089
 20
-292.1479
 10
878.9463
 20
-285.4791
 10
855.4201
 20
-277.5378
 10
832.5511
 20
-268.3447
 10
810.3028
 20
-257.2386
 10
788.3674
 20
-245.1769
 10
767.7067
 20
-231.8415
 10
747.6834
 20
-216.9363
 10
728.6178
 20
-201.0714
 10
710.8258
 20
-183.937
 10
693.9852
 20
-165.5279
 10
678.0834
 20
-146.4814
 10
663.7954
 20
-126.178
 10
650.4409
 20
-105.2404
 10
638.6773
 20
-83.3472
 10
628.2072
 20
-60.8178
 10
618.9732
 20
-37.6499
 10
611.3488
 20
-14.1649
 10
605.3194
 20
9.9553
 10
600.5418
 20
34.378
 10
597.6951
 20
58.8164
 10
596.1042
 20
83.575
 10
596.1042
 20
108.3148
 10
597.6951
 20
133.3916
 10
600.5418
 20
157.8143
 10
605.3194
 20
182.2527
 10
611.3488
 20
206.3761
 10
618.9732
 20
229.8611
 10
628.2072
 20
253.0289
 10
638.6773
 20
275.5584
 10
650.4409
 20
297.4515
 10
663.7954
 20
318.3891
 10
678.0834
 20
338.3712
 10
693.9852
 20
357.7359
 10
710.8258
 20
375.8268
 10
728.6178
 20
392.9654
 10
747.6834
 20
409.1443
 10
767.7067
 20
423.7355
 10
788.3674
 20
437.388
 10
810.3028
 20
449.4466
 10
832.5511
 20
460.2346
 10
855.4201
 20
469.7489
 10
878.9463
 20
477.6903
 10
903.089
 20
484.0377
 10
927.2505
 20
489.1136
 10
952.0315
 20
492.5955
 10
976.8283
 20
494.5086
 10
1001.6094
 20
494.8257
 10
1026.4093
 20
493.8692
 10
1051.1872
 20
491.0047
 10
1075.67
 20
486.8844
 10
1099.8095
 20
481.1722
 10
1123.6571
 20
473.8693
 10
1146.8431
 20
465.3115
 10
1169.4128
 20
455.1619
 10
1191.6653
 20
443.7354
 10
1212.9612
 20
430.7203
 10
1233.2797
 20
416.4504
 10
1252.6666
 20
401.203
 10
1271.1169
 20
384.7059
 10
1288.5907
 20
366.9331
 10
1305.11
 20
348.2215
 10
1320.0595
 20
328.5387
 10
1334.0304
 20
307.9193
 10
1346.4282
 20
286.6635
 10
1357.5566
 20
264.4522
 10
1367.407
 20
241.6025
 10
1375.6667
 20
218.1175
 10
1382.6558
 20
194.3144
 10
1388.0677
 20
170.1942
 10
1391.8668
 20
145.4533
 10
1394.0971
 20
121.0118
 10
1395.0537
 20
95.936
  0
LWPOLYLINE
  5
6B
330
1F
100
AcDbEntity
  8
Layer 1
 62
     7
370
    25
100
AcDbPolyline
 90
        7
 70
     1
 43
0.0
 10
1171.9591
 20
-78.2724
 10
1171.0036
 20
-79.8454
 10
1169.0946
 20
-79.8454
 10
1168.138
 20
-78.2724
 10
1169.0946
 20
-76.6816
 10
1171.0036
 20
-76.6816
 10
1171.9591
 20
-78.2724
  0
LWPOLYLINE
  5
6C
330
1F
100
AcDbEntity
  8
Layer 1
 62
     7
370
    25
100
AcDbPolyline
 90
        7
 70
     1
 43
0.0
 10
1171.9591
 20
-51.6027
 10
1171.0036
 20
-53.1946
 10
1169.0946
 20
-53.1946
 10
1168.138
 20
-51.6027
 10
1169.0946
 20
-50.0308
 10
1171.0036
 20
-50.0308
 10
1171.9591
 20
-51.6027
  0
LWPOLYLINE
  5
6D
330
1F
100
AcDbEntity
  8
Layer 1
 62
     7
370
    25
100
AcDbPolyline
 90
        7
 70
     1
 43
0.0
 10
1171.9591
 20
-24.6358
 10
1171.0036
 20
-26.2266
 10
1169.0946
 20
-26.2266
 10
1168.138
 20
-24.6358
 10
1169.0946
 20
-23.044
 10
1171.0036
 20
-23.044
 10
1171.9591
 20
-24.6358
  0
LWPOLYLINE
  5
6E
330
1F
100
AcDbEntity
  8
Layer 1
 62
     7
370
    25
100
AcDbPolyline
 90
        7
 70
     1
 43
0.0
 10
1171.9591
 20
2.015
 10
1171.0036
 20
0.4232
 10
1169.0946
 20
0.4232
 10
1168.138
 20
2.015
 10
1169.0946
 20
3.9239
 10
1171.0036
 20
3.9239
 10
1171.9591
 20
2.015
  0
LWPOLYLINE
  5
6F
330
1F
100
AcDbEntity
  8
Layer 1
 62
     7
370
    25
100
AcDbPolyline
 90
        7
 70
     1
 43
0.0
 10
1171.9591
 20
28.9829
 10
1171.0036
 20
27.4099
 10
1169.0946
 20
27.4099
 10
1168.138
 20
28.9829
 10
1169.0946
 20
30.5737
 10
1171.0036
 20
30.5737
 10
1171.9591
 20
28.9829
  0
LWPOLYLINE
  5
70
330
1F
100
AcDbEntity
  8
Layer 1
 62
     7
370
    25
100
AcDbPolyline
 90
        7
 70
     1
 43
0.0
 10
1171.9591
 20
55.9708
 10
1171.0036
 20
54.38
 10
1169.0946
 20
54.38
 10
1168.138
 20
55.9708
 10
1169.0946
 20
57.5438
 10
1171.0036
 20
57.5438
 10
1171.9591
 20
55.9708
  0
LWPOLYLINE
  5
71
330
1F
100
AcDbEntity
  8
Layer 1
 62
     7
370
    25
100
AcDbPolyline
 90
        7
 70
     1
 43
0.0
 10
1171.9591
 20
82.6206
 10
1171.0036
 20
81.0298
 10
1169.0946
 20
81.0298
 10
1168.138
 20
82.6206
 10
1169.0946
 20
84.2124
 10
1171.0036
 20
84.2124
 10
1171.9591
 20
82.6206
  0
LWPOLYLINE
  5
72
330
1F
100
AcDbEntity
  8
Layer 1
 62
     7
370
    25
100
AcDbPolyline
 90
        7
 70
     1
 43
0.0
 10
1171.9591
 20
109.5895
 10
1171.0036
 20
107.9977
 10
1169.0946
 20
107.9977
 10
1168.138
 20
109.5895
 10
1169.0946
 20
111.1803
 10
1171.0036
 20
111.1803
 10
1171.9591
 20
109.5895
  0
LWPOLYLINE
  5
73
330
1F
100
AcDbEntity
  8
Layer 1
 62
     7
370
    25
100
AcDbPolyline
 90
        7
 70
     1
 43
0.0
 10
1171.9591
 20
136.2383
 10
1171.0036
 20
134.6663
 10
1169.0946
 20
134.6663
 10
1168.138
 20
136.2383
 10
1169.0946
 20
137.8301
 10
1171.0036
 20
137.8301
 10
1171.9591
 20
136.2383
  0
LWPOLYLINE
  5
74
330
1F
100
AcDbEntity
  8
Layer 1
 62
     7
370
    25
100
AcDbPolyline
 90
        7
 70
     1
 43
0.0
 10
1171.9591
 20
163.2272
 10
1171.0036
 20
161.6353
 10
1169.0946
 20
161.6353
 10
1168.138
 20
163.2272
 10
1169.0946
 20
164.8002
 10
1171.0036
 20
164.8002
 10
1171.9591
 20
163.2272
  0
LWPOLYLINE
  5
75
330
1F
100
AcDbEntity
  8
Layer 1
 62
     7
370
    25
100
AcDbPolyline
 90
        7
 70
     1
 43
0.0
 10
1171.9591
 20
189.877
 10
1171.0036
 20
188.2851
 10
1169.0946
 20
188.2851
 10
1168.138
 20
189.877
 10
1169.0946
 20
191.4677
 10
1171.0036
 20
191.4677
 10
1171.9591
 20
189.877
  0
LWPOLYLINE
  5
76
330
1F
100
AcDbEntity
  8
Layer 1
 62
     7
370
    25
100
AcDbPolyline
 90
        7
 70
     1
 43
0.0
 10
1171.9591
 20
216.8449
 10
1171.0036
 20
215.2531
 10
1169.0946
 20
215.2531
 10
1168.138
 20
216.8449
 10
1169.0946
 20
218.4357
 10
1171.0036
 20
218.4357
 10
1171.9591
 20
216.8449
  0
LWPOLYLINE
  5
77
330
1F
100
AcDbEntity
  8
Layer 1
 62
     7
370
    25
100
AcDbPolyline
 90
        7
 70
     1
 43
0.0
 10
1171.9591
 20
243.4947
 10
1171.0036
 20
241.9217
 10
1169.0946
 20
241.9217
 10
1168.138
 20
243.4947
 10
1169.0946
 20
245.0855
 10
1171.0036
 20
245.0855
 10
1171.9591
 20
243.4947
  0
LWPOLYLINE
  5
78
330
1F
100
AcDbEntity
  8
Layer 1
 62
     7
370
    25
100
AcDbPolyline
 90
        7
 70
     1
 43
0.0
 10
1171.9591
 20
270.4626
 10
1171.0036
 20
268.8896
 10
1169.0946
 20
268.8896
 10
1168.138
 20
270.4626
 10
1169.0946
 20
272.0534
 10
1171.0036
 20
272.0534
 10
1171.9591
 20
270.4626
  0
LWPOLYLINE
  5
79
330
1F
100
AcDbEntity
  8
Layer 1
 62
     7
370
    25
100
AcDbPolyline
 90
        7
 70
     1
 43
0.0
 10
1144.9509
 20
-78.2724
 10
1143.9954
 20
-79.8454
 10
1142.4035
 20
-79.8454
 10
1141.448
 20
-78.2724
 10
1142.4035
 20
-76.6816
 10
1143.9954
 20
-76.6816
 10
1144.9509
 20
-78.2724
  0
LWPOLYLINE
  5
7A
330
1F
100
AcDbEntity
  8
Layer 1
 62
     7
370
    25
100
AcDbPolyline
 90
        7
 70
     1
 43
0.0
 10
1144.9509
 20
-51.6027
 10
1143.9954
 20
-53.1946
 10
1142.4035
 20
-53.1946
 10
1141.448
 20
-51.6027
 10
1142.4035
 20
-50.0308
 10
1143.9954
 20
-50.0308
 10
1144.9509
 20
-51.6027
  0
LWPOLYLINE
  5
7B
330
1F
100
AcDbEntity
  8
Layer 1
 62
     7
370
    25
100
AcDbPolyline
 90
        7
 70
     1
 43
0.0
 10
1144.9509
 20
-24.6358
 10
1143.9954
 20
-26.2266
 10
1142.4035
 20
-26.2266
 10
1141.448
 20
-24.6358
 10
1142.4035
 20
-23.044
 10
1143.9954
 20
-23.044
 10
1144.9509
 20
-24.6358
  0
LWPOLYLINE
  5
7C
330
1F
100
AcDbEntity
  8
Layer 1
 62
     7
370
    25
100
AcDbPolyline
 90
        7
 70
     1
 43
0.0
 10
1144.9509
 20
2.015
 10
1143.9954
 20
0.4232
 10
1142.4035
 20
0.4232
 10
1141.448
 20
2.015
 10
1142.4035
 20
3.9239
 10
1143.9954
 20
3.9239
 10
1144.9509
 20
2.015
  0
LWPOLYLINE
  5
7D
330
1F
100
AcDbEntity
  8
Layer 1
 62
     7
370
    25
100
AcDbPolyline
 90
        7
 70
     1
 43
0.0
 10
1144.9509
 20
28.9829
 10
1143.9954
 20
27.4099
 10
1142.4035
 20
27.4099
 10
1141.448
 20
28.9829
 10
1142.4035
 20
30.5737
 10
1143.9954
 20
30.5737
 10
1144.9509
 20
28.9829
  0
LWPOLYLINE
  5
7E
330
1F
100
AcDbEntity
  8
Layer 1
 62
     7
370
    25
100
AcDbPolyline
 90
        7
 70
     1
 43
0.0
 10
1144.9509
 20
55.9708
 10
1143.9954
 20
54.38
 10
1142.4035
 20
54.38
 10
1141.448
 20
55.9708
 10
1142.4035
 20
57.5438
 10
1143.9954
 20
57.5438
 10
1144.9509
 20
55.9708
  0
LWPOLYLINE
  5
7F
330
1F
100
AcDbEntity
  8
Layer 1
 62
     7
370
    25
100
AcDbPolyline
 90
        7
 70
     1
 43
0.0
 10
1144.9509
 20
82.6206
 10
1143.9954
 20
81.0298
 10
1142.4035
 20
81.0298
 10
1141.448
 20
82.6206
 10
1142.4035
 20
84.2124
 10
1143.9954
 20
84.2124
 10
1144.9509
 20
82.6206
  0
LWPOLYLINE
  5
80
330
1F
100
AcDbEntity
  8
Layer 1
 62
     7
370
    25
100
AcDbPolyline
 90
        7
 70
     1
 43
0.0
 10
1144.9509
 20
109.5895
 10
1143.9954
 20
107.9977
 10
1142.4035
 20
107.9977
 10
1141.448
 20
109.5895
 10
1142.4035
 20
111.1803
 10
1143.9954
 20
111.1803
 10
1144.9509
 20
109.5895
  0
LWPOLYLINE
  5
81
330
1F
100
AcDbEntity
  8
Layer 1
 62
     7
370
    25
100
AcDbPolyline
 90
        7
 70
     1
 43
0.0
 10
1144.9509
 20
136.2383
 10
1143.9954
 20
134.6663
 10
1142.4035
 20
134.6663
 10
1141.448
 20
136.2383
 10
1142.4035
 20
137.8301
 10
1143.9954
 20
137.8301
 10
1144.9509
 20
136.2383
  0
LWPOLYLINE
  5
82
330
1F
100
AcDbEntity
  8
Layer 1
 62
     7
370
    25
100
AcDbPolyline
 90
        7
 70
     1
 43
0.0
 10
1144.9509
 20
163.2272
 10
1143.9954
 20
161.6353
 10
1142.4035
 20
161.6353
 10
1141.448
 20
163.2272
 10
1142.4035
 20
164.8002
 10
1143.9954
 20
164.8002
 10
1144.9509
 20
163.2272
  0
LWPOLYLINE
  5
83
330
1F
100
AcDbEntity
  8
Layer 1
 62
     7
370
    25
100
AcDbPolyline
 90
        7
 70
     1
 43
0.0
 10
1144.9509
 20
189.877
 10
1143.9954
 20
188.2851
 10
1142.4035
 20
188.2851
 10
1141.448
 20
189.877
 10
1142.4035
 20
191.4677
 10
1143.9954
 20
191.4677
 10
1144.9509
 20
189.877
  0
LWPOLYLINE
  5
84
330
1F
100
AcDbEntity
  8
Layer 1
 62
     7
370
    25
100
AcDbPolyline
 90
        7
 70
     1
 43
0.0
 10
1144.9509
 20
216.8449
 10
1143.9954
 20
215.2531
 10
1142.4035
 20
215.2531
 10
1141.448
 20
216.8449
 10
1142.4035
 20
218.4357
 10
1143.9954
 20
218.4357
 10
1144.9509
 20
216.8449
  0
LWPOLYLINE
  5
85
330
1F
100
AcDbEntity
  8
Layer 1
 62
     7
370
    25
100
AcDbPolyline
 90
        7
 70
     1
 43
0.0
 10
1144.9509
 20
243.4947
 10
1143.9954
 20
241.9217
 10
1142.4035
 20
241.9217
 10
1141.448
 20
243.4947
 10
1142.4035
 20
245.0855
 10
1143.9954
 20
245.0855
 10
1144.9509
 20
243.4947
  0
LWPOLYLINE
  5
86
330
1F
100
AcDbEntity
  8
Layer 1
 62
     7
370
    25
100
AcDbPolyline
 90
        7
 70
     1
 43
0.0
 10
1144.9509
 20
270.4626
 10
1143.9954
 20
268.8896
 10
1142.4035
 20
268.8896
 10
1141.448
 20
270.4626
 10
1142.4035
 20
272.0534
 10
1143.9954
 20
272.0534
 10
1144.9509
 20
270.4626
  0
LWPOLYLINE
  5
87
330
1F
100
AcDbEntity
  8
Layer 1
 62
     7
370
    25
100
AcDbPolyline
 90
        7
 70
     1
 43
0.0
 10
1118.241
 20
-78.2724
 10
1117.2854
 20
-79.8454
 10
1115.3943
 20
-79.8454
 10
1114.4387
 20
-78.2724
 10
1115.3943
 20
-76.6816
 10
1117.2854
 20
-76.6816
 10
1118.241
 20
-78.2724
  0
LWPOLYLINE
  5
88
330
1F
100
AcDbEntity
  8
Layer 1
 62
     7
370
    25
100
AcDbPolyline
 90
        7
 70
     1
 43
0.0
 10
1118.241
 20
-51.6027
 10
1117.2854
 20
-53.1946
 10
1115.3943
 20
-53.1946
 10
1114.4387
 20
-51.6027
 10
1115.3943
 20
-50.0308
 10
1117.2854
 20
-50.0308
 10
1118.241
 20
-51.6027
  0
LWPOLYLINE
  5
89
330
1F
100
AcDbEntity
  8
Layer 1
 62
     7
370
    25
100
AcDbPolyline
 90
        7
 70
     1
 43
0.0
 10
1118.241
 20
-24.6358
 10
1117.2854
 20
-26.2266
 10
1115.3943
 20
-26.2266
 10
1114.4387
 20
-24.6358
 10
1115.3943
 20
-23.044
 10
1117.2854
 20
-23.044
 10
1118.241
 20
-24.6358
  0
LWPOLYLINE
  5
8A
330
1F
100
AcDbEntity
  8
Layer 1
 62
     7
370
    25
100
AcDbPolyline
 90
        7
 70
     1
 43
0.0
 10
1118.241
 20
2.015
 10
1117.2854
 20
0.4232
 10
1115.3943
 20
0.4232
 10
1114.4387
 20
2.015
 10
1115.3943
 20
3.9239
 10
1117.2854
 20
3.9239
 10
1118.241
 20
2.015
  0
LWPOLYLINE
  5
8B
330
1F
100
AcDbEntity
  8
Layer 1
 62
     7
370
    25
100
AcDbPolyline
 90
        7
 70
     1
 43
0.0
 10
1118.241
 20
28.9829
 10
1117.2854
 20
27.4099
 10
1115.3943
 20
27.4099
 10
1114.4387
 20
28.9829
 10
1115.3943
 20
30.5737
 10
1117.2854
 20
30.5737
 10
1118.241
 20
28.9829
  0
LWPOLYLINE
  5
8C
330
1F
100
AcDbEntity
  8
Layer 1
 62
     7
370
    25
100
AcDbPolyline
 90
        7
 70
     1
 43
0.0
 10
1118.241
 20
55.9708
 10
1117.2854
 20
54.38
 10
1115.3943
 20
54.38
 10
1114.4387
 20
55.9708
 10
1115.3943
 20
57.5438
 10
1117.2854
 20
57.5438
 10
1118.241
 20
55.9708
  0
LWPOLYLINE
  5
8D
330
1F
100
AcDbEntity
  8
Layer 1
 62
     7
370
    25
100
AcDbPolyline
 90
        7
 70
     1
 43
0.0
 10
1118.241
 20
82.6206
 10
1117.2854
 20
81.0298
 10
1115.3943
 20
81.0298
 10
1114.4387
 20
82.6206
 10
1115.3943
 20
84.2124
 10
1117.2854
 20
84.2124
 10
1118.241
 20
82.6206
  0
LWPOLYLINE
  5
8E
330
1F
100
AcDbEntity
  8
Layer 1
 62
     7
370
    25
100
AcDbPolyline
 90
        7
 70
     1
 43
0.0
 10
1118.241
 20
109.5895
 10
1117.2854
 20
107.9977
 10
1115.3943
 20
107.9977
 10
1114.4387
 20
109.5895
 10
1115.3943
 20
111.1803
 10
1117.2854
 20
111.1803
 10
1118.241
 20
109.5895
  0
LWPOLYLINE
  5
8F
330
1F
100
AcDbEntity
  8
Layer 1
 62
     7
370
    25
100
AcDbPolyline
 90
        7
 70
     1
 43
0.0
 10
1118.241
 20
136.2383
 10
1117.2854
 20
134.6663
 10
1115.3943
 20
134.6663
 10
1114.4387
 20
136.2383
 10
1115.3943
 20
137.8301
 10
1117.2854
 20
137.8301
 10
1118.241
 20
136.2383
  0
LWPOLYLINE
  5
90
330
1F
100
AcDbEntity
  8
Layer 1
 62
     7
370
    25
100
AcDbPolyline
 90
        7
 70
     1
 43
0.0
 10
1118.241
 20
163.2272
 10
1117.2854
 20
161.6353
 10
1115.3943
 20
161.6353
 10
1114.4387
 20
163.2272
 10
1115.3943
 20
164.8002
 10
1117.2854
 20
164.8002
 10
1118.241
 20
163.2272
  0
LWPOLYLINE
  5
91
330
1F
100
AcDbEntity
  8
Layer 1
 62
     7
370
    25
100
AcDbPolyline
 90
        7
 70
     1
 43
0.0
 10
1118.241
 20
189.877
 10
1117.2854
 20
188.2851
 10
1115.3943
 20
188.2851
 10
1114.4387
 20
189.877
 10
1115.3943
 20
191.4677
 10
1117.2854
 20
191.4677
 10
1118.241
 20
189.877
  0
LWPOLYLINE
  5
92
330
1F
100
AcDbEntity
  8
Layer 1
 62
     7
370
    25
100
AcDbPolyline
 90
        7
 70
     1
 43
0.0
 10
1118.241
 20
216.8449
 10
1117.2854
 20
215.2531
 10
1115.3943
 20
215.2531
 10
1114.4387
 20
216.8449
 10
1115.3943
 20
218.4357
 10
1117.2854
 20
218.4357
 10
1118.241
 20
216.8449
  0
LWPOLYLINE
  5
93
330
1F
100
AcDbEntity
  8
Layer 1
 62
     7
370
    25
100
AcDbPolyline
 90
        7
 70
     1
 43
0.0
 10
1118.241
 20
243.4947
 10
1117.2854
 20
241.9217
 10
1115.3943
 20
241.9217
 10
1114.4387
 20
243.4947
 10
1115.3943
 20
245.0855
 10
1117.2854
 20
245.0855
 10
1118.241
 20
243.4947
  0
LWPOLYLINE
  5
94
330
1F
100
AcDbEntity
  8
Layer 1
 62
     7
370
    25
100
AcDbPolyline
 90
        7
 70
     1
 43
0.0
 10
1118.241
 20
270.4626
 10
1117.2854
 20
268.8896
 10
1115.3943
 20
268.8896
 10
1114.4387
 20
270.4626
 10
1115.3943
 20
272.0534
 10
1117.2854
 20
272.0534
 10
1118.241
 20
270.4626
  0
LWPOLYLINE
  5
95
330
1F
100
AcDbEntity
  8
Layer 1
 62
     7
370
    25
100
AcDbPolyline
 90
        7
 70
     1
 43
0.0
 10
1091.2328
 20
-78.2724
 10
1090.2762
 20
-79.8454
 10
1088.3672
 20
-79.8454
 10
1087.7288
 20
-78.2724
 10
1088.3672
 20
-76.6816
 10
1090.2762
 20
-76.6816
 10
1091.2328
 20
-78.2724
  0
LWPOLYLINE
  5
96
330
1F
100
AcDbEntity
  8
Layer 1
 62
     7
370
    25
100
AcDbPolyline
 90
        7
 70
     1
 43
0.0
 10
1091.2328
 20
-51.6027
 10
1090.2762
 20
-53.1946
 10
1088.3672
 20
-53.1946
 10
1087.7288
 20
-51.6027
 10
1088.3672
 20
-50.0308
 10
1090.2762
 20
-50.0308
 10
1091.2328
 20
-51.6027
  0
LWPOLYLINE
  5
97
330
1F
100
AcDbEntity
  8
Layer 1
 62
     7
370
    25
100
AcDbPolyline
 90
        7
 70
     1
 43
0.0
 10
1091.2328
 20
-24.6358
 10
1090.2762
 20
-26.2266
 10
1088.3672
 20
-26.2266
 10
1087.7288
 20
-24.6358
 10
1088.3672
 20
-23.044
 10
1090.2762
 20
-23.044
 10
1091.2328
 20
-24.6358
  0
LWPOLYLINE
  5
98
330
1F
100
AcDbEntity
  8
Layer 1
 62
     7
370
    25
100
AcDbPolyline
 90
        7
 70
     1
 43
0.0
 10
1091.2328
 20
28.9829
 10
1090.2762
 20
27.4099
 10
1088.3672
 20
27.4099
 10
1087.7288
 20
28.9829
 10
1088.3672
 20
30.5737
 10
1090.2762
 20
30.5737
 10
1091.2328
 20
28.9829
  0
LWPOLYLINE
  5
99
330
1F
100
AcDbEntity
  8
Layer 1
 62
     7
370
    25
100
AcDbPolyline
 90
        7
 70
     1
 43
0.0
 10
1091.2328
 20
55.9708
 10
1090.2762
 20
54.38
 10
1088.3672
 20
54.38
 10
1087.7288
 20
55.9708
 10
1088.3672
 20
57.5438
 10
1090.2762
 20
57.5438
 10
1091.2328
 20
55.9708
  0
LWPOLYLINE
  5
9A
330
1F
100
AcDbEntity
  8
Layer 1
 62
     7
370
    25
100
AcDbPolyline
 90
        7
 70
     1
 43
0.0
 10
1091.2328
 20
82.6206
 10
1090.2762
 20
81.0298
 10
1088.3672
 20
81.0298
 10
1087.7288
 20
82.6206
 10
1088.3672
 20
84.2124
 10
1090.2762
 20
84.2124
 10
1091.2328
 20
82.6206
  0
LWPOLYLINE
  5
9B
330
1F
100
AcDbEntity
  8
Layer 1
 62
     7
370
    25
100
AcDbPolyline
 90
        7
 70
     1
 43
0.0
 10
1091.2328
 20
109.5895
 10
1090.2762
 20
107.9977
 10
1088.3672
 20
107.9977
 10
1087.7288
 20
109.5895
 10
1088.3672
 20
111.1803
 10
1090.2762
 20
111.1803
 10
1091.2328
 20
109.5895
  0
LWPOLYLINE
  5
9C
330
1F
100
AcDbEntity
  8
Layer 1
 62
     7
370
    25
100
AcDbPolyline
 90
        7
 70
     1
 43
0.0
 10
1091.2328
 20
136.2383
 10
1090.2762
 20
134.6663
 10
1088.3672
 20
134.6663
 10
1087.7288
 20
136.2383
 10
1088.3672
 20
137.8301
 10
1090.2762
 20
137.8301
 10
1091.2328
 20
136.2383
  0
LWPOLYLINE
  5
9D
330
1F
100
AcDbEntity
  8
Layer 1
 62
     7
370
    25
100
AcDbPolyline
 90
        7
 70
     1
 43
0.0
 10
1091.2328
 20
163.2272
 10
1090.2762
 20
161.6353
 10
1088.3672
 20
161.6353
 10
1087.7288
 20
163.2272
 10
1088.3672
 20
164.8002
 10
1090.2762
 20
164.8002
 10
1091.2328
 20
163.2272
  0
LWPOLYLINE
  5
9E
330
1F
100
AcDbEntity
  8
Layer 1
 62
     7
370
    25
100
AcDbPolyline
 90
        7
 70
     1
 43
0.0
 10
1091.2328
 20
216.8449
 10
1090.2762
 20
215.2531
 10
1088.3672
 20
215.2531
 10
1087.7288
 20
216.8449
 10
1088.3672
 20
218.4357
 10
1090.2762
 20
218.4357
 10
1091.2328
 20
216.8449
  0
LWPOLYLINE
  5
9F
330
1F
100
AcDbEntity
  8
Layer 1
 62
     7
370
    25
100
AcDbPolyline
 90
        7
 70
     1
 43
0.0
 10
1091.2328
 20
243.4947
 10
1090.2762
 20
241.9217
 10
1088.3672
 20
241.9217
 10
1087.7288
 20
243.4947
 10
1088.3672
 20
245.0855
 10
1090.2762
 20
245.0855
 10
1091.2328
 20
243.4947
  0
LWPOLYLINE
  5
A0
330
1F
100
AcDbEntity
  8
Layer 1
 62
     7
370
    25
100
AcDbPolyline
 90
        7
 70
     1
 43
0.0
 10
1091.2328
 20
270.4626
 10
1090.2762
 20
268.8896
 10
1088.3672
 20
268.8896
 10
1087.7288
 20
270.4626
 10
1088.3672
 20
272.0534
 10
1090.2762
 20
272.0534
 10
1091.2328
 20
270.4626
  0
LWPOLYLINE
  5
A1
330
1F
100
AcDbEntity
  8
Layer 1
 62
     7
370
    25
100
AcDbPolyline
 90
       16
 70
     1
 43
0.0
 10
1098.8551
 20
2.015
 10
1098.2208
 20
-1.7882
 10
1095.6912
 20
-4.9708
 10
1092.5054
 20
-6.8609
 10
1088.3662
 20
-7.1822
 10
1084.5629
 20
-5.9086
 10
1081.6984
 20
-3.379
 10
1080.1065
 20
0.1238
 10
1080.1065
 20
4.2442
 10
1081.6984
 20
7.7261
 10
1084.5629
 20
10.2735
 10
1088.3662
 20
11.5471
 10
1092.5054
 20
11.23
 10
1095.6912
 20
9.3179
 10
1098.2208
 20
6.1353
 10
1098.8551
 20
2.015
  0
LWPOLYLINE
  5
A2
330
1F
100
AcDbEntity
  8
Layer 1
 62
     7
370
    25
100
AcDbPolyline
 90
       16
 70
     1
 43
0.0
 10
1098.8551
 20
189.877
 10
1098.2208
 20
186.0549
 10
1095.6912
 20
182.8911
 10
1092.5054
 20
180.979
 10
1088.3662
 20
180.6609
 10
1084.5629
 20
181.6174
 10
1081.6984
 20
184.4819
 10
1080.1065
 20
187.9638
 10
1080.1065
 20
191.7671
 10
1081.6984
 20
195.5881
 10
1084.5629
 20
198.1176
 10
1088.3662
 20
199.3913
 10
1092.5054
 20
199.0731
 10
1095.6912
 20
196.8617
 10
1098.2208
 20
193.6791
 10
1098.8551
 20
189.877
  0
LWPOLYLINE
  5
A3
330
1F
100
AcDbEntity
  8
Layer 1
 62
     7
370
    25
100
AcDbPolyline
 90
        7
 70
     1
 43
0.0
 10
1064.5427
 20
-78.2724
 10
1063.5861
 20
-79.8454
 10
1061.6772
 20
-79.8454
 10
1060.7216
 20
-78.2724
 10
1061.6772
 20
-76.6816
 10
1063.5861
 20
-76.6816
 10
1064.5427
 20
-78.2724
  0
LWPOLYLINE
  5
A4
330
1F
100
AcDbEntity
  8
Layer 1
 62
     7
370
    25
100
AcDbPolyline
 90
        7
 70
     1
 43
0.0
 10
1064.5427
 20
-51.6027
 10
1063.5861
 20
-53.1946
 10
1061.6772
 20
-53.1946
 10
1060.7216
 20
-51.6027
 10
1061.6772
 20
-50.0308
 10
1063.5861
 20
-50.0308
 10
1064.5427
 20
-51.6027
  0
LWPOLYLINE
  5
A5
330
1F
100
AcDbEntity
  8
Layer 1
 62
     7
370
    25
100
AcDbPolyline
 90
        7
 70
     1
 43
0.0
 10
1064.5427
 20
-24.6358
 10
1063.5861
 20
-26.2266
 10
1061.6772
 20
-26.2266
 10
1060.7216
 20
-24.6358
 10
1061.6772
 20
-23.044
 10
1063.5861
 20
-23.044
 10
1064.5427
 20
-24.6358
  0
LWPOLYLINE
  5
A6
330
1F
100
AcDbEntity
  8
Layer 1
 62
     7
370
    25
100
AcDbPolyline
 90
        7
 70
     1
 43
0.0
 10
1064.5427
 20
2.015
 10
1063.5861
 20
0.4232
 10
1061.6772
 20
0.4232
 10
1060.7216
 20
2.015
 10
1061.6772
 20
3.9239
 10
1063.5861
 20
3.9239
 10
1064.5427
 20
2.015
  0
LWPOLYLINE
  5
A7
330
1F
100
AcDbEntity
  8
Layer 1
 62
     7
370
    25
100
AcDbPolyline
 90
        7
 70
     1
 43
0.0
 10
1064.5427
 20
28.9829
 10
1063.5861
 20
27.4099
 10
1061.6772
 20
27.4099
 10
1060.7216
 20
28.9829
 10
1061.6772
 20
30.5737
 10
1063.5861
 20
30.5737
 10
1064.5427
 20
28.9829
  0
LWPOLYLINE
  5
A8
330
1F
100
AcDbEntity
  8
Layer 1
 62
     7
370
    25
100
AcDbPolyline
 90
        7
 70
     1
 43
0.0
 10
1064.5427
 20
55.9708
 10
1063.5861
 20
54.38
 10
1061.6772
 20
54.38
 10
1060.7216
 20
55.9708
 10
1061.6772
 20
57.5438
 10
1063.5861
 20
57.5438
 10
1064.5427
 20
55.9708
  0
LWPOLYLINE
  5
A9
330
1F
100
AcDbEntity
  8
Layer 1
 62
     7
370
    25
100
AcDbPolyline
 90
        7
 70
     1
 43
0.0
 10
1064.5427
 20
82.6206
 10
1063.5861
 20
81.0298
 10
1061.6772
 20
81.0298
 10
1060.7216
 20
82.6206
 10
1061.6772
 20
84.2124
 10
1063.5861
 20
84.2124
 10
1064.5427
 20
82.6206
  0
LWPOLYLINE
  5
AA
330
1F
100
AcDbEntity
  8
Layer 1
 62
     7
370
    25
100
AcDbPolyline
 90
        7
 70
     1
 43
0.0
 10
1064.5427
 20
109.5895
 10
1063.5861
 20
107.9977
 10
1061.6772
 20
107.9977
 10
1060.7216
 20
109.5895
 10
1061.6772
 20
111.1803
 10
1063.5861
 20
111.1803
 10
1064.5427
 20
109.5895
  0
LWPOLYLINE
  5
AB
330
1F
100
AcDbEntity
  8
Layer 1
 62
     7
370
    25
100
AcDbPolyline
 90
        7
 70
     1
 43
0.0
 10
1064.5427
 20
136.2383
 10
1063.5861
 20
134.6663
 10
1061.6772
 20
134.6663
 10
1060.7216
 20
136.2383
 10
1061.6772
 20
137.8301
 10
1063.5861
 20
137.8301
 10
1064.5427
 20
136.2383
  0
LWPOLYLINE
  5
AC
330
1F
100
AcDbEntity
  8
Layer 1
 62
     7
370
    25
100
AcDbPolyline
 90
        7
 70
     1
 43
0.0
 10
1064.5427
 20
163.2272
 10
1063.5861
 20
161.6353
 10
1061.6772
 20
161.6353
 10
1060.7216
 20
163.2272
 10
1061.6772
 20
164.8002
 10
1063.5861
 20
164.8002
 10
1064.5427
 20
163.2272
  0
LWPOLYLINE
  5
AD
330
1F
100
AcDbEntity
  8
Layer 1
 62
     7
370
    25
100
AcDbPolyline
 90
        7
 70
     1
 43
0.0
 10
1064.5427
 20
189.877
 10
1063.5861
 20
188.2851
 10
1061.6772
 20
188.2851
 10
1060.7216
 20
189.877
 10
1061.6772
 20
191.4677
 10
1063.5861
 20
191.4677
 10
1064.5427
 20
189.877
  0
LWPOLYLINE
  5
AE
330
1F
100
AcDbEntity
  8
Layer 1
 62
     7
370
    25
100
AcDbPolyline
 90
        7
 70
     1
 43
0.0
 10
1064.5427
 20
216.8449
 10
1063.5861
 20
215.2531
 10
1061.6772
 20
215.2531
 10
1060.7216
 20
216.8449
 10
1061.6772
 20
218.4357
 10
1063.5861
 20
218.4357
 10
1064.5427
 20
216.8449
  0
LWPOLYLINE
  5
AF
330
1F
100
AcDbEntity
  8
Layer 1
 62
     7
370
    25
100
AcDbPolyline
 90
        7
 70
     1
 43
0.0
 10
1064.5427
 20
243.4947
 10
1063.5861
 20
241.9217
 10
1061.6772
 20
241.9217
 10
1060.7216
 20
243.4947
 10
1061.6772
 20
245.0855
 10
1063.5861
 20
245.0855
 10
1064.5427
 20
243.4947
  0
LWPOLYLINE
  5
B0
330
1F
100
AcDbEntity
  8
Layer 1
 62
     7
370
    25
100
AcDbPolyline
 90
        7
 70
     1
 43
0.0
 10
1064.5427
 20
270.4626
 10
1063.5861
 20
268.8896
 10
1061.6772
 20
268.8896
 10
1060.7216
 20
270.4626
 10
1061.6772
 20
272.0534
 10
1063.5861
 20
272.0534
 10
1064.5427
 20
270.4626
  0
LWPOLYLINE
  5
B1
330
1F
100
AcDbEntity
  8
Layer 1
 62
     7
370
    25
100
AcDbPolyline
 90
        7
 70
     1
 43
0.0
 10
1037.5345
 20
-78.2724
 10
1036.5779
 20
-79.8454
 10
1034.669
 20
-79.8454
 10
1033.7124
 20
-78.2724
 10
1034.669
 20
-76.6816
 10
1036.5779
 20
-76.6816
 10
1037.5345
 20
-78.2724
  0
LWPOLYLINE
  5
B2
330
1F
100
AcDbEntity
  8
Layer 1
 62
     7
370
    25
100
AcDbPolyline
 90
        7
 70
     1
 43
0.0
 10
1037.5345
 20
-51.6027
 10
1036.5779
 20
-53.1946
 10
1034.669
 20
-53.1946
 10
1033.7124
 20
-51.6027
 10
1034.669
 20
-50.0308
 10
1036.5779
 20
-50.0308
 10
1037.5345
 20
-51.6027
  0
LWPOLYLINE
  5
B3
330
1F
100
AcDbEntity
  8
Layer 1
 62
     7
370
    25
100
AcDbPolyline
 90
        7
 70
     1
 43
0.0
 10
1037.5345
 20
-24.6358
 10
1036.5779
 20
-26.2266
 10
1034.669
 20
-26.2266
 10
1033.7124
 20
-24.6358
 10
1034.669
 20
-23.044
 10
1036.5779
 20
-23.044
 10
1037.5345
 20
-24.6358
  0
LWPOLYLINE
  5
B4
330
1F
100
AcDbEntity
  8
Layer 1
 62
     7
370
    25
100
AcDbPolyline
 90
        7
 70
     1
 43
0.0
 10
1037.5345
 20
2.015
 10
1036.5779
 20
0.4232
 10
1034.669
 20
0.4232
 10
1033.7124
 20
2.015
 10
1034.669
 20
3.9239
 10
1036.5779
 20
3.9239
 10
1037.5345
 20
2.015
  0
LWPOLYLINE
  5
B5
330
1F
100
AcDbEntity
  8
Layer 1
 62
     7
370
    25
100
AcDbPolyline
 90
        7
 70
     1
 43
0.0
 10
1037.5345
 20
28.9829
 10
1036.5779
 20
27.4099
 10
1034.669
 20
27.4099
 10
1033.7124
 20
28.9829
 10
1034.669
 20
30.5737
 10
1036.5779
 20
30.5737
 10
1037.5345
 20
28.9829
  0
LWPOLYLINE
  5
B6
330
1F
100
AcDbEntity
  8
Layer 1
 62
     7
370
    25
100
AcDbPolyline
 90
        7
 70
     1
 43
0.0
 10
1037.5345
 20
55.9708
 10
1036.5779
 20
54.38
 10
1034.669
 20
54.38
 10
1033.7124
 20
55.9708
 10
1034.669
 20
57.5438
 10
1036.5779
 20
57.5438
 10
1037.5345
 20
55.9708
  0
LWPOLYLINE
  5
B7
330
1F
100
AcDbEntity
  8
Layer 1
 62
     7
370
    25
100
AcDbPolyline
 90
        7
 70
     1
 43
0.0
 10
1037.5345
 20
82.6206
 10
1036.5779
 20
81.0298
 10
1034.669
 20
81.0298
 10
1033.7124
 20
82.6206
 10
1034.669
 20
84.2124
 10
1036.5779
 20
84.2124
 10
1037.5345
 20
82.6206
  0
LWPOLYLINE
  5
B8
330
1F
100
AcDbEntity
  8
Layer 1
 62
     7
370
    25
100
AcDbPolyline
 90
        7
 70
     1
 43
0.0
 10
1037.5345
 20
109.5895
 10
1036.5779
 20
107.9977
 10
1034.669
 20
107.9977
 10
1033.7124
 20
109.5895
 10
1034.669
 20
111.1803
 10
1036.5779
 20
111.1803
 10
1037.5345
 20
109.5895
  0
LWPOLYLINE
  5
B9
330
1F
100
AcDbEntity
  8
Layer 1
 62
     7
370
    25
100
AcDbPolyline
 90
        7
 70
     1
 43
0.0
 10
1037.5345
 20
136.2383
 10
1036.5779
 20
134.6663
 10
1034.669
 20
134.6663
 10
1033.7124
 20
136.2383
 10
1034.669
 20
137.8301
 10
1036.5779
 20
137.8301
 10
1037.5345
 20
136.2383
  0
LWPOLYLINE
  5
BA
330
1F
100
AcDbEntity
  8
Layer 1
 62
     7
370
    25
100
AcDbPolyline
 90
        7
 70
     1
 43
0.0
 10
1037.5345
 20
163.2272
 10
1036.5779
 20
161.6353
 10
1034.669
 20
161.6353
 10
1033.7124
 20
163.2272
 10
1034.669
 20
164.8002
 10
1036.5779
 20
164.8002
 10
1037.5345
 20
163.2272
  0
LWPOLYLINE
  5
BB
330
1F
100
AcDbEntity
  8
Layer 1
 62
     7
370
    25
100
AcDbPolyline
 90
        7
 70
     1
 43
0.0
 10
1037.5345
 20
189.877
 10
1036.5779
 20
188.2851
 10
1034.669
 20
188.2851
 10
1033.7124
 20
189.877
 10
1034.669
 20
191.4677
 10
1036.5779
 20
191.4677
 10
1037.5345
 20
189.877
  0
LWPOLYLINE
  5
BC
330
1F
100
AcDbEntity
  8
Layer 1
 62
     7
370
    25
100
AcDbPolyline
 90
        7
 70
     1
 43
0.0
 10
1037.5345
 20
216.8449
 10
1036.5779
 20
215.2531
 10
1034.669
 20
215.2531
 10
1033.7124
 20
216.8449
 10
1034.669
 20
218.4357
 10
1036.5779
 20
218.4357
 10
1037.5345
 20
216.8449
  0
LWPOLYLINE
  5
BD
330
1F
100
AcDbEntity
  8
Layer 1
 62
     7
370
    25
100
AcDbPolyline
 90
        7
 70
     1
 43
0.0
 10
1037.5345
 20
243.4947
 10
1036.5779
 20
241.9217
 10
1034.669
 20
241.9217
 10
1033.7124
 20
243.4947
 10
1034.669
 20
245.0855
 10
1036.5779
 20
245.0855
 10
1037.5345
 20
243.4947
  0
LWPOLYLINE
  5
BE
330
1F
100
AcDbEntity
  8
Layer 1
 62
     7
370
    25
100
AcDbPolyline
 90
        7
 70
     1
 43
0.0
 10
1037.5345
 20
270.4626
 10
1036.5779
 20
268.8896
 10
1034.669
 20
268.8896
 10
1033.7124
 20
270.4626
 10
1034.669
 20
272.0534
 10
1036.5779
 20
272.0534
 10
1037.5345
 20
270.4626
  0
LWPOLYLINE
  5
BF
330
1F
100
AcDbEntity
  8
Layer 1
 62
     7
370
    25
100
AcDbPolyline
 90
        7
 70
     1
 43
0.0
 10
1010.8246
 20
-78.2724
 10
1009.868
 20
-79.8454
 10
1007.9779
 20
-79.8454
 10
1007.0213
 20
-78.2724
 10
1007.9779
 20
-76.6816
 10
1009.868
 20
-76.6816
 10
1010.8246
 20
-78.2724
  0
LWPOLYLINE
  5
C0
330
1F
100
AcDbEntity
  8
Layer 1
 62
     7
370
    25
100
AcDbPolyline
 90
        7
 70
     1
 43
0.0
 10
1010.8246
 20
-51.6027
 10
1009.868
 20
-53.1946
 10
1007.9779
 20
-53.1946
 10
1007.0213
 20
-51.6027
 10
1007.9779
 20
-50.0308
 10
1009.868
 20
-50.0308
 10
1010.8246
 20
-51.6027
  0
LWPOLYLINE
  5
C1
330
1F
100
AcDbEntity
  8
Layer 1
 62
     7
370
    25
100
AcDbPolyline
 90
        7
 70
     1
 43
0.0
 10
1010.8246
 20
-24.6358
 10
1009.868
 20
-26.2266
 10
1007.9779
 20
-26.2266
 10
1007.0213
 20
-24.6358
 10
1007.9779
 20
-23.044
 10
1009.868
 20
-23.044
 10
1010.8246
 20
-24.6358
  0
LWPOLYLINE
  5
C2
330
1F
100
AcDbEntity
  8
Layer 1
 62
     7
370
    25
100
AcDbPolyline
 90
        7
 70
     1
 43
0.0
 10
1010.8246
 20
2.015
 10
1009.868
 20
0.4232
 10
1007.9779
 20
0.4232
 10
1007.0213
 20
2.015
 10
1007.9779
 20
3.9239
 10
1009.868
 20
3.9239
 10
1010.8246
 20
2.015
  0
LWPOLYLINE
  5
C3
330
1F
100
AcDbEntity
  8
Layer 1
 62
     7
370
    25
100
AcDbPolyline
 90
        7
 70
     1
 43
0.0
 10
1010.8246
 20
28.9829
 10
1009.868
 20
27.4099
 10
1007.9779
 20
27.4099
 10
1007.0213
 20
28.9829
 10
1007.9779
 20
30.5737
 10
1009.868
 20
30.5737
 10
1010.8246
 20
28.9829
  0
LWPOLYLINE
  5
C4
330
1F
100
AcDbEntity
  8
Layer 1
 62
     7
370
    25
100
AcDbPolyline
 90
        7
 70
     1
 43
0.0
 10
1010.8246
 20
55.9708
 10
1009.868
 20
54.38
 10
1007.9779
 20
54.38
 10
1007.0213
 20
55.9708
 10
1007.9779
 20
57.5438
 10
1009.868
 20
57.5438
 10
1010.8246
 20
55.9708
  0
LWPOLYLINE
  5
C5
330
1F
100
AcDbEntity
  8
Layer 1
 62
     7
370
    25
100
AcDbPolyline
 90
        7
 70
     1
 43
0.0
 10
1010.8246
 20
82.6206
 10
1009.868
 20
81.0298
 10
1007.9779
 20
81.0298
 10
1007.0213
 20
82.6206
 10
1007.9779
 20
84.2124
 10
1009.868
 20
84.2124
 10
1010.8246
 20
82.6206
  0
LWPOLYLINE
  5
C6
330
1F
100
AcDbEntity
  8
Layer 1
 62
     7
370
    25
100
AcDbPolyline
 90
        7
 70
     1
 43
0.0
 10
1010.8246
 20
109.5895
 10
1009.868
 20
107.9977
 10
1007.9779
 20
107.9977
 10
1007.0213
 20
109.5895
 10
1007.9779
 20
111.1803
 10
1009.868
 20
111.1803
 10
1010.8246
 20
109.5895
  0
LWPOLYLINE
  5
C7
330
1F
100
AcDbEntity
  8
Layer 1
 62
     7
370
    25
100
AcDbPolyline
 90
        7
 70
     1
 43
0.0
 10
1010.8246
 20
136.2383
 10
1009.868
 20
134.6663
 10
1007.9779
 20
134.6663
 10
1007.0213
 20
136.2383
 10
1007.9779
 20
137.8301
 10
1009.868
 20
137.8301
 10
1010.8246
 20
136.2383
  0
LWPOLYLINE
  5
C8
330
1F
100
AcDbEntity
  8
Layer 1
 62
     7
370
    25
100
AcDbPolyline
 90
        7
 70
     1
 43
0.0
 10
1010.8246
 20
163.2272
 10
1009.868
 20
161.6353
 10
1007.9779
 20
161.6353
 10
1007.0213
 20
163.2272
 10
1007.9779
 20
164.8002
 10
1009.868
 20
164.8002
 10
1010.8246
 20
163.2272
  0
LWPOLYLINE
  5
C9
330
1F
100
AcDbEntity
  8
Layer 1
 62
     7
370
    25
100
AcDbPolyline
 90
        7
 70
     1
 43
0.0
 10
1010.8246
 20
189.877
 10
1009.868
 20
188.2851
 10
1007.9779
 20
188.2851
 10
1007.0213
 20
189.877
 10
1007.9779
 20
191.4677
 10
1009.868
 20
191.4677
 10
1010.8246
 20
189.877
  0
LWPOLYLINE
  5
CA
330
1F
100
AcDbEntity
  8
Layer 1
 62
     7
370
    25
100
AcDbPolyline
 90
        7
 70
     1
 43
0.0
 10
1010.8246
 20
216.8449
 10
1009.868
 20
215.2531
 10
1007.9779
 20
215.2531
 10
1007.0213
 20
216.8449
 10
1007.9779
 20
218.4357
 10
1009.868
 20
218.4357
 10
1010.8246
 20
216.8449
  0
LWPOLYLINE
  5
CB
330
1F
100
AcDbEntity
  8
Layer 1
 62
     7
370
    25
100
AcDbPolyline
 90
        7
 70
     1
 43
0.0
 10
1010.8246
 20
243.4947
 10
1009.868
 20
241.9217
 10
1007.9779
 20
241.9217
 10
1007.0213
 20
243.4947
 10
1007.9779
 20
245.0855
 10
1009.868
 20
245.0855
 10
1010.8246
 20
243.4947
  0
LWPOLYLINE
  5
CC
330
1F
100
AcDbEntity
  8
Layer 1
 62
     7
370
    25
100
AcDbPolyline
 90
        7
 70
     1
 43
0.0
 10
1010.8246
 20
270.4626
 10
1009.868
 20
268.8896
 10
1007.9779
 20
268.8896
 10
1007.0213
 20
270.4626
 10
1007.9779
 20
272.0534
 10
1009.868
 20
272.0534
 10
1010.8246
 20
270.4626
  0
LWPOLYLINE
  5
CD
330
1F
100
AcDbEntity
  8
Layer 1
 62
     7
370
    25
100
AcDbPolyline
 90
        7
 70
     1
 43
0.0
 10
983.8153
 20
-78.2724
 10
982.8598
 20
-79.8454
 10
980.9508
 20
-79.8454
 10
979.9942
 20
-78.2724
 10
980.9508
 20
-76.6816
 10
982.8598
 20
-76.6816
 10
983.8153
 20
-78.2724
  0
LWPOLYLINE
  5
CE
330
1F
100
AcDbEntity
  8
Layer 1
 62
     7
370
    25
100
AcDbPolyline
 90
        7
 70
     1
 43
0.0
 10
983.8153
 20
-51.6027
 10
982.8598
 20
-53.1946
 10
980.9508
 20
-53.1946
 10
979.9942
 20
-51.6027
 10
980.9508
 20
-50.0308
 10
982.8598
 20
-50.0308
 10
983.8153
 20
-51.6027
  0
LWPOLYLINE
  5
CF
330
1F
100
AcDbEntity
  8
Layer 1
 62
     7
370
    25
100
AcDbPolyline
 90
        7
 70
     1
 43
0.0
 10
983.8153
 20
-24.6358
 10
982.8598
 20
-26.2266
 10
980.9508
 20
-26.2266
 10
979.9942
 20
-24.6358
 10
980.9508
 20
-23.044
 10
982.8598
 20
-23.044
 10
983.8153
 20
-24.6358
  0
LWPOLYLINE
  5
D0
330
1F
100
AcDbEntity
  8
Layer 1
 62
     7
370
    25
100
AcDbPolyline
 90
        7
 70
     1
 43
0.0
 10
983.8153
 20
2.015
 10
982.8598
 20
0.4232
 10
980.9508
 20
0.4232
 10
979.9942
 20
2.015
 10
980.9508
 20
3.9239
 10
982.8598
 20
3.9239
 10
983.8153
 20
2.015
  0
LWPOLYLINE
  5
D1
330
1F
100
AcDbEntity
  8
Layer 1
 62
     7
370
    25
100
AcDbPolyline
 90
        7
 70
     1
 43
0.0
 10
983.8153
 20
28.9829
 10
982.8598
 20
27.4099
 10
980.9508
 20
27.4099
 10
979.9942
 20
28.9829
 10
980.9508
 20
30.5737
 10
982.8598
 20
30.5737
 10
983.8153
 20
28.9829
  0
LWPOLYLINE
  5
D2
330
1F
100
AcDbEntity
  8
Layer 1
 62
     7
370
    25
100
AcDbPolyline
 90
        7
 70
     1
 43
0.0
 10
983.8153
 20
55.9708
 10
982.8598
 20
54.38
 10
980.9508
 20
54.38
 10
979.9942
 20
55.9708
 10
980.9508
 20
57.5438
 10
982.8598
 20
57.5438
 10
983.8153
 20
55.9708
  0
LWPOLYLINE
  5
D3
330
1F
100
AcDbEntity
  8
Layer 1
 62
     7
370
    25
100
AcDbPolyline
 90
        7
 70
     1
 43
0.0
 10
983.8153
 20
82.6206
 10
982.8598
 20
81.0298
 10
980.9508
 20
81.0298
 10
979.9942
 20
82.6206
 10
980.9508
 20
84.2124
 10
982.8598
 20
84.2124
 10
983.8153
 20
82.6206
  0
LWPOLYLINE
  5
D4
330
1F
100
AcDbEntity
  8
Layer 1
 62
     7
370
    25
100
AcDbPolyline
 90
        7
 70
     1
 43
0.0
 10
983.8153
 20
109.5895
 10
982.8598
 20
107.9977
 10
980.9508
 20
107.9977
 10
979.9942
 20
109.5895
 10
980.9508
 20
111.1803
 10
982.8598
 20
111.1803
 10
983.8153
 20
109.5895
  0
LWPOLYLINE
  5
D5
330
1F
100
AcDbEntity
  8
Layer 1
 62
     7
370
    25
100
AcDbPolyline
 90
        7
 70
     1
 43
0.0
 10
983.8153
 20
136.2383
 10
982.8598
 20
134.6663
 10
980.9508
 20
134.6663
 10
979.9942
 20
136.2383
 10
980.9508
 20
137.8301
 10
982.8598
 20
137.8301
 10
983.8153
 20
136.2383
  0
LWPOLYLINE
  5
D6
330
1F
100
AcDbEntity
  8
Layer 1
 62
     7
370
    25
100
AcDbPolyline
 90
        7
 70
     1
 43
0.0
 10
983.8153
 20
163.2272
 10
982.8598
 20
161.6353
 10
980.9508
 20
161.6353
 10
979.9942
 20
163.2272
 10
980.9508
 20
164.8002
 10
982.8598
 20
164.8002
 10
983.8153
 20
163.2272
  0
LWPOLYLINE
  5
D7
330
1F
100
AcDbEntity
  8
Layer 1
 62
     7
370
    25
100
AcDbPolyline
 90
        7
 70
     1
 43
0.0
 10
983.8153
 20
189.877
 10
982.8598
 20
188.2851
 10
980.9508
 20
188.2851
 10
979.9942
 20
189.877
 10
980.9508
 20
191.4677
 10
982.8598
 20
191.4677
 10
983.8153
 20
189.877
  0
LWPOLYLINE
  5
D8
330
1F
100
AcDbEntity
  8
Layer 1
 62
     7
370
    25
100
AcDbPolyline
 90
        7
 70
     1
 43
0.0
 10
983.8153
 20
216.8449
 10
982.8598
 20
215.2531
 10
980.9508
 20
215.2531
 10
979.9942
 20
216.8449
 10
980.9508
 20
218.4357
 10
982.8598
 20
218.4357
 10
983.8153
 20
216.8449
  0
LWPOLYLINE
  5
D9
330
1F
100
AcDbEntity
  8
Layer 1
 62
     7
370
    25
100
AcDbPolyline
 90
        7
 70
     1
 43
0.0
 10
983.8153
 20
243.4947
 10
982.8598
 20
241.9217
 10
980.9508
 20
241.9217
 10
979.9942
 20
243.4947
 10
980.9508
 20
245.0855
 10
982.8598
 20
245.0855
 10
983.8153
 20
243.4947
  0
LWPOLYLINE
  5
DA
330
1F
100
AcDbEntity
  8
Layer 1
 62
     7
370
    25
100
AcDbPolyline
 90
        7
 70
     1
 43
0.0
 10
983.8153
 20
270.4626
 10
982.8598
 20
268.8896
 10
980.9508
 20
268.8896
 10
979.9942
 20
270.4626
 10
980.9508
 20
272.0534
 10
982.8598
 20
272.0534
 10
983.8153
 20
270.4626
  0
LWPOLYLINE
  5
DB
330
1F
100
AcDbEntity
  8
Layer 1
 62
     7
370
    25
100
AcDbPolyline
 90
        7
 70
     1
 43
0.0
 10
956.8071
 20
-78.2724
 10
956.1687
 20
-79.8454
 10
954.2597
 20
-79.8454
 10
953.3031
 20
-78.2724
 10
954.2597
 20
-76.6816
 10
956.1687
 20
-76.6816
 10
956.8071
 20
-78.2724
  0
LWPOLYLINE
  5
DC
330
1F
100
AcDbEntity
  8
Layer 1
 62
     7
370
    25
100
AcDbPolyline
 90
        7
 70
     1
 43
0.0
 10
956.8071
 20
-51.6027
 10
956.1687
 20
-53.1946
 10
954.2597
 20
-53.1946
 10
953.3031
 20
-51.6027
 10
954.2597
 20
-50.0308
 10
956.1687
 20
-50.0308
 10
956.8071
 20
-51.6027
  0
LWPOLYLINE
  5
DD
330
1F
100
AcDbEntity
  8
Layer 1
 62
     7
370
    25
100
AcDbPolyline
 90
        7
 70
     1
 43
0.0
 10
956.8071
 20
-24.6358
 10
956.1687
 20
-26.2266
 10
954.2597
 20
-26.2266
 10
953.3031
 20
-24.6358
 10
954.2597
 20
-23.044
 10
956.1687
 20
-23.044
 10
956.8071
 20
-24.6358
  0
LWPOLYLINE
  5
DE
330
1F
100
AcDbEntity
  8
Layer 1
 62
     7
370
    25
100
AcDbPolyline
 90
        7
 70
     1
 43
0.0
 10
956.8071
 20
2.015
 10
956.1687
 20
0.4232
 10
954.2597
 20
0.4232
 10
953.3031
 20
2.015
 10
954.2597
 20
3.9239
 10
956.1687
 20
3.9239
 10
956.8071
 20
2.015
  0
LWPOLYLINE
  5
DF
330
1F
100
AcDbEntity
  8
Layer 1
 62
     7
370
    25
100
AcDbPolyline
 90
        7
 70
     1
 43
0.0
 10
956.8071
 20
28.9829
 10
956.1687
 20
27.4099
 10
954.2597
 20
27.4099
 10
953.3031
 20
28.9829
 10
954.2597
 20
30.5737
 10
956.1687
 20
30.5737
 10
956.8071
 20
28.9829
  0
LWPOLYLINE
  5
E0
330
1F
100
AcDbEntity
  8
Layer 1
 62
     7
370
    25
100
AcDbPolyline
 90
        7
 70
     1
 43
0.0
 10
956.8071
 20
55.9708
 10
956.1687
 20
54.38
 10
954.2597
 20
54.38
 10
953.3031
 20
55.9708
 10
954.2597
 20
57.5438
 10
956.1687
 20
57.5438
 10
956.8071
 20
55.9708
  0
LWPOLYLINE
  5
E1
330
1F
100
AcDbEntity
  8
Layer 1
 62
     7
370
    25
100
AcDbPolyline
 90
        7
 70
     1
 43
0.0
 10
956.8071
 20
82.6206
 10
956.1687
 20
81.0298
 10
954.2597
 20
81.0298
 10
953.3031
 20
82.6206
 10
954.2597
 20
84.2124
 10
956.1687
 20
84.2124
 10
956.8071
 20
82.6206
  0
LWPOLYLINE
  5
E2
330
1F
100
AcDbEntity
  8
Layer 1
 62
     7
370
    25
100
AcDbPolyline
 90
        7
 70
     1
 43
0.0
 10
956.8071
 20
109.5895
 10
956.1687
 20
107.9977
 10
954.2597
 20
107.9977
 10
953.3031
 20
109.5895
 10
954.2597
 20
111.1803
 10
956.1687
 20
111.1803
 10
956.8071
 20
109.5895
  0
LWPOLYLINE
  5
E3
330
1F
100
AcDbEntity
  8
Layer 1
 62
     7
370
    25
100
AcDbPolyline
 90
        7
 70
     1
 43
0.0
 10
956.8071
 20
136.2383
 10
956.1687
 20
134.6663
 10
954.2597
 20
134.6663
 10
953.3031
 20
136.2383
 10
954.2597
 20
137.8301
 10
956.1687
 20
137.8301
 10
956.8071
 20
136.2383
  0
LWPOLYLINE
  5
E4
330
1F
100
AcDbEntity
  8
Layer 1
 62
     7
370
    25
100
AcDbPolyline
 90
        7
 70
     1
 43
0.0
 10
956.8071
 20
163.2272
 10
956.1687
 20
161.6353
 10
954.2597
 20
161.6353
 10
953.3031
 20
163.2272
 10
954.2597
 20
164.8002
 10
956.1687
 20
164.8002
 10
956.8071
 20
163.2272
  0
LWPOLYLINE
  5
E5
330
1F
100
AcDbEntity
  8
Layer 1
 62
     7
370
    25
100
AcDbPolyline
 90
        7
 70
     1
 43
0.0
 10
956.8071
 20
189.877
 10
956.1687
 20
188.2851
 10
954.2597
 20
188.2851
 10
953.3031
 20
189.877
 10
954.2597
 20
191.4677
 10
956.1687
 20
191.4677
 10
956.8071
 20
189.877
  0
LWPOLYLINE
  5
E6
330
1F
100
AcDbEntity
  8
Layer 1
 62
     7
370
    25
100
AcDbPolyline
 90
        7
 70
     1
 43
0.0
 10
956.8071
 20
216.8449
 10
956.1687
 20
215.2531
 10
954.2597
 20
215.2531
 10
953.3031
 20
216.8449
 10
954.2597
 20
218.4357
 10
956.1687
 20
218.4357
 10
956.8071
 20
216.8449
  0
LWPOLYLINE
  5
E7
330
1F
100
AcDbEntity
  8
Layer 1
 62
     7
370
    25
100
AcDbPolyline
 90
        7
 70
     1
 43
0.0
 10
956.8071
 20
243.4947
 10
956.1687
 20
241.9217
 10
954.2597
 20
241.9217
 10
953.3031
 20
243.4947
 10
954.2597
 20
245.0855
 10
956.1687
 20
245.0855
 10
956.8071
 20
243.4947
  0
LWPOLYLINE
  5
E8
330
1F
100
AcDbEntity
  8
Layer 1
 62
     7
370
    25
100
AcDbPolyline
 90
        7
 70
     1
 43
0.0
 10
956.8071
 20
270.4626
 10
956.1687
 20
268.8896
 10
954.2597
 20
268.8896
 10
953.3031
 20
270.4626
 10
954.2597
 20
272.0534
 10
956.1687
 20
272.0534
 10
956.8071
 20
270.4626
  0
LWPOLYLINE
  5
E9
330
1F
100
AcDbEntity
  8
Layer 1
 62
     7
370
    25
100
AcDbPolyline
 90
        7
 70
     1
 43
0.0
 10
930.1171
 20
-78.2724
 10
929.1605
 20
-79.8454
 10
927.2515
 20
-79.8454
 10
926.296
 20
-78.2724
 10
927.2515
 20
-76.6816
 10
929.1605
 20
-76.6816
 10
930.1171
 20
-78.2724
  0
LWPOLYLINE
  5
EA
330
1F
100
AcDbEntity
  8
Layer 1
 62
     7
370
    25
100
AcDbPolyline
 90
        7
 70
     1
 43
0.0
 10
930.1171
 20
-51.6027
 10
929.1605
 20
-53.1946
 10
927.2515
 20
-53.1946
 10
926.296
 20
-51.6027
 10
927.2515
 20
-50.0308
 10
929.1605
 20
-50.0308
 10
930.1171
 20
-51.6027
  0
LWPOLYLINE
  5
EB
330
1F
100
AcDbEntity
  8
Layer 1
 62
     7
370
    25
100
AcDbPolyline
 90
        7
 70
     1
 43
0.0
 10
930.1171
 20
-24.6358
 10
929.1605
 20
-26.2266
 10
927.2515
 20
-26.2266
 10
926.296
 20
-24.6358
 10
927.2515
 20
-23.044
 10
929.1605
 20
-23.044
 10
930.1171
 20
-24.6358
  0
LWPOLYLINE
  5
EC
330
1F
100
AcDbEntity
  8
Layer 1
 62
     7
370
    25
100
AcDbPolyline
 90
        7
 70
     1
 43
0.0
 10
930.1171
 20
2.015
 10
929.1605
 20
0.4232
 10
927.2515
 20
0.4232
 10
926.296
 20
2.015
 10
927.2515
 20
3.9239
 10
929.1605
 20
3.9239
 10
930.1171
 20
2.015
  0
LWPOLYLINE
  5
ED
330
1F
100
AcDbEntity
  8
Layer 1
 62
     7
370
    25
100
AcDbPolyline
 90
        7
 70
     1
 43
0.0
 10
930.1171
 20
28.9829
 10
929.1605
 20
27.4099
 10
927.2515
 20
27.4099
 10
926.296
 20
28.9829
 10
927.2515
 20
30.5737
 10
929.1605
 20
30.5737
 10
930.1171
 20
28.9829
  0
LWPOLYLINE
  5
EE
330
1F
100
AcDbEntity
  8
Layer 1
 62
     7
370
    25
100
AcDbPolyline
 90
        7
 70
     1
 43
0.0
 10
930.1171
 20
55.9708
 10
929.1605
 20
54.38
 10
927.2515
 20
54.38
 10
926.296
 20
55.9708
 10
927.2515
 20
57.5438
 10
929.1605
 20
57.5438
 10
930.1171
 20
55.9708
  0
LWPOLYLINE
  5
EF
330
1F
100
AcDbEntity
  8
Layer 1
 62
     7
370
    25
100
AcDbPolyline
 90
        7
 70
     1
 43
0.0
 10
930.1171
 20
82.6206
 10
929.1605
 20
81.0298
 10
927.2515
 20
81.0298
 10
926.296
 20
82.6206
 10
927.2515
 20
84.2124
 10
929.1605
 20
84.2124
 10
930.1171
 20
82.6206
  0
LWPOLYLINE
  5
F0
330
1F
100
AcDbEntity
  8
Layer 1
 62
     7
370
    25
100
AcDbPolyline
 90
        7
 70
     1
 43
0.0
 10
930.1171
 20
109.5895
 10
929.1605
 20
107.9977
 10
927.2515
 20
107.9977
 10
926.296
 20
109.5895
 10
927.2515
 20
111.1803
 10
929.1605
 20
111.1803
 10
930.1171
 20
109.5895
  0
LWPOLYLINE
  5
F1
330
1F
100
AcDbEntity
  8
Layer 1
 62
     7
370
    25
100
AcDbPolyline
 90
        7
 70
     1
 43
0.0
 10
930.1171
 20
136.2383
 10
929.1605
 20
134.6663
 10
927.2515
 20
134.6663
 10
926.296
 20
136.2383
 10
927.2515
 20
137.8301
 10
929.1605
 20
137.8301
 10
930.1171
 20
136.2383
  0
LWPOLYLINE
  5
F2
330
1F
100
AcDbEntity
  8
Layer 1
 62
     7
370
    25
100
AcDbPolyline
 90
        7
 70
     1
 43
0.0
 10
849.3897
 20
55.9708
 10
848.4341
 20
54.38
 10
846.8423
 20
54.38
 10
845.8867
 20
55.9708
 10
846.8423
 20
57.5438
 10
848.4341
 20
57.5438
 10
849.3897
 20
55.9708
  0
LWPOLYLINE
  5
F3
330
1F
100
AcDbEntity
  8
Layer 1
 62
     7
370
    25
100
AcDbPolyline
 90
        7
 70
     1
 43
0.0
 10
849.3897
 20
82.6206
 10
848.4341
 20
81.0298
 10
846.8423
 20
81.0298
 10
845.8867
 20
82.6206
 10
846.8423
 20
84.2124
 10
848.4341
 20
84.2124
 10
849.3897
 20
82.6206
  0
LWPOLYLINE
  5
F4
330
1F
100
AcDbEntity
  8
Layer 1
 62
     7
370
    25
100
AcDbPolyline
 90
        7
 70
     1
 43
0.0
 10
849.3897
 20
109.5895
 10
848.4341
 20
107.9977
 10
846.8423
 20
107.9977
 10
845.8867
 20
109.5895
 10
846.8423
 20
111.1803
 10
848.4341
 20
111.1803
 10
849.3897
 20
109.5895
  0
LWPOLYLINE
  5
F5
330
1F
100
AcDbEntity
  8
Layer 1
 62
     7
370
    25
100
AcDbPolyline
 90
        7
 70
     1
 43
0.0
 10
849.3897
 20
136.2383
 10
848.4341
 20
134.6663
 10
846.8423
 20
134.6663
 10
845.8867
 20
136.2383
 10
846.8423
 20
137.8301
 10
848.4341
 20
137.8301
 10
849.3897
 20
136.2383
  0
LWPOLYLINE
  5
F6
330
1F
100
AcDbEntity
  8
Layer 1
 62
     7
370
    25
100
AcDbPolyline
 90
        7
 70
     1
 43
0.0
 10
849.3897
 20
163.2272
 10
848.4341
 20
161.6353
 10
846.8423
 20
161.6353
 10
845.8867
 20
163.2272
 10
846.8423
 20
164.8002
 10
848.4341
 20
164.8002
 10
849.3897
 20
163.2272
  0
LWPOLYLINE
  5
F7
330
1F
100
AcDbEntity
  8
Layer 1
 62
     7
370
    25
100
AcDbPolyline
 90
        7
 70
     1
 43
0.0
 10
849.3897
 20
189.877
 10
848.4341
 20
188.2851
 10
846.8423
 20
188.2851
 10
845.8867
 20
189.877
 10
846.8423
 20
191.4677
 10
848.4341
 20
191.4677
 10
849.3897
 20
189.877
  0
LWPOLYLINE
  5
F8
330
1F
100
AcDbEntity
  8
Layer 1
 62
     7
370
    25
100
AcDbPolyline
 90
        7
 70
     1
 43
0.0
 10
849.3897
 20
216.8449
 10
848.4341
 20
215.2531
 10
846.8423
 20
215.2531
 10
845.8867
 20
216.8449
 10
846.8423
 20
218.4357
 10
848.4341
 20
218.4357
 10
849.3897
 20
216.8449
  0
LWPOLYLINE
  5
F9
330
1F
100
AcDbEntity
  8
Layer 1
 62
     7
370
    25
100
AcDbPolyline
 90
        7
 70
     1
 43
0.0
 10
849.3897
 20
243.4947
 10
848.4341
 20
241.9217
 10
846.8423
 20
241.9217
 10
845.8867
 20
243.4947
 10
846.8423
 20
245.0855
 10
848.4341
 20
245.0855
 10
849.3897
 20
243.4947
  0
LWPOLYLINE
  5
FA
330
1F
100
AcDbEntity
  8
Layer 1
 62
     7
370
    25
100
AcDbPolyline
 90
        7
 70
     1
 43
0.0
 10
849.3897
 20
270.4626
 10
848.4341
 20
268.8896
 10
846.8423
 20
268.8896
 10
845.8867
 20
270.4626
 10
846.8423
 20
272.0534
 10
848.4341
 20
272.0534
 10
849.3897
 20
270.4626
  0
LWPOLYLINE
  5
FB
330
1F
100
AcDbEntity
  8
Layer 1
 62
     7
370
    25
100
AcDbPolyline
 90
        7
 70
     1
 43
0.0
 10
822.6996
 20
-78.2724
 10
821.7441
 20
-79.8454
 10
819.8351
 20
-79.8454
 10
818.8785
 20
-78.2724
 10
819.8351
 20
-76.6816
 10
821.7441
 20
-76.6816
 10
822.6996
 20
-78.2724
  0
LWPOLYLINE
  5
FC
330
1F
100
AcDbEntity
  8
Layer 1
 62
     7
370
    25
100
AcDbPolyline
 90
        7
 70
     1
 43
0.0
 10
822.6996
 20
-51.6027
 10
821.7441
 20
-53.1946
 10
819.8351
 20
-53.1946
 10
818.8785
 20
-51.6027
 10
819.8351
 20
-50.0308
 10
821.7441
 20
-50.0308
 10
822.6996
 20
-51.6027
  0
LWPOLYLINE
  5
FD
330
1F
100
AcDbEntity
  8
Layer 1
 62
     7
370
    25
100
AcDbPolyline
 90
        7
 70
     1
 43
0.0
 10
822.6996
 20
-24.6358
 10
821.7441
 20
-26.2266
 10
819.8351
 20
-26.2266
 10
818.8785
 20
-24.6358
 10
819.8351
 20
-23.044
 10
821.7441
 20
-23.044
 10
822.6996
 20
-24.6358
  0
LWPOLYLINE
  5
FE
330
1F
100
AcDbEntity
  8
Layer 1
 62
     7
370
    25
100
AcDbPolyline
 90
        7
 70
     1
 43
0.0
 10
822.6996
 20
2.015
 10
821.7441
 20
0.4232
 10
819.8351
 20
0.4232
 10
818.8785
 20
2.015
 10
819.8351
 20
3.9239
 10
821.7441
 20
3.9239
 10
822.6996
 20
2.015
  0
LWPOLYLINE
  5
FF
330
1F
100
AcDbEntity
  8
Layer 1
 62
     7
370
    25
100
AcDbPolyline
 90
        7
 70
     1
 43
0.0
 10
822.6996
 20
28.9829
 10
821.7441
 20
27.4099
 10
819.8351
 20
27.4099
 10
818.8785
 20
28.9829
 10
819.8351
 20
30.5737
 10
821.7441
 20
30.5737
 10
822.6996
 20
28.9829
  0
LWPOLYLINE
  5
100
330
1F
100
AcDbEntity
  8
Layer 1
 62
     7
370
    25
100
AcDbPolyline
 90
        7
 70
     1
 43
0.0
 10
822.6996
 20
55.9708
 10
821.7441
 20
54.38
 10
819.8351
 20
54.38
 10
818.8785
 20
55.9708
 10
819.8351
 20
57.5438
 10
821.7441
 20
57.5438
 10
822.6996
 20
55.9708
  0
LWPOLYLINE
  5
101
330
1F
100
AcDbEntity
  8
Layer 1
 62
     7
370
    25
100
AcDbPolyline
 90
        7
 70
     1
 43
0.0
 10
822.6996
 20
82.6206
 10
821.7441
 20
81.0298
 10
819.8351
 20
81.0298
 10
818.8785
 20
82.6206
 10
819.8351
 20
84.2124
 10
821.7441
 20
84.2124
 10
822.6996
 20
82.6206
  0
LWPOLYLINE
  5
102
330
1F
100
AcDbEntity
  8
Layer 1
 62
     7
370
    25
100
AcDbPolyline
 90
        7
 70
     1
 43
0.0
 10
822.6996
 20
109.5895
 10
821.7441
 20
107.9977
 10
819.8351
 20
107.9977
 10
818.8785
 20
109.5895
 10
819.8351
 20
111.1803
 10
821.7441
 20
111.1803
 10
822.6996
 20
109.5895
  0
LWPOLYLINE
  5
103
330
1F
100
AcDbEntity
  8
Layer 1
 62
     7
370
    25
100
AcDbPolyline
 90
        7
 70
     1
 43
0.0
 10
822.6996
 20
136.2383
 10
821.7441
 20
134.6663
 10
819.8351
 20
134.6663
 10
818.8785
 20
136.2383
 10
819.8351
 20
137.8301
 10
821.7441
 20
137.8301
 10
822.6996
 20
136.2383
  0
LWPOLYLINE
  5
104
330
1F
100
AcDbEntity
  8
Layer 1
 62
     7
370
    25
100
AcDbPolyline
 90
        7
 70
     1
 43
0.0
 10
822.6996
 20
163.2272
 10
821.7441
 20
161.6353
 10
819.8351
 20
161.6353
 10
818.8785
 20
163.2272
 10
819.8351
 20
164.8002
 10
821.7441
 20
164.8002
 10
822.6996
 20
163.2272
  0
LWPOLYLINE
  5
105
330
1F
100
AcDbEntity
  8
Layer 1
 62
     7
370
    25
100
AcDbPolyline
 90
        7
 70
     1
 43
0.0
 10
822.6996
 20
189.877
 10
821.7441
 20
188.2851
 10
819.8351
 20
188.2851
 10
818.8785
 20
189.877
 10
819.8351
 20
191.4677
 10
821.7441
 20
191.4677
 10
822.6996
 20
189.877
  0
LWPOLYLINE
  5
106
330
1F
100
AcDbEntity
  8
Layer 1
 62
     7
370
    25
100
AcDbPolyline
 90
        7
 70
     1
 43
0.0
 10
822.6996
 20
216.8449
 10
821.7441
 20
215.2531
 10
819.8351
 20
215.2531
 10
818.8785
 20
216.8449
 10
819.8351
 20
218.4357
 10
821.7441
 20
218.4357
 10
822.6996
 20
216.8449
  0
LWPOLYLINE
  5
107
330
1F
100
AcDbEntity
  8
Layer 1
 62
     7
370
    25
100
AcDbPolyline
 90
        7
 70
     1
 43
0.0
 10
822.6996
 20
243.4947
 10
821.7441
 20
241.9217
 10
819.8351
 20
241.9217
 10
818.8785
 20
243.4947
 10
819.8351
 20
245.0855
 10
821.7441
 20
245.0855
 10
822.6996
 20
243.4947
  0
LWPOLYLINE
  5
108
330
1F
100
AcDbEntity
  8
Layer 1
 62
     7
370
    25
100
AcDbPolyline
 90
        7
 70
     1
 43
0.0
 10
822.6996
 20
270.4626
 10
821.7441
 20
268.8896
 10
819.8351
 20
268.8896
 10
818.8785
 20
270.4626
 10
819.8351
 20
272.0534
 10
821.7441
 20
272.0534
 10
822.6996
 20
270.4626
  0
LWPOLYLINE
  5
109
330
1F
100
AcDbEntity
  8
Layer 1
 62
     7
370
    25
100
AcDbPolyline
 90
       10
 70
     1
 43
0.0
 10
1212.642
 20
-117.3021
 10
1211.6855
 20
-115.0718
 10
1209.7765
 20
-113.7981
 10
1207.5462
 20
-114.4376
 10
1205.9554
 20
-116.0284
 10
1205.9554
 20
-118.5579
 10
1207.5462
 20
-120.4669
 10
1209.7765
 20
-120.784
 10
1211.6855
 20
-119.5103
 10
1212.642
 20
-117.3021
  0
LWPOLYLINE
  5
10A
330
1F
100
AcDbEntity
  8
Layer 1
 62
     7
370
    25
100
AcDbPolyline
 90
       10
 70
     1
 43
0.0
 10
785.1826
 20
309.5122
 10
784.2271
 20
311.7413
 10
782.3181
 20
313.015
 10
780.0879
 20
312.3766
 10
778.497
 20
310.7858
 10
778.497
 20
308.2563
 10
780.0879
 20
306.3473
 10
782.3181
 20
306.0302
 10
784.2271
 20
307.3039
 10
785.1826
 20
309.5122
  0
LWPOLYLINE
  5
10B
330
1F
100
AcDbEntity
  8
Layer 1
 62
     7
370
    25
100
AcDbPolyline
 90
       10
 70
     1
 43
0.0
 10
785.1826
 20
-117.3021
 10
784.2271
 20
-115.0718
 10
782.3181
 20
-113.7981
 10
780.0879
 20
-114.4376
 10
778.497
 20
-116.0284
 10
778.497
 20
-118.5579
 10
780.0879
 20
-120.4669
 10
782.3181
 20
-120.784
 10
784.2271
 20
-119.5103
 10
785.1826
 20
-117.3021
  0
LWPOLYLINE
  5
10C
330
1F
100
AcDbEntity
  8
Layer 1
 62
     7
370
    25
100
AcDbPolyline
 90
       10
 70
     1
 43
0.0
 10
1212.642
 20
309.5122
 10
1211.6855
 20
311.7413
 10
1209.7765
 20
313.015
 10
1207.5462
 20
312.3766
 10
1205.9554
 20
310.7858
 10
1205.9554
 20
308.2563
 10
1207.5462
 20
306.3473
 10
1209.7765
 20
306.0302
 10
1211.6855
 20
307.3039
 10
1212.642
 20
309.5122
  0
LWPOLYLINE
  5
10D
330
1F
100
AcDbEntity
  8
Layer 1
 62
     7
370
    25
100
AcDbPolyline
 90
        2
 70
     0
 43
0.0
 10
840.4937
 20
-181.0704
 10
1150.344
 20
-181.0704
  0
LWPOLYLINE
  5
10E
330
1F
100
AcDbEntity
  8
Layer 1
 62
     7
370
    25
100
AcDbPolyline
 90
        2
 70
     0
 43
0.0
 10
1150.345
 20
-221.0556
 10
840.4947
 20
-221.0556
  0
LWPOLYLINE
  5
10F
330
1F
100
AcDbEntity
  8
Layer 1
 62
     7
370
    25
100
AcDbPolyline
 90
        2
 70
     0
 43
0.0
 10
840.4937
 20
413.2646
 10
1150.344
 20
413.2646
  0
LWPOLYLINE
  5
110
330
1F
100
AcDbEntity
  8
Layer 1
 62
     7
370
    25
100
AcDbPolyline
 90
        2
 70
     0
 43
0.0
 10
1150.345
 20
373.2805
 10
840.4947
 20
373.2805
  0
LWPOLYLINE
  5
111
330
1F
100
AcDbEntity
  8
Layer 1
 62
     7
370
    25
100
AcDbPolyline
 90
        3
 70
     0
 43
0.0
 10
699.6996
 20
175.9042
 10
701.9288
 20
174.9487
 10
702.8854
 20
173.0576
  0
LWPOLYLINE
  5
112
330
1F
100
AcDbEntity
  8
Layer 1
 62
     7
370
    25
100
AcDbPolyline
 90
        2
 70
     0
 43
0.0
 10
696.833
 20
175.9042
 10
699.6985
 20
175.9042
  0
LWPOLYLINE
  5
113
330
1F
100
AcDbEntity
  8
Layer 1
 62
     7
370
    25
100
AcDbPolyline
 90
        2
 70
     0
 43
0.0
 10
696.833
 20
16.3048
 10
696.833
 20
175.9053
  0
LWPOLYLINE
  5
114
330
1F
100
AcDbEntity
  8
Layer 1
 62
     7
370
    25
100
AcDbPolyline
 90
        2
 70
     0
 43
0.0
 10
699.6996
 20
16.3048
 10
696.834
 20
16.3048
  0
LWPOLYLINE
  5
115
330
1F
100
AcDbEntity
  8
Layer 1
 62
     7
370
    25
100
AcDbPolyline
 90
        3
 70
     0
 43
0.0
 10
702.8833
 20
19.1515
 10
701.9277
 20
16.9432
 10
699.6975
 20
16.3048
  0
LWPOLYLINE
  5
116
330
1F
100
AcDbEntity
  8
Layer 1
 62
     7
370
    25
100
AcDbPolyline
 90
        2
 70
     0
 43
0.0
 10
702.8833
 20
173.0586
 10
702.8833
 20
19.1515
  0
LWPOLYLINE
  5
117
330
1F
100
AcDbEntity
  8
Layer 1
 62
     7
370
    25
100
AcDbPolyline
 90
        2
 70
     0
 43
0.0
 10
1293.9859
 20
175.9042
 10
1293.9859
 20
16.3048
  0
LWPOLYLINE
  5
118
330
1F
100
AcDbEntity
  8
Layer 1
 62
     7
370
    25
100
AcDbPolyline
 90
        2
 70
     0
 43
0.0
 10
1291.1392
 20
175.9042
 10
1293.9859
 20
175.9042
  0
LWPOLYLINE
  5
119
330
1F
100
AcDbEntity
  8
Layer 1
 62
     7
370
    25
100
AcDbPolyline
 90
        3
 70
     0
 43
0.0
 10
1287.9544
 20
173.0586
 10
1288.911
 20
174.9487
 10
1291.1412
 20
175.9053
  0
LWPOLYLINE
  5
11A
330
1F
100
AcDbEntity
  8
Layer 1
 62
     7
370
    25
100
AcDbPolyline
 90
        2
 70
     0
 43
0.0
 10
1287.9544
 20
19.1515
 10
1287.9544
 20
173.0576
  0
LWPOLYLINE
  5
11B
330
1F
100
AcDbEntity
  8
Layer 1
 62
     7
370
    25
100
AcDbPolyline
 90
        3
 70
     0
 43
0.0
 10
1291.1392
 20
16.3048
 10
1288.9099
 20
16.9432
 10
1287.9533
 20
19.1515
  0
LWPOLYLINE
  5
11C
330
1F
100
AcDbEntity
  8
Layer 1
 62
     7
370
    25
100
AcDbPolyline
 90
        2
 70
     0
 43
0.0
 10
1293.9859
 20
16.3048
 10
1291.1392
 20
16.3048
  0
LWPOLYLINE
  5
11D
330
1F
100
AcDbEntity
  8
Layer 1
 62
     7
370
    25
100
AcDbPolyline
 90
       12
 70
     0
 43
0.0
 10
840.4937
 20
-181.0704
 10
835.0807
 20
-182.027
 10
829.6866
 20
-184.2562
 10
825.5474
 20
-188.0552
 10
822.3804
 20
-192.815
 10
820.7886
 20
-198.2048
 10
820.7886
 20
-203.9201
 10
822.3804
 20
-209.311
 10
825.5474
 20
-214.0698
 10
829.6866
 20
-217.8908
 10
835.0807
 20
-220.4161
 10
840.4937
 20
-221.0556
  0
LWPOLYLINE
  5
11E
330
1F
100
AcDbEntity
  8
Layer 1
 62
     7
370
    25
100
AcDbPolyline
 90
       12
 70
     0
 43
0.0
 10
1150.345
 20
-221.0556
 10
1155.7391
 20
-220.4161
 10
1161.1521
 20
-217.8908
 10
1165.2725
 20
-214.0698
 10
1168.4552
 20
-209.311
 10
1170.0501
 20
-203.9201
 10
1170.0501
 20
-198.2048
 10
1168.4552
 20
-192.815
 10
1165.2725
 20
-188.0552
 10
1161.1521
 20
-184.2562
 10
1155.7391
 20
-182.027
 10
1150.345
 20
-181.0704
  0
LWPOLYLINE
  5
11F
330
1F
100
AcDbEntity
  8
Layer 1
 62
     7
370
    25
100
AcDbPolyline
 90
       12
 70
     0
 43
0.0
 10
840.4937
 20
413.2646
 10
835.0807
 20
412.3081
 10
829.6866
 20
410.1009
 10
825.5474
 20
406.2799
 10
822.3804
 20
401.5243
 10
820.7886
 20
396.1302
 10
820.7886
 20
390.4181
 10
822.3804
 20
385.0241
 10
825.5474
 20
380.2653
 10
829.6866
 20
376.4663
 10
835.0807
 20
374.2361
 10
840.4937
 20
373.2795
  0
LWPOLYLINE
  5
120
330
1F
100
AcDbEntity
  8
Layer 1
 62
     7
370
    25
100
AcDbPolyline
 90
       12
 70
     0
 43
0.0
 10
1150.345
 20
373.2805
 10
1155.7391
 20
374.2361
 10
1161.1521
 20
376.4663
 10
1165.2725
 20
380.2653
 10
1168.4552
 20
385.0241
 10
1170.0501
 20
390.4149
 10
1170.0501
 20
396.1302
 10
1168.4552
 20
401.5211
 10
1165.2725
 20
406.2799
 10
1161.1521
 20
410.1009
 10
1155.7391
 20
412.3091
 10
1150.345
 20
413.2646
  0
LWPOLYLINE
  5
121
330
1F
100
AcDbEntity
  8
Layer 1
 62
     7
370
    25
100
AcDbPolyline
 90
        7
 70
     1
 43
0.0
 10
849.3897
 20
28.9829
 10
848.4341
 20
27.4099
 10
846.8423
 20
27.4099
 10
845.8867
 20
28.9829
 10
846.8423
 20
30.5737
 10
848.4341
 20
30.5737
 10
849.3897
 20
28.9829
  0
LWPOLYLINE
  5
122
330
1F
100
AcDbEntity
  8
Layer 1
 62
     7
370
    25
100
AcDbPolyline
 90
        7
 70
     1
 43
0.0
 10
849.3897
 20
2.015
 10
848.4341
 20
0.4232
 10
846.8423
 20
0.4232
 10
845.8867
 20
2.015
 10
846.8423
 20
3.9239
 10
848.4341
 20
3.9239
 10
849.3897
 20
2.015
  0
LWPOLYLINE
  5
123
330
1F
100
AcDbEntity
  8
Layer 1
 62
     7
370
    25
100
AcDbPolyline
 90
        7
 70
     1
 43
0.0
 10
849.3897
 20
-24.6358
 10
848.4341
 20
-26.2266
 10
846.8423
 20
-26.2266
 10
845.8867
 20
-24.6358
 10
846.8423
 20
-23.044
 10
848.4341
 20
-23.044
 10
849.3897
 20
-24.6358
  0
LWPOLYLINE
  5
124
330
1F
100
AcDbEntity
  8
Layer 1
 62
     7
370
    25
100
AcDbPolyline
 90
        7
 70
     1
 43
0.0
 10
849.3897
 20
-51.6027
 10
848.4341
 20
-53.1946
 10
846.8423
 20
-53.1946
 10
845.8867
 20
-51.6027
 10
846.8423
 20
-50.0308
 10
848.4341
 20
-50.0308
 10
849.3897
 20
-51.6027
  0
LWPOLYLINE
  5
125
330
1F
100
AcDbEntity
  8
Layer 1
 62
     7
370
    25
100
AcDbPolyline
 90
        7
 70
     1
 43
0.0
 10
849.3897
 20
-78.2724
 10
848.4341
 20
-79.8454
 10
846.8423
 20
-79.8454
 10
845.8867
 20
-78.2724
 10
846.8423
 20
-76.6816
 10
848.4341
 20
-76.6816
 10
849.3897
 20
-78.2724
  0
LWPOLYLINE
  5
126
330
1F
100
AcDbEntity
  8
Layer 1
 62
     7
370
    25
100
AcDbPolyline
 90
        7
 70
     1
 43
0.0
 10
876.3989
 20
270.4626
 10
875.4423
 20
268.8896
 10
873.5334
 20
268.8896
 10
872.5778
 20
270.4626
 10
873.5334
 20
272.0534
 10
875.4423
 20
272.0534
 10
876.3989
 20
270.4626
  0
LWPOLYLINE
  5
127
330
1F
100
AcDbEntity
  8
Layer 1
 62
     7
370
    25
100
AcDbPolyline
 90
        7
 70
     1
 43
0.0
 10
876.3989
 20
243.4947
 10
875.4423
 20
241.9217
 10
873.5334
 20
241.9217
 10
872.5778
 20
243.4947
 10
873.5334
 20
245.0855
 10
875.4423
 20
245.0855
 10
876.3989
 20
243.4947
  0
LWPOLYLINE
  5
128
330
1F
100
AcDbEntity
  8
Layer 1
 62
     7
370
    25
100
AcDbPolyline
 90
        7
 70
     1
 43
0.0
 10
876.3989
 20
216.8449
 10
875.4423
 20
215.2531
 10
873.5334
 20
215.2531
 10
872.5778
 20
216.8449
 10
873.5334
 20
218.4357
 10
875.4423
 20
218.4357
 10
876.3989
 20
216.8449
  0
LWPOLYLINE
  5
129
330
1F
100
AcDbEntity
  8
Layer 1
 62
     7
370
    25
100
AcDbPolyline
 90
        7
 70
     1
 43
0.0
 10
876.3989
 20
189.877
 10
875.4423
 20
188.2851
 10
873.5334
 20
188.2851
 10
872.5778
 20
189.877
 10
873.5334
 20
191.4677
 10
875.4423
 20
191.4677
 10
876.3989
 20
189.877
  0
LWPOLYLINE
  5
12A
330
1F
100
AcDbEntity
  8
Layer 1
 62
     7
370
    25
100
AcDbPolyline
 90
        7
 70
     1
 43
0.0
 10
876.3989
 20
163.2272
 10
875.4423
 20
161.6353
 10
873.5334
 20
161.6353
 10
872.5778
 20
163.2272
 10
873.5334
 20
164.8002
 10
875.4423
 20
164.8002
 10
876.3989
 20
163.2272
  0
LWPOLYLINE
  5
12B
330
1F
100
AcDbEntity
  8
Layer 1
 62
     7
370
    25
100
AcDbPolyline
 90
        7
 70
     1
 43
0.0
 10
876.3989
 20
136.2383
 10
875.4423
 20
134.6663
 10
873.5334
 20
134.6663
 10
872.5778
 20
136.2383
 10
873.5334
 20
137.8301
 10
875.4423
 20
137.8301
 10
876.3989
 20
136.2383
  0
LWPOLYLINE
  5
12C
330
1F
100
AcDbEntity
  8
Layer 1
 62
     7
370
    25
100
AcDbPolyline
 90
        7
 70
     1
 43
0.0
 10
876.3989
 20
109.5895
 10
875.4423
 20
107.9977
 10
873.5334
 20
107.9977
 10
872.5778
 20
109.5895
 10
873.5334
 20
111.1803
 10
875.4423
 20
111.1803
 10
876.3989
 20
109.5895
  0
LWPOLYLINE
  5
12D
330
1F
100
AcDbEntity
  8
Layer 1
 62
     7
370
    25
100
AcDbPolyline
 90
        7
 70
     1
 43
0.0
 10
876.3989
 20
82.6206
 10
875.4423
 20
81.0298
 10
873.5334
 20
81.0298
 10
872.5778
 20
82.6206
 10
873.5334
 20
84.2124
 10
875.4423
 20
84.2124
 10
876.3989
 20
82.6206
  0
LWPOLYLINE
  5
12E
330
1F
100
AcDbEntity
  8
Layer 1
 62
     7
370
    25
100
AcDbPolyline
 90
        7
 70
     1
 43
0.0
 10
876.3989
 20
55.9708
 10
875.4423
 20
54.38
 10
873.5334
 20
54.38
 10
872.5778
 20
55.9708
 10
873.5334
 20
57.5438
 10
875.4423
 20
57.5438
 10
876.3989
 20
55.9708
  0
LWPOLYLINE
  5
12F
330
1F
100
AcDbEntity
  8
Layer 1
 62
     7
370
    25
100
AcDbPolyline
 90
        7
 70
     1
 43
0.0
 10
876.3989
 20
28.9829
 10
875.4423
 20
27.4099
 10
873.5334
 20
27.4099
 10
872.5778
 20
28.9829
 10
873.5334
 20
30.5737
 10
875.4423
 20
30.5737
 10
876.3989
 20
28.9829
  0
LWPOLYLINE
  5
130
330
1F
100
AcDbEntity
  8
Layer 1
 62
     7
370
    25
100
AcDbPolyline
 90
        7
 70
     1
 43
0.0
 10
876.3989
 20
2.015
 10
875.4423
 20
0.4232
 10
873.5334
 20
0.4232
 10
872.5778
 20
2.015
 10
873.5334
 20
3.9239
 10
875.4423
 20
3.9239
 10
876.3989
 20
2.015
  0
LWPOLYLINE
  5
131
330
1F
100
AcDbEntity
  8
Layer 1
 62
     7
370
    25
100
AcDbPolyline
 90
        7
 70
     1
 43
0.0
 10
876.3989
 20
-24.6358
 10
875.4423
 20
-26.2266
 10
873.5334
 20
-26.2266
 10
872.5778
 20
-24.6358
 10
873.5334
 20
-23.044
 10
875.4423
 20
-23.044
 10
876.3989
 20
-24.6358
  0
LWPOLYLINE
  5
132
330
1F
100
AcDbEntity
  8
Layer 1
 62
     7
370
    25
100
AcDbPolyline
 90
        7
 70
     1
 43
0.0
 10
876.3989
 20
-51.6027
 10
875.4423
 20
-53.1946
 10
873.5334
 20
-53.1946
 10
872.5778
 20
-51.6027
 10
873.5334
 20
-50.0308
 10
875.4423
 20
-50.0308
 10
876.3989
 20
-51.6027
  0
LWPOLYLINE
  5
133
330
1F
100
AcDbEntity
  8
Layer 1
 62
     7
370
    25
100
AcDbPolyline
 90
        7
 70
     1
 43
0.0
 10
876.3989
 20
-78.2724
 10
875.4423
 20
-79.8454
 10
873.5334
 20
-79.8454
 10
872.5778
 20
-78.2724
 10
873.5334
 20
-76.6816
 10
875.4423
 20
-76.6816
 10
876.3989
 20
-78.2724
  0
LWPOLYLINE
  5
134
330
1F
100
AcDbEntity
  8
Layer 1
 62
     7
370
    25
100
AcDbPolyline
 90
       16
 70
     1
 43
0.0
 10
910.7311
 20
189.877
 10
910.0969
 20
186.0549
 10
907.5673
 20
182.8911
 10
904.3815
 20
180.979
 10
900.2423
 20
180.6609
 10
896.439
 20
181.6174
 10
893.5745
 20
184.4819
 10
891.9826
 20
187.9638
 10
891.9826
 20
191.7671
 10
893.5745
 20
195.5881
 10
896.439
 20
198.1176
 10
900.2423
 20
199.3913
 10
904.3815
 20
199.0731
 10
907.5673
 20
196.8617
 10
910.0969
 20
193.6791
 10
910.7311
 20
189.877
  0
LWPOLYLINE
  5
135
330
1F
100
AcDbEntity
  8
Layer 1
 62
     7
370
    25
100
AcDbPolyline
 90
       16
 70
     1
 43
0.0
 10
910.7311
 20
2.015
 10
910.0969
 20
-1.7882
 10
907.5673
 20
-4.9708
 10
904.3815
 20
-6.8609
 10
900.2423
 20
-7.1822
 10
896.439
 20
-5.9086
 10
893.5745
 20
-3.379
 10
891.9826
 20
0.1238
 10
891.9826
 20
4.2442
 10
893.5745
 20
7.7261
 10
896.439
 20
10.2735
 10
900.2423
 20
11.5471
 10
904.3815
 20
11.23
 10
907.5673
 20
9.3179
 10
910.0969
 20
6.1353
 10
910.7311
 20
2.015
  0
LWPOLYLINE
  5
136
330
1F
100
AcDbEntity
  8
Layer 1
 62
     7
370
    25
100
AcDbPolyline
 90
        7
 70
     1
 43
0.0
 10
903.089
 20
270.4626
 10
902.1324
 20
268.8896
 10
900.5594
 20
268.8896
 10
899.607
 20
270.4626
 10
900.5594
 20
272.0534
 10
902.1324
 20
272.0534
 10
903.089
 20
270.4626
  0
LWPOLYLINE
  5
137
330
1F
100
AcDbEntity
  8
Layer 1
 62
     7
370
    25
100
AcDbPolyline
 90
        7
 70
     1
 43
0.0
 10
903.089
 20
243.4947
 10
902.1324
 20
241.9217
 10
900.5594
 20
241.9217
 10
899.607
 20
243.4947
 10
900.5594
 20
245.0855
 10
902.1324
 20
245.0855
 10
903.089
 20
243.4947
  0
LWPOLYLINE
  5
138
330
1F
100
AcDbEntity
  8
Layer 1
 62
     7
370
    25
100
AcDbPolyline
 90
        7
 70
     1
 43
0.0
 10
903.089
 20
216.8449
 10
902.1324
 20
215.2531
 10
900.5594
 20
215.2531
 10
899.607
 20
216.8449
 10
900.5594
 20
218.4357
 10
902.1324
 20
218.4357
 10
903.089
 20
216.8449
  0
LWPOLYLINE
  5
139
330
1F
100
AcDbEntity
  8
Layer 1
 62
     7
370
    25
100
AcDbPolyline
 90
        7
 70
     1
 43
0.0
 10
903.089
 20
163.2272
 10
902.1324
 20
161.6353
 10
900.5594
 20
161.6353
 10
899.607
 20
163.2272
 10
900.5594
 20
164.8002
 10
902.1324
 20
164.8002
 10
903.089
 20
163.2272
  0
LWPOLYLINE
  5
13A
330
1F
100
AcDbEntity
  8
Layer 1
 62
     7
370
    25
100
AcDbPolyline
 90
        7
 70
     1
 43
0.0
 10
903.089
 20
136.2383
 10
902.1324
 20
134.6663
 10
900.5594
 20
134.6663
 10
899.607
 20
136.2383
 10
900.5594
 20
137.8301
 10
902.1324
 20
137.8301
 10
903.089
 20
136.2383
  0
LWPOLYLINE
  5
13B
330
1F
100
AcDbEntity
  8
Layer 1
 62
     7
370
    25
100
AcDbPolyline
 90
        7
 70
     1
 43
0.0
 10
903.089
 20
109.5895
 10
902.1324
 20
107.9977
 10
900.5594
 20
107.9977
 10
899.607
 20
109.5895
 10
900.5594
 20
111.1803
 10
902.1324
 20
111.1803
 10
903.089
 20
109.5895
  0
LWPOLYLINE
  5
13C
330
1F
100
AcDbEntity
  8
Layer 1
 62
     7
370
    25
100
AcDbPolyline
 90
        7
 70
     1
 43
0.0
 10
903.089
 20
82.6206
 10
902.1324
 20
81.0298
 10
900.5594
 20
81.0298
 10
899.607
 20
82.6206
 10
900.5594
 20
84.2124
 10
902.1324
 20
84.2124
 10
903.089
 20
82.6206
  0
LWPOLYLINE
  5
13D
330
1F
100
AcDbEntity
  8
Layer 1
 62
     7
370
    25
100
AcDbPolyline
 90
        7
 70
     1
 43
0.0
 10
903.089
 20
55.9708
 10
902.1324
 20
54.38
 10
900.5594
 20
54.38
 10
899.607
 20
55.9708
 10
900.5594
 20
57.5438
 10
902.1324
 20
57.5438
 10
903.089
 20
55.9708
  0
LWPOLYLINE
  5
13E
330
1F
100
AcDbEntity
  8
Layer 1
 62
     7
370
    25
100
AcDbPolyline
 90
        7
 70
     1
 43
0.0
 10
903.089
 20
28.9829
 10
902.1324
 20
27.4099
 10
900.5594
 20
27.4099
 10
899.607
 20
28.9829
 10
900.5594
 20
30.5737
 10
902.1324
 20
30.5737
 10
903.089
 20
28.9829
  0
LWPOLYLINE
  5
13F
330
1F
100
AcDbEntity
  8
Layer 1
 62
     7
370
    25
100
AcDbPolyline
 90
        7
 70
     1
 43
0.0
 10
903.089
 20
-24.6358
 10
902.1324
 20
-26.2266
 10
900.5594
 20
-26.2266
 10
899.607
 20
-24.6358
 10
900.5594
 20
-23.044
 10
902.1324
 20
-23.044
 10
903.089
 20
-24.6358
  0
LWPOLYLINE
  5
140
330
1F
100
AcDbEntity
  8
Layer 1
 62
     7
370
    25
100
AcDbPolyline
 90
        7
 70
     1
 43
0.0
 10
903.089
 20
-51.6027
 10
902.1324
 20
-53.1946
 10
900.5594
 20
-53.1946
 10
899.607
 20
-51.6027
 10
900.5594
 20
-50.0308
 10
902.1324
 20
-50.0308
 10
903.089
 20
-51.6027
  0
LWPOLYLINE
  5
141
330
1F
100
AcDbEntity
  8
Layer 1
 62
     7
370
    25
100
AcDbPolyline
 90
        7
 70
     1
 43
0.0
 10
903.089
 20
-78.2724
 10
902.1324
 20
-79.8454
 10
900.5594
 20
-79.8454
 10
899.607
 20
-78.2724
 10
900.5594
 20
-76.6816
 10
902.1324
 20
-76.6816
 10
903.089
 20
-78.2724
  0
LWPOLYLINE
  5
142
330
1F
100
AcDbEntity
  8
Layer 1
 62
     7
370
    25
100
AcDbPolyline
 90
        7
 70
     1
 43
0.0
 10
930.1171
 20
270.4626
 10
929.1605
 20
268.8896
 10
927.2515
 20
268.8896
 10
926.296
 20
270.4626
 10
927.2515
 20
272.0534
 10
929.1605
 20
272.0534
 10
930.1171
 20
270.4626
  0
LWPOLYLINE
  5
143
330
1F
100
AcDbEntity
  8
Layer 1
 62
     7
370
    25
100
AcDbPolyline
 90
        7
 70
     1
 43
0.0
 10
930.1171
 20
243.4947
 10
929.1605
 20
241.9217
 10
927.2515
 20
241.9217
 10
926.296
 20
243.4947
 10
927.2515
 20
245.0855
 10
929.1605
 20
245.0855
 10
930.1171
 20
243.4947
  0
LWPOLYLINE
  5
144
330
1F
100
AcDbEntity
  8
Layer 1
 62
     7
370
    25
100
AcDbPolyline
 90
        7
 70
     1
 43
0.0
 10
930.1171
 20
216.8449
 10
929.1605
 20
215.2531
 10
927.2515
 20
215.2531
 10
926.296
 20
216.8449
 10
927.2515
 20
218.4357
 10
929.1605
 20
218.4357
 10
930.1171
 20
216.8449
  0
LWPOLYLINE
  5
145
330
1F
100
AcDbEntity
  8
Layer 1
 62
     7
370
    25
100
AcDbPolyline
 90
        7
 70
     1
 43
0.0
 10
930.1171
 20
189.877
 10
929.1605
 20
188.2851
 10
927.2515
 20
188.2851
 10
926.296
 20
189.877
 10
927.2515
 20
191.4677
 10
929.1605
 20
191.4677
 10
930.1171
 20
189.877
  0
LWPOLYLINE
  5
146
330
1F
100
AcDbEntity
  8
Layer 1
 62
     7
370
    25
100
AcDbPolyline
 90
        7
 70
     1
 43
0.0
 10
930.1171
 20
163.2272
 10
929.1605
 20
161.6353
 10
927.2515
 20
161.6353
 10
926.296
 20
163.2272
 10
927.2515
 20
164.8002
 10
929.1605
 20
164.8002
 10
930.1171
 20
163.2272
  0
LWPOLYLINE
  5
147
330
1F
100
AcDbEntity
  8
Layer 1
 62
     7
370
    25
100
AcDbPolyline
 90
        9
 70
     1
 43
0.0
 10
781.6996
 20
312.0396
 10
779.7875
 20
311.4012
 10
779.1522
 20
309.5101
 10
779.7875
 20
307.6022
 10
781.6996
 20
306.9627
 10
783.2915
 20
307.6022
 10
784.247
 20
309.5101
 10
783.2915
 20
311.4012
 10
781.6996
 20
312.0396
  0
LWPOLYLINE
  5
148
330
1F
100
AcDbEntity
  8
Layer 1
 62
   250
370
    35
100
AcDbPolyline
 90
       33
 70
     1
 43
0.0
 10
872.46
 20
569.4577
 10
877.8739
 20
568.912
 10
882.9164
 20
567.3469
 10
887.4795
 20
564.8703
 10
891.4551
 20
561.5902
 10
894.7354
 20
557.6147
 10
897.2122
 20
553.0516
 10
898.7774
 20
548.009
 10
899.3232
 20
542.5949
 10
898.7774
 20
537.1812
 10
897.2122
 20
532.1389
 10
894.7354
 20
527.5761
 10
891.4551
 20
523.6007
 10
887.4795
 20
520.3207
 10
882.9164
 20
517.8442
 10
877.8739
 20
516.2791
 10
872.46
 20
515.7334
 10
867.0461
 20
516.2791
 10
862.0036
 20
517.8442
 10
857.4405
 20
520.3207
 10
853.4648
 20
523.6007
 10
850.1846
 20
527.5761
 10
847.7078
 20
532.1389
 10
846.1426
 20
537.1812
 10
845.5968
 20
542.5949
 10
846.1426
 20
548.009
 10
847.7078
 20
553.0516
 10
850.1846
 20
557.6147
 10
853.4648
 20
561.5902
 10
857.4405
 20
564.8703
 10
862.0036
 20
567.3469
 10
867.0461
 20
568.912
 10
872.46
 20
569.4577
  0
LWPOLYLINE
  5
149
330
1F
100
AcDbEntity
  8
Layer 1
 62
   250
370
    35
100
AcDbPolyline
 90
        2
 70
     0
 43
0.0
 10
879.7219
 20
583.0898
 10
863.7942
 20
494.8249
  0
LWPOLYLINE
  5
14A
330
1F
100
AcDbEntity
  8
Layer 1
 62
   250
100
AcDbPolyline
 90
       65
 70
     1
 43
0.0
 10
943.6901
 20
544.1945
 10
944.6034
 20
544.1551
 10
945.4811
 20
544.0367
 10
946.3233
 20
543.8395
 10
947.13
 20
543.5633
 10
947.9011
 20
543.2083
 10
948.6366
 20
542.7743
 10
949.3367
 20
542.2615
 10
950.0013
 20
541.6698
 10
950.6
 20
541.0282
 10
951.1189
 20
540.35
 10
951.558
 20
539.6353
 10
951.9173
 20
538.8839
 10
952.1968
 20
538.0961
 10
952.3965
 20
537.2716
 10
952.5163
 20
536.4106
 10
952.5562
 20
535.513
 10
952.5168
 20
534.6234
 10
952.3984
 20
533.7638
 10
952.2012
 20
532.934
 10
951.9251
 20
532.1342
 10
951.57
 20
531.3642
 10
951.1361
 20
530.624
 10
950.6232
 20
529.9137
 10
950.0315
 20
529.2332
 10
949.3836
 20
528.6125
 10
948.6943
 20
528.0747
 10
947.9636
 20
527.6196
 10
947.1916
 20
527.2473
 10
946.3783
 20
526.9577
 10
945.5236
 20
526.7509
 10
944.6275
 20
526.6269
 10
943.6901
 20
526.5855
 10
942.7523
 20
526.6269
 10
941.8559
 20
526.7509
 10
941.001
 20
526.9577
 10
940.1875
 20
527.2473
 10
939.4154
 20
527.6196
 10
938.6848
 20
528.0747
 10
937.9954
 20
528.6125
 10
937.3475
 20
529.2332
 10
936.7558
 20
529.9137
 10
936.2429
 20
530.624
 10
935.809
 20
531.3642
 10
935.4539
 20
532.1342
 10
935.1778
 20
532.934
 10
934.9805
 20
533.7638
 10
934.8622
 20
534.6234
 10
934.8227
 20
535.513
 10
934.8626
 20
536.4106
 10
934.9825
 20
537.2716
 10
935.1821
 20
538.0961
 10
935.4617
 20
538.8839
 10
935.8212
 20
539.6353
 10
936.2605
 20
540.35
 10
936.7797
 20
541.0282
 10
937.3788
 20
541.6698
 10
938.043
 20
542.2615
 10
938.7428
 20
542.7743
 10
939.4783
 20
543.2083
 10
940.2493
 20
543.5633
 10
941.056
 20
543.8395
 10
941.8984
 20
544.0367
 10
942.7764
 20
544.1551
 10
943.6901
 20
544.1945
  0
LWPOLYLINE
  5
14B
330
1F
100
AcDbEntity
  8
Layer 1
 62
   250
100
AcDbPolyline
 90
       65
 70
     1
 43
0.0
 10
943.6901
 20
561.1883
 10
944.4266
 20
561.1576
 10
945.1351
 20
561.0653
 10
945.8157
 20
560.9115
 10
946.4683
 20
560.6961
 10
947.093
 20
560.4191
 10
947.6899
 20
560.0805
 10
948.2588
 20
559.6803
 10
948.7999
 20
559.2184
 10
949.3051
 20
558.6994
 10
949.743
 20
558.1506
 10
950.1135
 20
557.572
 10
950.4166
 20
556.9635
 10
950.6524
 20
556.3251
 10
950.8208
 20
555.6568
 10
950.9218
 20
554.9587
 10
950.9555
 20
554.2306
 10
950.9218
 20
553.5187
 10
950.8208
 20
552.8298
 10
950.6524
 20
552.1641
 10
950.4166
 20
551.5215
 10
950.1135
 20
550.902
 10
949.743
 20
550.3056
 10
949.3051
 20
549.7324
 10
948.7999
 20
549.1824
 10
948.2622
 20
548.6915
 10
947.6956
 20
548.266
 10
947.1001
 20
547.9061
 10
946.4757
 20
547.6117
 10
945.8225
 20
547.3827
 10
945.1405
 20
547.2191
 10
944.4297
 20
547.121
 10
943.6901
 20
547.0883
 10
942.9501
 20
547.121
 10
942.239
 20
547.2191
 10
941.5568
 20
547.3827
 10
940.9034
 20
547.6117
 10
940.2789
 20
547.9061
 10
939.6834
 20
548.266
 10
939.1168
 20
548.6915
 10
938.5791
 20
549.1824
 10
938.0739
 20
549.7324
 10
937.636
 20
550.3056
 10
937.2655
 20
550.902
 10
936.9624
 20
551.5215
 10
936.7266
 20
552.1641
 10
936.5582
 20
552.8298
 10
936.4572
 20
553.5187
 10
936.4235
 20
554.2306
 10
936.4572
 20
554.9587
 10
936.5582
 20
555.6568
 10
936.7266
 20
556.3251
 10
936.9624
 20
556.9635
 10
937.2655
 20
557.572
 10
937.636
 20
558.1506
 10
938.0739
 20
558.6994
 10
938.5791
 20
559.2184
 10
939.1202
 20
559.6803
 10
939.6893
 20
560.0805
 10
940.2863
 20
560.4191
 10
940.9113
 20
560.6961
 10
941.5641
 20
560.9115
 10
942.2449
 20
561.0653
 10
942.9536
 20
561.1576
 10
943.6901
 20
561.1883
  0
LWPOLYLINE
  5
14C
330
1F
100
AcDbEntity
  8
Layer 1
 62
   250
100
AcDbPolyline
 90
      121
 70
     1
 43
0.0
 10
943.6901
 20
522.2755
 10
945.1008
 20
522.3289
 10
946.4549
 20
522.489
 10
947.7522
 20
522.756
 10
948.9928
 20
523.1297
 10
950.1766
 20
523.6103
 10
951.3036
 20
524.1976
 10
952.3739
 20
524.8919
 10
953.3874
 20
525.6929
 10
953.8445
 20
526.1113
 10
954.2765
 20
526.5508
 10
954.6834
 20
527.0115
 10
955.0653
 20
527.4934
 10
955.4222
 20
527.9963
 10
955.754
 20
528.5205
 10
956.0609
 20
529.0659
 10
956.3428
 20
529.6325
 10
956.5954
 20
530.2203
 10
956.8142
 20
530.8293
 10
956.9994
 20
531.4595
 10
957.1508
 20
532.1109
 10
957.2686
 20
532.7835
 10
957.3527
 20
533.4772
 10
957.4032
 20
534.192
 10
957.42
 20
534.928
 10
957.3916
 20
535.6736
 10
957.3066
 20
536.4173
 10
957.1648
 20
537.1591
 10
956.9663
 20
537.899
 10
956.711
 20
538.6369
 10
956.3989
 20
539.3729
 10
956.0301
 20
540.1068
 10
955.6045
 20
540.8387
 10
955.1256
 20
541.5531
 10
954.5976
 20
542.2338
 10
954.0207
 20
542.8808
 10
953.3948
 20
543.4941
 10
952.7198
 20
544.0737
 10
951.9958
 20
544.6197
 10
951.2227
 20
545.132
 10
950.4006
 20
545.6106
 10
951.5698
 20
546.6533
 10
952.583
 20
547.7179
 10
953.4403
 20
548.8046
 10
954.1417
 20
549.9134
 10
954.6873
 20
551.0442
 10
955.0769
 20
552.1971
 10
955.3107
 20
553.3722
 10
955.3886
 20
554.5695
 10
955.3352
 20
555.7504
 10
955.1751
 20
556.8765
 10
954.9081
 20
557.9478
 10
954.5344
 20
558.9642
 10
954.0539
 20
559.9258
 10
953.4665
 20
560.8325
 10
952.7723
 20
561.6844
 10
951.9712
 20
562.4814
 10
951.1246
 20
563.1743
 10
950.2241
 20
563.7747
 10
949.2698
 20
564.2826
 10
948.2616
 20
564.6982
 10
947.1995
 20
565.0213
 10
946.0836
 20
565.2521
 10
944.9138
 20
565.3906
 10
943.6901
 20
565.4367
 10
942.466
 20
565.3906
 10
941.2959
 20
565.2521
 10
940.1797
 20
565.0213
 10
939.1175
 20
564.6982
 10
938.1092
 20
564.2826
 10
937.1548
 20
563.7747
 10
936.2544
 20
563.1743
 10
935.4078
 20
562.4814
 10
934.6071
 20
561.6849
 10
933.913
 20
560.8345
 10
933.3257
 20
559.9302
 10
932.845
 20
558.9721
 10
932.4712
 20
557.9601
 10
932.2041
 20
556.8942
 10
932.0438
 20
555.7745
 10
931.9904
 20
554.6009
 10
932.0683
 20
553.3963
 10
932.3021
 20
552.2148
 10
932.6917
 20
551.0565
 10
933.2372
 20
549.9212
 10
933.9386
 20
548.809
 10
934.7959
 20
547.7199
 10
935.8091
 20
546.6537
 10
936.9783
 20
545.6106
 10
936.1562
 20
545.132
 10
935.3832
 20
544.6197
 10
934.6592
 20
544.0737
 10
933.9843
 20
543.4941
 10
933.3585
 20
542.8808
 10
932.7818
 20
542.2338
 10
932.2542
 20
541.5531
 10
931.7756
 20
540.8387
 10
931.3496
 20
540.1054
 10
930.9805
 20
539.3672
 10
930.6683
 20
538.6241
 10
930.4129
 20
537.8762
 10
930.2143
 20
537.1235
 10
930.0724
 20
536.3659
 10
929.9874
 20
535.6035
 10
929.959
 20
534.8363
 10
930.022
 20
533.4609
 10
930.211
 20
532.1519
 10
930.5261
 20
530.9093
 10
930.9672
 20
529.7331
 10
931.5342
 20
528.6233
 10
932.2273
 20
527.5801
 10
933.0465
 20
526.6032
 10
933.9916
 20
525.6929
 10
935.0051
 20
524.8919
 10
936.0754
 20
524.1976
 10
937.2025
 20
523.6103
 10
938.3864
 20
523.1297
 10
939.6271
 20
522.756
 10
940.9246
 20
522.489
 10
942.279
 20
522.3289
 10
943.6901
 20
522.2755
  0
LWPOLYLINE
  5
14D
330
1F
100
AcDbEntity
  8
Layer 1
 62
   250
100
AcDbPolyline
 90
      129
 70
     1
 43
0.0
 10
980.4793
 20
559.8952
 10
981.1904
 20
559.4124
 10
981.8533
 20
558.8642
 10
982.4681
 20
558.2505
 10
983.0347
 20
557.5715
 10
983.5533
 20
556.8269
 10
984.0238
 20
556.0169
 10
984.4462
 20
555.1414
 10
984.8206
 20
554.2004
 10
985.2389
 20
552.952
 10
985.6016
 20
551.6855
 10
985.9084
 20
550.4007
 10
986.1595
 20
549.0976
 10
986.3548
 20
547.7763
 10
986.4944
 20
546.4366
 10
986.5781
 20
545.0787
 10
986.606
 20
543.7023
 10
986.6031
 20
543.3717
 10
986.5945
 20
543.0267
 10
986.58
 20
542.6674
 10
986.5598
 20
542.2936
 10
986.5339
 20
541.9054
 10
986.5021
 20
541.5027
 10
986.4646
 20
541.0857
 10
986.4214
 20
540.6541
 10
986.2077
 20
538.9991
 10
985.9286
 20
537.4354
 10
985.5842
 20
535.963
 10
985.1744
 20
534.582
 10
984.6992
 20
533.2923
 10
984.1586
 20
532.094
 10
983.5525
 20
530.987
 10
982.881
 20
529.9715
 10
982.2683
 20
529.2067
 10
981.6228
 20
528.544
 10
980.9445
 20
527.9831
 10
980.2335
 20
527.5243
 10
979.4897
 20
527.1674
 10
978.7132
 20
526.9124
 10
977.9039
 20
526.7595
 10
977.0619
 20
526.7085
 10
976.1225
 20
526.759
 10
975.2282
 20
526.9105
 10
974.3791
 20
527.163
 10
973.5753
 20
527.5166
 10
972.8166
 20
527.9711
 10
972.1032
 20
528.5268
 10
971.435
 20
529.1835
 10
970.8121
 20
529.9413
 10
970.5485
 20
530.3088
 10
970.2965
 20
530.6878
 10
970.0561
 20
531.0784
 10
969.8272
 20
531.4805
 10
969.6099
 20
531.8942
 10
969.4041
 20
532.3193
 10
969.2097
 20
532.7561
 10
969.0268
 20
533.2043
 10
968.855
 20
533.6597
 10
968.6938
 20
534.1181
 10
968.5433
 20
534.5794
 10
968.4033
 20
535.0437
 10
968.274
 20
535.5107
 10
968.1553
 20
535.9807
 10
968.0472
 20
536.4535
 10
967.9496
 20
536.9292
 10
967.8606
 20
537.4044
 10
967.7783
 20
537.8757
 10
967.7027
 20
538.3433
 10
967.6339
 20
538.807
 10
967.5717
 20
539.267
 10
967.5164
 20
539.7231
 10
967.4678
 20
540.1754
 10
967.4261
 20
540.6239
 10
967.3898
 20
541.0788
 10
967.3584
 20
541.5509
 10
967.3319
 20
542.0402
 10
967.3102
 20
542.5465
 10
967.2933
 20
543.0696
 10
967.2813
 20
543.6095
 10
967.2741
 20
544.166
 10
967.2717
 20
544.7389
 10
967.2823
 20
545.3373
 10
967.3141
 20
545.9705
 10
967.3671
 20
546.6385
 10
967.4413
 20
547.3415
 10
967.5367
 20
548.0796
 10
967.6532
 20
548.8529
 10
967.7908
 20
549.6615
 10
967.9496
 20
550.5056
 10
968.0467
 20
550.9748
 10
968.1535
 20
551.443
 10
968.27
 20
551.9102
 10
968.3961
 20
552.3764
 10
968.5318
 20
552.8415
 10
968.6771
 20
553.3056
 10
968.8321
 20
553.7687
 10
968.9966
 20
554.2306
 10
969.1722
 20
554.6867
 10
969.3601
 20
555.1312
 10
969.5606
 20
555.5642
 10
969.7735
 20
555.9857
 10
969.999
 20
556.3956
 10
970.2369
 20
556.794
 10
970.4875
 20
557.1809
 10
970.7506
 20
557.5562
 10
971.0268
 20
557.9162
 10
971.3165
 20
558.2581
 10
971.6196
 20
558.5817
 10
971.9362
 20
558.8872
 10
972.2662
 20
559.1744
 10
972.6097
 20
559.4433
 10
972.9666
 20
559.694
 10
973.3369
 20
559.9265
 10
973.7226
 20
560.1358
 10
974.1256
 20
560.3172
 10
974.5461
 20
560.4706
 10
974.9839
 20
560.5961
 10
975.4391
 20
560.6937
 10
975.9116
 20
560.7634
 10
976.4014
 20
560.8052
 10
976.9086
 20
560.8191
 10
977.4154
 20
560.8047
 10
977.905
 20
560.7614
 10
978.3773
 20
560.6893
 10
978.8324
 20
560.5883
 10
979.2701
 20
560.4584
 10
979.6905
 20
560.2996
 10
980.0936
 20
560.1118
 10
980.4793
 20
559.8952
  0
LWPOLYLINE
  5
14E
330
1F
100
AcDbEntity
  8
Layer 1
 62
   250
100
AcDbPolyline
 90
       65
 70
     1
 43
0.0
 10
977.1234
 20
522.3371
 10
978.9213
 20
522.4511
 10
980.6047
 20
522.7931
 10
982.1735
 20
523.363
 10
983.6278
 20
524.161
 10
984.9675
 20
525.1869
 10
986.1927
 20
526.4408
 10
987.3034
 20
527.9226
 10
988.2996
 20
529.6325
 10
988.9994
 20
531.1247
 10
989.6059
 20
532.6996
 10
990.1191
 20
534.3572
 10
990.5389
 20
536.0976
 10
990.8654
 20
537.9208
 10
991.0986
 20
539.8267
 10
991.2385
 20
541.8154
 10
991.2851
 20
543.8869
 10
991.2385
 20
545.9584
 10
991.0986
 20
547.9471
 10
990.8654
 20
549.853
 10
990.5389
 20
551.6762
 10
990.1191
 20
553.4165
 10
989.6059
 20
555.0742
 10
988.9994
 20
556.649
 10
988.2996
 20
558.1412
 10
987.3034
 20
559.8511
 10
986.1927
 20
561.333
 10
984.9675
 20
562.5869
 10
983.6278
 20
563.6128
 10
982.1735
 20
564.4108
 10
980.6047
 20
564.9807
 10
978.9213
 20
565.3227
 10
977.1234
 20
565.4367
 10
975.3258
 20
565.3227
 10
973.6427
 20
564.9807
 10
972.0741
 20
564.4108
 10
970.62
 20
563.6128
 10
969.2804
 20
562.5869
 10
968.0552
 20
561.333
 10
966.9446
 20
559.8511
 10
965.9484
 20
558.1412
 10
965.2485
 20
556.649
 10
964.6418
 20
555.0742
 10
964.1285
 20
553.4165
 10
963.7085
 20
551.6762
 10
963.3817
 20
549.853
 10
963.1483
 20
547.9471
 10
963.0083
 20
545.9584
 10
962.9616
 20
543.8869
 10
963.0083
 20
541.8154
 10
963.1483
 20
539.8267
 10
963.3817
 20
537.9208
 10
963.7085
 20
536.0976
 10
964.1285
 20
534.3572
 10
964.6418
 20
532.6996
 10
965.2485
 20
531.1247
 10
965.9484
 20
529.6325
 10
966.9446
 20
527.9226
 10
968.0552
 20
526.4408
 10
969.2804
 20
525.1869
 10
970.62
 20
524.161
 10
972.0741
 20
523.363
 10
973.6427
 20
522.7931
 10
975.3258
 20
522.4511
 10
977.1234
 20
522.3371
  0
LWPOLYLINE
  5
14F
330
1F
100
AcDbEntity
  8
Layer 1
 62
   250
100
AcDbPolyline
 90
      129
 70
     1
 43
0.0
 10
1014.9608
 20
559.8952
 10
1015.6719
 20
559.4124
 10
1016.3349
 20
558.8642
 10
1016.9496
 20
558.2505
 10
1017.5163
 20
557.5715
 10
1018.0348
 20
556.8269
 10
1018.5053
 20
556.0169
 10
1018.9278
 20
555.1414
 10
1019.3022
 20
554.2004
 10
1019.7205
 20
552.952
 10
1020.0831
 20
551.6855
 10
1020.3899
 20
550.4007
 10
1020.641
 20
549.0976
 10
1020.8363
 20
547.7763
 10
1020.9759
 20
546.4366
 10
1021.0596
 20
545.0787
 10
1021.0875
 20
543.7023
 10
1021.0846
 20
543.3717
 10
1021.076
 20
543.0267
 10
1021.0615
 20
542.6674
 10
1021.0414
 20
542.2936
 10
1021.0154
 20
541.9054
 10
1020.9837
 20
541.5027
 10
1020.9462
 20
541.0857
 10
1020.9029
 20
540.6541
 10
1020.6892
 20
538.9991
 10
1020.4101
 20
537.4354
 10
1020.0657
 20
535.963
 10
1019.6559
 20
534.582
 10
1019.1808
 20
533.2923
 10
1018.6401
 20
532.094
 10
1018.0341
 20
530.987
 10
1017.3625
 20
529.9715
 10
1016.7498
 20
529.2067
 10
1016.1043
 20
528.544
 10
1015.426
 20
527.9831
 10
1014.715
 20
527.5243
 10
1013.9712
 20
527.1674
 10
1013.1947
 20
526.9124
 10
1012.3854
 20
526.7595
 10
1011.5434
 20
526.7085
 10
1010.604
 20
526.759
 10
1009.7097
 20
526.9105
 10
1008.8606
 20
527.163
 10
1008.0568
 20
527.5166
 10
1007.2982
 20
527.9711
 10
1006.5848
 20
528.5268
 10
1005.9166
 20
529.1835
 10
1005.2937
 20
529.9413
 10
1005.03
 20
530.3088
 10
1004.778
 20
530.6878
 10
1004.5376
 20
531.0784
 10
1004.3087
 20
531.4805
 10
1004.0914
 20
531.8942
 10
1003.8856
 20
532.3193
 10
1003.6912
 20
532.7561
 10
1003.5083
 20
533.2043
 10
1003.3365
 20
533.6597
 10
1003.1753
 20
534.1181
 10
1003.0248
 20
534.5794
 10
1002.8848
 20
535.0437
 10
1002.7555
 20
535.5107
 10
1002.6368
 20
535.9807
 10
1002.5287
 20
536.4535
 10
1002.4311
 20
536.9292
 10
1002.3421
 20
537.4044
 10
1002.2599
 20
537.8757
 10
1002.1843
 20
538.3433
 10
1002.1154
 20
538.807
 10
1002.0533
 20
539.267
 10
1001.9979
 20
539.7231
 10
1001.9493
 20
540.1754
 10
1001.9076
 20
540.6239
 10
1001.8713
 20
541.0788
 10
1001.8399
 20
541.5509
 10
1001.8134
 20
542.0402
 10
1001.7917
 20
542.5465
 10
1001.7748
 20
543.0696
 10
1001.7628
 20
543.6095
 10
1001.7556
 20
544.166
 10
1001.7532
 20
544.7389
 10
1001.7638
 20
545.3373
 10
1001.7956
 20
545.9705
 10
1001.8486
 20
546.6385
 10
1001.9228
 20
547.3415
 10
1002.0182
 20
548.0796
 10
1002.1347
 20
548.8529
 10
1002.2723
 20
549.6615
 10
1002.4311
 20
550.5056
 10
1002.5282
 20
550.9748
 10
1002.635
 20
551.443
 10
1002.7515
 20
551.9102
 10
1002.8776
 20
552.3764
 10
1003.0133
 20
552.8415
 10
1003.1587
 20
553.3056
 10
1003.3136
 20
553.7687
 10
1003.4782
 20
554.2306
 10
1003.6537
 20
554.6867
 10
1003.8417
 20
555.1312
 10
1004.0421
 20
555.5642
 10
1004.255
 20
555.9857
 10
1004.4805
 20
556.3956
 10
1004.7184
 20
556.794
 10
1004.969
 20
557.1809
 10
1005.2321
 20
557.5562
 10
1005.5083
 20
557.9162
 10
1005.798
 20
558.2581
 10
1006.1011
 20
558.5817
 10
1006.4177
 20
558.8872
 10
1006.7478
 20
559.1744
 10
1007.0912
 20
559.4433
 10
1007.4481
 20
559.694
 10
1007.8184
 20
559.9265
 10
1008.2041
 20
560.1358
 10
1008.6071
 20
560.3172
 10
1009.0276
 20
560.4706
 10
1009.4654
 20
560.5961
 10
1009.9206
 20
560.6937
 10
1010.3931
 20
560.7634
 10
1010.883
 20
560.8052
 10
1011.3902
 20
560.8191
 10
1011.897
 20
560.8047
 10
1012.3866
 20
560.7614
 10
1012.8589
 20
560.6893
 10
1013.3139
 20
560.5883
 10
1013.7516
 20
560.4584
 10
1014.1721
 20
560.2996
 10
1014.5751
 20
560.1118
 10
1014.9608
 20
559.8952
  0
LWPOLYLINE
  5
150
330
1F
100
AcDbEntity
  8
Layer 1
 62
   250
100
AcDbPolyline
 90
       65
 70
     1
 43
0.0
 10
1011.6049
 20
522.3371
 10
1013.4028
 20
522.4511
 10
1015.0862
 20
522.7931
 10
1016.655
 20
523.363
 10
1018.1093
 20
524.161
 10
1019.449
 20
525.1869
 10
1020.6742
 20
526.4408
 10
1021.7849
 20
527.9226
 10
1022.7811
 20
529.6325
 10
1023.481
 20
531.1247
 10
1024.0875
 20
532.6996
 10
1024.6006
 20
534.3572
 10
1025.0205
 20
536.0976
 10
1025.347
 20
537.9208
 10
1025.5802
 20
539.8267
 10
1025.7201
 20
541.8154
 10
1025.7667
 20
543.8869
 10
1025.7201
 20
545.9584
 10
1025.5802
 20
547.9471
 10
1025.347
 20
549.853
 10
1025.0205
 20
551.6762
 10
1024.6006
 20
553.4165
 10
1024.0875
 20
555.0742
 10
1023.481
 20
556.649
 10
1022.7811
 20
558.1412
 10
1021.7849
 20
559.8511
 10
1020.6742
 20
561.333
 10
1019.449
 20
562.5869
 10
1018.1093
 20
563.6128
 10
1016.655
 20
564.4108
 10
1015.0862
 20
564.9807
 10
1013.4028
 20
565.3227
 10
1011.6049
 20
565.4367
 10
1009.8074
 20
565.3227
 10
1008.1243
 20
564.9807
 10
1006.5557
 20
564.4108
 10
1005.1016
 20
563.6128
 10
1003.7619
 20
562.5869
 10
1002.5368
 20
561.333
 10
1001.4261
 20
559.8511
 10
1000.4299
 20
558.1412
 10
999.73
 20
556.649
 10
999.1234
 20
555.0742
 10
998.61
 20
553.4165
 10
998.19
 20
551.6762
 10
997.8633
 20
549.853
 10
997.6299
 20
547.9471
 10
997.4899
 20
545.9584
 10
997.4432
 20
543.8869
 10
997.4899
 20
541.8154
 10
997.6299
 20
539.8267
 10
997.8633
 20
537.9208
 10
998.19
 20
536.0976
 10
998.61
 20
534.3572
 10
999.1234
 20
532.6996
 10
999.73
 20
531.1247
 10
1000.4299
 20
529.6325
 10
1001.4261
 20
527.9226
 10
1002.5368
 20
526.4408
 10
1003.7619
 20
525.1869
 10
1005.1016
 20
524.161
 10
1006.5557
 20
523.363
 10
1008.1243
 20
522.7931
 10
1009.8074
 20
522.4511
 10
1011.6049
 20
522.3371
  0
LWPOLYLINE
  5
151
330
1F
100
AcDbEntity
  8
Layer 1
 62
   250
100
AcDbPolyline
 90
      169
 70
     1
 43
0.0
 10
1067.8212
 20
523.0138
 10
1072.1313
 20
523.0138
 10
1072.1313
 20
539.946
 10
1072.0962
 20
541.0704
 10
1071.9909
 20
542.1419
 10
1071.8154
 20
543.1603
 10
1071.5696
 20
544.1258
 10
1071.2536
 20
545.0384
 10
1070.8674
 20
545.898
 10
1070.4108
 20
546.7048
 10
1069.884
 20
547.4586
 10
1069.5901
 20
547.8186
 10
1069.2779
 20
548.1605
 10
1068.9473
 20
548.4841
 10
1068.5984
 20
548.7896
 10
1068.2312
 20
549.0768
 10
1067.8458
 20
549.3457
 10
1067.4422
 20
549.5964
 10
1067.0203
 20
549.8289
 10
1066.572
 20
550.0382
 10
1066.0892
 20
550.2196
 10
1065.5717
 20
550.373
 10
1065.0195
 20
550.4985
 10
1064.4327
 20
550.5961
 10
1063.8112
 20
550.6658
 10
1063.1551
 20
550.7076
 10
1062.4642
 20
550.7215
 10
1061.767
 20
550.6975
 10
1061.0921
 20
550.6253
 10
1060.4393
 20
550.5051
 10
1059.8087
 20
550.3367
 10
1059.2002
 20
550.1203
 10
1058.6138
 20
549.8558
 10
1058.0496
 20
549.5431
 10
1057.5075
 20
549.1824
 10
1057.0371
 20
548.8225
 10
1056.5878
 20
548.436
 10
1056.1596
 20
548.023
 10
1055.7526
 20
547.5838
 10
1055.3667
 20
547.1187
 10
1055.002
 20
546.6279
 10
1054.6585
 20
546.1116
 10
1054.3362
 20
545.57
 10
1054.2141
 20
545.8218
 10
1054.0862
 20
546.0696
 10
1053.9525
 20
546.3131
 10
1053.813
 20
546.5522
 10
1053.6678
 20
546.7865
 10
1053.5168
 20
547.0158
 10
1053.36
 20
547.2399
 10
1053.1975
 20
547.4586
 10
1052.9037
 20
547.8186
 10
1052.5915
 20
548.1605
 10
1052.2611
 20
548.4841
 10
1051.9124
 20
548.7896
 10
1051.5453
 20
549.0768
 10
1051.1598
 20
549.3457
 10
1050.756
 20
549.5964
 10
1050.3338
 20
549.8289
 10
1049.8855
 20
550.0382
 10
1049.4027
 20
550.2196
 10
1048.8852
 20
550.373
 10
1048.333
 20
550.4985
 10
1047.7462
 20
550.5961
 10
1047.1247
 20
550.6658
 10
1046.4686
 20
550.7076
 10
1045.7777
 20
550.7215
 10
1045.0806
 20
550.6975
 10
1044.4056
 20
550.6253
 10
1043.7528
 20
550.5051
 10
1043.1222
 20
550.3367
 10
1042.5137
 20
550.1203
 10
1041.9274
 20
549.8558
 10
1041.3632
 20
549.5431
 10
1040.8211
 20
549.1824
 10
1040.3732
 20
548.8396
 10
1039.9444
 20
548.4738
 10
1039.5348
 20
548.0846
 10
1039.1443
 20
547.6722
 10
1038.773
 20
547.2362
 10
1038.4209
 20
546.7766
 10
1038.0879
 20
546.2932
 10
1037.774
 20
545.7859
 10
1037.774
 20
550.1052
 10
1033.4639
 20
550.1052
 10
1033.4639
 20
523.0138
 10
1037.774
 20
523.0138
 10
1037.774
 20
536.8781
 10
1037.8742
 20
537.6858
 10
1038.0051
 20
538.462
 10
1038.1668
 20
539.2069
 10
1038.3593
 20
539.9208
 10
1038.5825
 20
540.6038
 10
1038.8366
 20
541.2563
 10
1039.1216
 20
541.8786
 10
1039.4374
 20
542.4707
 10
1039.6939
 20
542.892
 10
1039.9717
 20
543.2941
 10
1040.2706
 20
543.6769
 10
1040.5908
 20
544.0405
 10
1040.932
 20
544.3849
 10
1041.2945
 20
544.7101
 10
1041.6781
 20
545.0161
 10
1042.0828
 20
545.303
 10
1042.5024
 20
545.563
 10
1042.9297
 20
545.7882
 10
1043.3647
 20
545.9787
 10
1043.8074
 20
546.1346
 10
1044.2577
 20
546.2558
 10
1044.7157
 20
546.3424
 10
1045.1813
 20
546.3943
 10
1045.6546
 20
546.4116
 10
1046.1164
 20
546.4025
 10
1046.5474
 20
546.375
 10
1046.9477
 20
546.3293
 10
1047.3172
 20
546.2653
 10
1047.6559
 20
546.1831
 10
1047.9638
 20
546.0825
 10
1048.2408
 20
545.9636
 10
1048.487
 20
545.8265
 10
1049.1077
 20
545.3675
 10
1049.6456
 20
544.8297
 10
1050.1007
 20
544.213
 10
1050.473
 20
543.5175
 10
1050.7626
 20
542.743
 10
1050.9694
 20
541.8897
 10
1051.0934
 20
540.9573
 10
1051.1348
 20
539.946
 10
1051.1348
 20
523.0138
 10
1055.4448
 20
523.0138
 10
1055.4448
 20
539.946
 10
1055.4135
 20
540.9826
 10
1055.5734
 20
541.3754
 10
1055.7449
 20
541.7537
 10
1055.9276
 20
542.1184
 10
1056.1215
 20
542.4707
 10
1056.3785
 20
542.892
 10
1056.6567
 20
543.2941
 10
1056.9561
 20
543.6769
 10
1057.2765
 20
544.0405
 10
1057.6181
 20
544.3849
 10
1057.9808
 20
544.7101
 10
1058.3645
 20
545.0161
 10
1058.7693
 20
545.303
 10
1059.1889
 20
545.563
 10
1059.6162
 20
545.7882
 10
1060.0512
 20
545.9787
 10
1060.4939
 20
546.1346
 10
1060.9442
 20
546.2558
 10
1061.4022
 20
546.3424
 10
1061.8678
 20
546.3943
 10
1062.3411
 20
546.4116
 10
1062.8028
 20
546.4025
 10
1063.2338
 20
546.375
 10
1063.6341
 20
546.3293
 10
1064.0036
 20
546.2653
 10
1064.3424
 20
546.1831
 10
1064.6503
 20
546.0825
 10
1064.9273
 20
545.9636
 10
1065.1735
 20
545.8265
 10
1065.7942
 20
545.3675
 10
1066.332
 20
544.8297
 10
1066.7871
 20
544.213
 10
1067.1594
 20
543.5175
 10
1067.449
 20
542.743
 10
1067.6558
 20
541.8897
 10
1067.7798
 20
540.9573
 10
1067.8212
 20
539.946
 10
1067.8212
 20
523.0138
  0
LWPOLYLINE
  5
152
330
1F
100
AcDbEntity
  8
Layer 1
 62
   250
100
AcDbPolyline
 90
      169
 70
     1
 43
0.0
 10
1114.8022
 20
523.0138
 10
1119.1123
 20
523.0138
 10
1119.1123
 20
539.946
 10
1119.0772
 20
541.0704
 10
1118.9719
 20
542.1419
 10
1118.7964
 20
543.1603
 10
1118.5506
 20
544.1258
 10
1118.2346
 20
545.0384
 10
1117.8484
 20
545.898
 10
1117.3918
 20
546.7048
 10
1116.865
 20
547.4586
 10
1116.5711
 20
547.8186
 10
1116.2589
 20
548.1605
 10
1115.9283
 20
548.4841
 10
1115.5794
 20
548.7896
 10
1115.2122
 20
549.0768
 10
1114.8268
 20
549.3457
 10
1114.4232
 20
549.5964
 10
1114.0013
 20
549.8289
 10
1113.553
 20
550.0382
 10
1113.0702
 20
550.2196
 10
1112.5527
 20
550.373
 10
1112.0005
 20
550.4985
 10
1111.4137
 20
550.5961
 10
1110.7922
 20
550.6658
 10
1110.1361
 20
550.7076
 10
1109.4452
 20
550.7215
 10
1108.748
 20
550.6975
 10
1108.0731
 20
550.6253
 10
1107.4203
 20
550.5051
 10
1106.7897
 20
550.3367
 10
1106.1812
 20
550.1203
 10
1105.5949
 20
549.8558
 10
1105.0307
 20
549.5431
 10
1104.4886
 20
549.1824
 10
1104.0181
 20
548.8225
 10
1103.5688
 20
548.436
 10
1103.1406
 20
548.023
 10
1102.7336
 20
547.5838
 10
1102.3477
 20
547.1187
 10
1101.983
 20
546.6279
 10
1101.6395
 20
546.1116
 10
1101.3172
 20
545.57
 10
1101.1951
 20
545.8218
 10
1101.0672
 20
546.0696
 10
1100.9335
 20
546.3131
 10
1100.794
 20
546.5522
 10
1100.6488
 20
546.7865
 10
1100.4978
 20
547.0158
 10
1100.341
 20
547.2399
 10
1100.1785
 20
547.4586
 10
1099.8847
 20
547.8186
 10
1099.5725
 20
548.1605
 10
1099.2421
 20
548.4841
 10
1098.8934
 20
548.7896
 10
1098.5263
 20
549.0768
 10
1098.1408
 20
549.3457
 10
1097.737
 20
549.5964
 10
1097.3148
 20
549.8289
 10
1096.8665
 20
550.0382
 10
1096.3837
 20
550.2196
 10
1095.8662
 20
550.373
 10
1095.314
 20
550.4985
 10
1094.7272
 20
550.5961
 10
1094.1057
 20
550.6658
 10
1093.4496
 20
550.7076
 10
1092.7587
 20
550.7215
 10
1092.0616
 20
550.6975
 10
1091.3866
 20
550.6253
 10
1090.7338
 20
550.5051
 10
1090.1032
 20
550.3367
 10
1089.4947
 20
550.1203
 10
1088.9084
 20
549.8558
 10
1088.3442
 20
549.5431
 10
1087.8021
 20
549.1824
 10
1087.3538
 20
548.8396
 10
1086.9247
 20
548.4738
 10
1086.5149
 20
548.0846
 10
1086.1243
 20
547.6722
 10
1085.7529
 20
547.2362
 10
1085.4007
 20
546.7766
 10
1085.0677
 20
546.2932
 10
1084.7538
 20
545.7859
 10
1084.7538
 20
550.1052
 10
1080.4438
 20
550.1052
 10
1080.4438
 20
523.0138
 10
1084.7538
 20
523.0138
 10
1084.7538
 20
536.8781
 10
1084.854
 20
537.6858
 10
1084.985
 20
538.462
 10
1085.1467
 20
539.2069
 10
1085.3392
 20
539.9208
 10
1085.5624
 20
540.6038
 10
1085.8165
 20
541.2563
 10
1086.1014
 20
541.8786
 10
1086.4172
 20
542.4707
 10
1086.6738
 20
542.892
 10
1086.9517
 20
543.2941
 10
1087.2509
 20
543.6769
 10
1087.5712
 20
544.0405
 10
1087.9128
 20
544.3849
 10
1088.2754
 20
544.7101
 10
1088.6591
 20
545.0161
 10
1089.0639
 20
545.303
 10
1089.4835
 20
545.563
 10
1089.9107
 20
545.7882
 10
1090.3457
 20
545.9787
 10
1090.7884
 20
546.1346
 10
1091.2387
 20
546.2558
 10
1091.6967
 20
546.3424
 10
1092.1623
 20
546.3943
 10
1092.6356
 20
546.4116
 10
1093.0974
 20
546.4025
 10
1093.5284
 20
546.375
 10
1093.9287
 20
546.3293
 10
1094.2982
 20
546.2653
 10
1094.6369
 20
546.1831
 10
1094.9448
 20
546.0825
 10
1095.2218
 20
545.9636
 10
1095.468
 20
545.8265
 10
1096.0887
 20
545.3675
 10
1096.6266
 20
544.8297
 10
1097.0817
 20
544.213
 10
1097.454
 20
543.5175
 10
1097.7436
 20
542.743
 10
1097.9504
 20
541.8897
 10
1098.0744
 20
540.9573
 10
1098.1158
 20
539.946
 10
1098.1158
 20
523.0138
 10
1102.4258
 20
523.0138
 10
1102.4258
 20
539.946
 10
1102.3945
 20
540.9826
 10
1102.5544
 20
541.3754
 10
1102.7259
 20
541.7537
 10
1102.9087
 20
542.1184
 10
1103.1026
 20
542.4707
 10
1103.3596
 20
542.892
 10
1103.6377
 20
543.2941
 10
1103.9371
 20
543.6769
 10
1104.2576
 20
544.0405
 10
1104.5991
 20
544.3849
 10
1104.9618
 20
544.7101
 10
1105.3455
 20
545.0161
 10
1105.7503
 20
545.303
 10
1106.1699
 20
545.563
 10
1106.5972
 20
545.7882
 10
1107.0322
 20
545.9787
 10
1107.4749
 20
546.1346
 10
1107.9252
 20
546.2558
 10
1108.3832
 20
546.3424
 10
1108.8488
 20
546.3943
 10
1109.3221
 20
546.4116
 10
1109.7839
 20
546.4025
 10
1110.2149
 20
546.375
 10
1110.6152
 20
546.3293
 10
1110.9847
 20
546.2653
 10
1111.3234
 20
546.1831
 10
1111.6313
 20
546.0825
 10
1111.9083
 20
545.9636
 10
1112.1545
 20
545.8265
 10
1112.7752
 20
545.3675
 10
1113.313
 20
544.8297
 10
1113.7681
 20
544.213
 10
1114.1404
 20
543.5175
 10
1114.43
 20
542.743
 10
1114.6368
 20
541.8897
 10
1114.7608
 20
540.9573
 10
1114.8022
 20
539.946
 10
1114.8022
 20
523.0138
  0
ENDSEC
  0
SECTION
  2
OBJECTS
  0
DICTIONARY
  5
C
330
0
100
AcDbDictionary
281
     1
  3
ACAD_DETAILVIEWSTYLE
350
15A
  3
ACAD_GROUP
350
D
  3
ACAD_IMAGE_DICT
350
62
  3
ACAD_LAYOUT
350
1A
  3
ACAD_MATERIAL
350
43
  3
ACAD_MLEADERSTYLE
350
5B
  3
ACAD_MLINESTYLE
350
17
  3
ACAD_PLOTSETTINGS
350
19
  3
ACAD_PLOTSTYLENAME
350
E
  3
ACAD_SCALELIST
350
47
  3
ACAD_SECTIONVIEWSTYLE
350
15B
  3
ACAD_TABLESTYLE
350
59
  3
ACAD_VISUALSTYLE
350
2A
  3
ACDB_RECOMPOSE_DATA
350
157
  3
AcDbVariableDictionary
350
153
  0
SUN
  5
5D
330
29
100
AcDbSun
 90
        1
290
     0
 63
     7
421
 16777215
 40
1.0
291
     1
 91
  2455826
 92
 54000000
292
     0
 70
     2
 71
   256
280
     1
  0
IMAGEDEF_REACTOR
  5
65
330
64
100
AcDbRasterImageDefReactor
 90
        2
330
64
  0
IMAGEDEF_REACTOR
  5
68
330
67
100
AcDbRasterImageDefReactor
 90
        2
330
67
  0
DICTIONARY
  5
15A
102
{ACAD_REACTORS
330
C
102
}
330
C
100
AcDbDictionary
281
     1
  0
DICTIONARY
  5
D
102
{ACAD_REACTORS
330
C
102
}
330
C
100
AcDbDictionary
281
     1
  0
DICTIONARY
  5
62
102
{ACAD_REACTORS
330
C
102
}
330
C
100
AcDbDictionary
281
     1
  3
Image #1
350
63
  3
Image #2
350
66
  0
DICTIONARY
  5
1A
102
{ACAD_REACTORS
330
C
102
}
330
C
100
AcDbDictionary
281
     1
  3
Layout1
350
1E
  3
Layout2
350
26
  3
Model
350
22
  0
DICTIONARY
  5
43
102
{ACAD_REACTORS
330
C
102
}
330
C
100
AcDbDictionary
281
     1
  3
ByBlock
350
45
  3
ByLayer
350
44
  3
Global
350
46
  0
DICTIONARY
  5
5B
102
{ACAD_REACTORS
330
C
102
}
330
C
100
AcDbDictionary
281
     1
  3
Standard
350
5C
  0
DICTIONARY
  5
17
102
{ACAD_REACTORS
330
C
102
}
330
C
100
AcDbDictionary
281
     1
  3
Standard
350
18
  0
DICTIONARY
  5
19
102
{ACAD_REACTORS
330
C
102
}
330
C
100
AcDbDictionary
281
     1
  0
ACDBDICTIONARYWDFLT
  5
E
102
{ACAD_REACTORS
330
C
102
}
330
C
100
AcDbDictionary
281
     1
  3
Normal
350
F
100
AcDbDictionaryWithDefault
340
F
  0
DICTIONARY
  5
47
102
{ACAD_REACTORS
330
C
102
}
330
C
100
AcDbDictionary
281
     1
  3
A0
350
48
  3
A1
350
49
  3
A2
350
4A
  3
A3
350
4B
  3
A4
350
4C
  3
A5
350
4D
  3
A6
350
4E
  3
A7
350
4F
  3
A8
350
50
  3
A9
350
51
  3
B1
350
52
  3
B2
350
53
  3
B3
350
54
  3
B4
350
55
  3
B5
350
56
  3
B6
350
57
  3
B7
350
58
  0
DICTIONARY
  5
15B
102
{ACAD_REACTORS
330
C
102
}
330
C
100
AcDbDictionary
281
     1
  0
DICTIONARY
  5
59
102
{ACAD_REACTORS
330
C
102
}
330
C
100
AcDbDictionary
281
     1
  3
Standard
350
5A
  0
DICTIONARY
  5
2A
102
{ACAD_REACTORS
330
C
102
}
330
C
100
AcDbDictionary
281
     1
  3
2dWireframe
350
2F
  3
Basic
350
32
  3
Brighten
350
36
  3
ColorChange
350
3A
  3
Conceptual
350
34
  3
Dim
350
35
  3
EdgeColorOff
350
3D
  3
Facepattern
350
39
  3
Flat
350
2B
  3
FlatWithEdges
350
2C
  3
Gouraud
350
2D
  3
GouraudWithEdges
350
2E
  3
Hidden
350
31
  3
JitterOff
350
3B
  3
Linepattern
350
38
  3
OverhangOff
350
3C
  3
Realistic
350
33
  3
Shaded
350
42
  3
Shaded with edges
350
41
  3
Shades of Gray
350
3E
  3
Sketchy
350
3F
  3
Thicken
350
37
  3
Wireframe
350
30
  3
X-Ray
350
40
  0
XRECORD
  5
157
102
{ACAD_REACTORS
330
C
102
}
330
C
100
AcDbXrecord
280
     1
 90
        1
330
5A
  0
DICTIONARY
  5
153
102
{ACAD_REACTORS
330
C
102
}
330
C
100
AcDbDictionary
281
     1
  3
CANNOSCALE
350
154
  3
CMLEADERSTYLE
350
159
  3
CTABLESTYLE
350
158
  0
IMAGEDEF
  5
63
102
{ACAD_REACTORS
330
62
330
65
102
}
330
62
100
AcDbRasterImageDef
 90
        0
  1
C:\Users\Office Desk\Desktop\CC004_ACD_0.jpg
 10
25169.0
 20
2994.0
 11
3.973141563033891E-5
 21
3.973141563033891E-5
280
     1
281
     5
  0
IMAGEDEF
  5
66
102
{ACAD_REACTORS
330
62
330
68
102
}
330
62
100
AcDbRasterImageDef
 90
        0
  1
C:\Users\Office Desk\Desktop\CC004_ACD_1.jpg
 10
25169.0
 20
2994.0
 11
3.973141563033891E-5
 21
3.973141563033891E-5
280
     1
281
     5
  0
LAYOUT
  5
1E
102
{ACAD_REACTORS
330
1A
102
}
330
1A
100
AcDbPlotSettings
  1

  2
none_device
  4

  6

 40
0.0
 41
0.0
 42
0.0
 43
0.0
 44
0.0
 45
0.0
 46
0.0
 47
0.0
 48
0.0
 49
0.0
140
0.0
141
0.0
142
1.0
143
1.0
 70
   688
 72
     0
 73
     0
 74
     5
  7

 75
    16
 76
     0
 77
     2
 78
   300
147
1.0
148
0.0
149
0.0
100
AcDbLayout
  1
Layout1
 70
     1
 71
     1
 10
0.0
 20
0.0
 11
12.0
 21
9.0
 12
0.0
 22
0.0
 32
0.0
 14
1.000000000000000E+20
 24
1.000000000000000E+20
 34
1.000000000000000E+20
 15
-1.000000000000000E+20
 25
-1.000000000000000E+20
 35
-1.000000000000000E+20
146
0.0
 13
0.0
 23
0.0
 33
0.0
 16
1.0
 26
0.0
 36
0.0
 17
0.0
 27
1.0
 37
0.0
 76
     0
330
1B
  0
LAYOUT
  5
26
102
{ACAD_REACTORS
330
1A
102
}
330
1A
100
AcDbPlotSettings
  1

  2
none_device
  4

  6

 40
0.0
 41
0.0
 42
0.0
 43
0.0
 44
0.0
 45
0.0
 46
0.0
 47
0.0
 48
0.0
 49
0.0
140
0.0
141
0.0
142
1.0
143
1.0
 70
   688
 72
     0
 73
     0
 74
     5
  7

 75
    16
 76
     0
 77
     2
 78
   300
147
1.0
148
0.0
149
0.0
100
AcDbLayout
  1
Layout2
 70
     1
 71
     2
 10
0.0
 20
0.0
 11
0.0
 21
0.0
 12
0.0
 22
0.0
 32
0.0
 14
0.0
 24
0.0
 34
0.0
 15
0.0
 25
0.0
 35
0.0
146
0.0
 13
0.0
 23
0.0
 33
0.0
 16
1.0
 26
0.0
 36
0.0
 17
0.0
 27
1.0
 37
0.0
 76
     0
330
23
  0
LAYOUT
  5
22
102
{ACAD_REACTORS
330
1A
102
}
330
1A
100
AcDbPlotSettings
  1

  2
none_device
  4
Letter_(8.50_x_11.00_Inches)
  6

 40
6.35
 41
6.35
 42
6.35000508
 43
6.35000508
 44
215.9
 45
279.4
 46
0.0
 47
0.0
 48
0.0
 49
0.0
140
0.0
141
0.0
142
1.0
143
1.0
 70
  1712
 72
     0
 73
     0
 74
     0
  7

 75
     0
 76
     0
 77
     2
 78
   300
147
1.0
148
0.0
149
0.0
100
AcDbLayout
  1
Model
 70
     1
 71
     0
 10
0.0
 20
0.0
 11
12.0
 21
9.0
 12
0.0
 22
0.0
 32
0.0
 14
595.9774
 24
-303.0627
 34
0.0
 15
1396.4854
 25
583.1211
 35
0.0
146
0.0
 13
0.0
 23
0.0
 33
0.0
 16
1.0
 26
0.0
 36
0.0
 17
0.0
 27
1.0
 37
0.0
 76
     0
330
1F
331
29
  0
MATERIAL
  5
45
102
{ACAD_REACTORS
330
43
102
}
330
43
100
AcDbMaterial
  1
ByBlock
 72
     1
 94
      127
  0
MATERIAL
  5
44
102
{ACAD_REACTORS
330
43
102
}
330
43
100
AcDbMaterial
  1
ByLayer
 72
     1
 94
      127
  0
MATERIAL
  5
46
102
{ACAD_REACTORS
330
43
102
}
330
43
100
AcDbMaterial
  1
Global
 72
     1
 94
      127
  0
MLEADERSTYLE
  5
5C
102
{ACAD_REACTORS
330
5B
102
}
330
5B
100
AcDbMLeaderStyle
179
     2
170
     2
171
     1
172
     0
 90
        2
 40
0.0
 41
0.0
173
     1
 91
-1056964608
340
14
 92
       -2
290
     1
 42
0.09
291
     1
 43
0.36
  3
Standard
341
0
 44
0.18
300

342
11
174
     1
178
     6
175
     1
176
     0
 93
-1056964608
 45
0.18
292
     0
297
     0
 46
0.18
343
0
 94
-1056964608
 47
1.0
 49
1.0
140
1.0
293
     1
141
0.0
294
     1
177
     0
142
1.0
295
     0
296
     0
143
0.125
271
     0
272
     9
273
     9
298
     0
  0
MLINESTYLE
  5
18
102
{ACAD_REACTORS
330
17
102
}
330
17
100
AcDbMlineStyle
  2
Standard
 70
     0
  3

 62
   256
 51
90.0
 52
90.0
 71
     2
 49
0.5
 62
   256
  6
BYLAYER
 49
-0.5
 62
   256
  6
BYLAYER
  0
ACDBPLACEHOLDER
  5
F
102
{ACAD_REACTORS
330
E
102
}
330
E
  0
SCALE
  5
48
102
{ACAD_REACTORS
330
47
102
}
330
47
100
AcDbScale
 70
     0
300
1:1
140
1.0
141
1.0
290
     1
  0
SCALE
  5
49
102
{ACAD_REACTORS
330
47
102
}
330
47
100
AcDbScale
 70
     0
300
1/128" = 1'-0"
140
0.0078125
141
12.0
290
     0
  0
SCALE
  5
4A
102
{ACAD_REACTORS
330
47
102
}
330
47
100
AcDbScale
 70
     0
300
1/64" = 1'-0"
140
0.015625
141
12.0
290
     0
  0
SCALE
  5
4B
102
{ACAD_REACTORS
330
47
102
}
330
47
100
AcDbScale
 70
     0
300
1/32" = 1'-0"
140
0.03125
141
12.0
290
     0
  0
SCALE
  5
4C
102
{ACAD_REACTORS
330
47
102
}
330
47
100
AcDbScale
 70
     0
300
1/16" = 1'-0"
140
0.0625
141
12.0
290
     0
  0
SCALE
  5
4D
102
{ACAD_REACTORS
330
47
102
}
330
47
100
AcDbScale
 70
     0
300
3/32" = 1'-0"
140
0.09375
141
12.0
290
     0
  0
SCALE
  5
4E
102
{ACAD_REACTORS
330
47
102
}
330
47
100
AcDbScale
 70
     0
300
1/8" = 1'-0"
140
0.125
141
12.0
290
     0
  0
SCALE
  5
4F
102
{ACAD_REACTORS
330
47
102
}
330
47
100
AcDbScale
 70
     0
300
3/16" = 1'-0"
140
0.1875
141
12.0
290
     0
  0
SCALE
  5
50
102
{ACAD_REACTORS
330
47
102
}
330
47
100
AcDbScale
 70
     0
300
1/4" = 1'-0"
140
0.25
141
12.0
290
     0
  0
SCALE
  5
51
102
{ACAD_REACTORS
330
47
102
}
330
47
100
AcDbScale
 70
     0
300
3/8" = 1'-0"
140
0.375
141
12.0
290
     0
  0
SCALE
  5
52
102
{ACAD_REACTORS
330
47
102
}
330
47
100
AcDbScale
 70
     0
300
1/2" = 1'-0"
140
0.5
141
12.0
290
     0
  0
SCALE
  5
53
102
{ACAD_REACTORS
330
47
102
}
330
47
100
AcDbScale
 70
     0
300
3/4" = 1'-0"
140
0.75
141
12.0
290
     0
  0
SCALE
  5
54
102
{ACAD_REACTORS
330
47
102
}
330
47
100
AcDbScale
 70
     0
300
1" = 1'-0"
140
1.0
141
12.0
290
     0
  0
SCALE
  5
55
102
{ACAD_REACTORS
330
47
102
}
330
47
100
AcDbScale
 70
     0
300
1-1/2" = 1'-0"
140
1.5
141
12.0
290
     0
  0
SCALE
  5
56
102
{ACAD_REACTORS
330
47
102
}
330
47
100
AcDbScale
 70
     0
300
3" = 1'-0"
140
3.0
141
12.0
290
     0
  0
SCALE
  5
57
102
{ACAD_REACTORS
330
47
102
}
330
47
100
AcDbScale
 70
     0
300
6" = 1'-0"
140
6.0
141
12.0
290
     0
  0
SCALE
  5
58
102
{ACAD_REACTORS
330
47
102
}
330
47
100
AcDbScale
 70
     0
300
1'-0" = 1'-0"
140
12.0
141
12.0
290
     0
  0
TABLESTYLE
  5
5A
102
{ACAD_REACTORS
330
59
102
}
102
{ACAD_XDICTIONARY
360
155
102
}
330
59
100
AcDbTableStyle
  3
Standard
 70
     0
 71
     0
 40
0.06
 41
0.06
280
     0
281
     0
  7
Standard
140
0.18
170
     2
 62
     0
 63
   257
283
     0
 90
        4
 91
        0
  1

274
    -2
284
     1
 64
     0
275
    -2
285
     1
 65
     0
276
    -2
286
     1
 66
     0
277
    -2
287
     1
 67
     0
278
    -2
288
     1
 68
     0
279
    -2
289
     1
 69
     0
  7
Standard
140
0.25
170
     5
 62
     0
 63
   257
283
     0
 90
        4
 91
        0
  1

274
    -2
284
     1
 64
     0
275
    -2
285
     1
 65
     0
276
    -2
286
     1
 66
     0
277
    -2
287
     1
 67
     0
278
    -2
288
     1
 68
     0
279
    -2
289
     1
 69
     0
  7
Standard
140
0.18
170
     5
 62
     0
 63
   257
283
     0
 90
        4
 91
        0
  1

274
    -2
284
     1
 64
     0
275
    -2
285
     1
 65
     0
276
    -2
286
     1
 66
     0
277
    -2
287
     1
 67
     0
278
    -2
288
     1
 68
     0
279
    -2
289
     1
 69
     0
  0
VISUALSTYLE
  5
2F
102
{ACAD_REACTORS
330
2A
102
}
330
2A
100
AcDbVisualStyle
  2
2dWireframe
 70
     4
177
     3
291
     0
 70
    58
 90
        0
176
     1
 90
        2
176
     1
 90
        0
176
     1
 90
        0
176
     1
 40
0.6
176
     1
 40
30.0
176
     1
 62
     7
420
 16777215
176
     1
 90
        1
176
     1
 90
        4
176
     1
 62
     7
176
     1
 62
   257
176
     1
 90
        1
176
     1
 90
        1
176
     1
 40
1.0
176
     1
 90
        0
176
     1
 62
   257
176
     1
 40
1.0
176
     1
 90
        1
176
     1
 90
        6
176
     1
 90
        2
176
     1
 62
     7
176
     1
 90
        5
176
     1
 90
        0
176
     1
 90
        0
176
     1
290
     0
176
     1
 90
        1
176
     1
 40
0.0
176
     1
 90
        0
176
     1
290
     1
176
     1
290
     1
176
     1
290
     0
176
     1
290
     0
176
     1
290
     0
176
     1
290
     0
176
     1
290
     0
176
     1
290
     0
176
     1
290
     0
176
     1
 90
       50
176
     1
 40
0.0
176
     1
 40
1.0
176
     1
 90
        0
176
     1
 62
    18
420
        0
176
     1
 90
       50
176
     1
 90
        3
176
     1
 62
     5
420
      255
176
     1
290
     0
176
     1
 90
       50
176
     1
 90
       50
176
     1
 90
       50
176
     1
290
     0
176
     1
 90
       50
176
     1
 62
   256
176
     0
 40
1.0
176
     0
 90
        2
176
     1
  1
strokes_ogs.tif
176
     1
290
     0
176
     1
 40
1.0
176
     1
 40
1.0
176
     1
  0
VISUALSTYLE
  5
32
102
{ACAD_REACTORS
330
2A
102
}
330
2A
100
AcDbVisualStyle
  2
Basic
 70
     7
177
     3
291
     1
 70
    58
 90
        1
176
     1
 90
        0
176
     1
 90
        1
176
     1
 90
        0
176
     1
 40
0.6
176
     1
 40
30.0
176
     1
 62
     7
420
 16777215
176
     1
 90
        0
176
     1
 90
        4
176
     1
 62
     7
176
     1
 62
   257
176
     1
 90
        1
176
     1
 90
        1
176
     1
 40
1.0
176
     1
 90
        8
176
     1
 62
     7
176
     1
 40
1.0
176
     1
 90
        1
176
     1
 90
        6
176
     1
 90
        2
176
     1
 62
     7
176
     1
 90
        5
176
     1
 90
        0
176
     1
 90
        0
176
     1
290
     0
176
     1
 90
        1
176
     1
 40
0.0
176
     1
 90
        0
176
     1
290
     0
176
     1
290
     1
176
     1
290
     1
176
     1
290
     0
176
     1
290
     0
176
     1
290
     0
176
     1
290
     0
176
     1
290
     0
176
     1
290
     0
176
     1
 90
       50
176
     1
 40
0.0
176
     1
 40
1.0
176
     1
 90
        0
176
     1
 62
    18
420
        0
176
     1
 90
       50
176
     1
 90
        3
176
     1
 62
     5
420
      255
176
     1
290
     0
176
     1
 90
       50
176
     1
 90
       50
176
     1
 90
       50
176
     1
290
     0
176
     1
 90
       50
176
     1
 62
   256
176
     0
 40
1.0
176
     0
 90
        2
176
     1
  1
strokes_ogs.tif
176
     1
290
     0
176
     1
 40
1.0
176
     1
 40
1.0
176
     1
  0
VISUALSTYLE
  5
36
102
{ACAD_REACTORS
330
2A
102
}
330
2A
100
AcDbVisualStyle
  2
Brighten
 70
    12
177
     3
291
     1
 70
    58
 90
        2
176
     1
 90
        2
176
     1
 90
        0
176
     1
 90
        0
176
     1
 40
0.6
176
     1
 40
30.0
176
     1
 62
     7
420
 16777215
176
     1
 90
        1
176
     1
 90
        4
176
     1
 62
     7
176
     1
 62
   257
176
     1
 90
        1
176
     1
 90
        1
176
     1
 40
1.0
176
     1
 90
        8
176
     1
 62
     7
176
     1
 40
1.0
176
     1
 90
        1
176
     1
 90
        6
176
     1
 90
        2
176
     1
 62
     7
176
     1
 90
        5
176
     1
 90
        0
176
     1
 90
        0
176
     1
290
     0
176
     1
 90
        1
176
     1
 40
50.0
176
     1
 90
        0
176
     1
290
     0
176
     1
290
     1
176
     1
290
     1
176
     1
290
     0
176
     1
290
     0
176
     1
290
     0
176
     1
290
     0
176
     1
290
     0
176
     1
290
     0
176
     1
 90
       50
176
     1
 40
0.0
176
     1
 40
1.0
176
     1
 90
        0
176
     1
 62
    18
420
        0
176
     1
 90
       50
176
     1
 90
        3
176
     1
 62
     5
420
      255
176
     1
290
     0
176
     1
 90
       50
176
     1
 90
       50
176
     1
 90
       50
176
     1
290
     0
176
     1
 90
       50
176
     1
 62
   256
176
     0
 40
1.0
176
     0
 90
        2
176
     1
  1
strokes_ogs.tif
176
     1
290
     0
176
     1
 40
1.0
176
     1
 40
1.0
176
     1
  0
VISUALSTYLE
  5
3A
102
{ACAD_REACTORS
330
2A
102
}
330
2A
100
AcDbVisualStyle
  2
ColorChange
 70
    16
177
     3
291
     1
 70
    58
 90
        2
176
     1
 90
        2
176
     1
 90
        3
176
     1
 90
        0
176
     1
 40
0.6
176
     1
 40
30.0
176
     1
 62
     8
420
  8421504
176
     1
 90
        1
176
     1
 90
        4
176
     1
 62
     7
176
     1
 62
   257
176
     1
 90
        1
176
     1
 90
        1
176
     1
 40
1.0
176
     1
 90
        8
176
     1
 62
     8
420
  8421504
176
     1
 40
1.0
176
     1
 90
        1
176
     1
 90
        6
176
     1
 90
        2
176
     1
 62
     7
176
     1
 90
        5
176
     1
 90
        0
176
     1
 90
        0
176
     1
290
     0
176
     1
 90
        1
176
     1
 40
0.0
176
     1
 90
        0
176
     1
290
     0
176
     1
290
     1
176
     1
290
     1
176
     1
290
     0
176
     1
290
     0
176
     1
290
     0
176
     1
290
     0
176
     1
290
     0
176
     1
290
     0
176
     1
 90
       50
176
     1
 40
0.0
176
     1
 40
1.0
176
     1
 90
        0
176
     1
 62
    18
420
        0
176
     1
 90
       50
176
     1
 90
        3
176
     1
 62
     5
420
      255
176
     1
290
     0
176
     1
 90
       50
176
     1
 90
       50
176
     1
 90
       50
176
     1
290
     0
176
     1
 90
       50
176
     1
 62
   256
176
     0
 40
1.0
176
     0
 90
        2
176
     1
  1
strokes_ogs.tif
176
     1
290
     0
176
     1
 40
1.0
176
     1
 40
1.0
176
     1
  0
VISUALSTYLE
  5
34
102
{ACAD_REACTORS
330
2A
102
}
330
2A
100
AcDbVisualStyle
  2
Conceptual
 70
     9
177
     3
291
     0
 70
    58
 90
        3
176
     1
 90
        2
176
     1
 90
        0
176
     1
 90
        0
176
     1
 40
0.6
176
     1
 40
30.0
176
     1
 62
     7
420
 16777215
176
     1
 90
        2
176
     1
 90
        2
176
     1
 62
     7
176
     1
 62
   257
176
     1
 90
        1
176
     1
 90
        1
176
     1
 40
179.0
176
     1
 90
        8
176
     1
 62
     7
176
     1
 40
1.0
176
     1
 90
        1
176
     1
 90
        6
176
     1
 90
        2
176
     1
 62
     7
176
     1
 90
        3
176
     1
 90
        0
176
     1
 90
        0
176
     1
290
     0
176
     1
 90
        1
176
     1
 40
0.0
176
     1
 90
        0
176
     1
290
     0
176
     1
290
     1
176
     1
290
     1
176
     1
290
     0
176
     1
290
     0
176
     1
290
     0
176
     1
290
     0
176
     1
290
     0
176
     1
290
     0
176
     1
 90
       50
176
     1
 40
0.0
176
     1
 40
1.0
176
     1
 90
        0
176
     1
 62
    18
420
        0
176
     1
 90
       50
176
     1
 90
        3
176
     1
 62
     5
420
      255
176
     1
290
     0
176
     1
 90
       50
176
     1
 90
       50
176
     1
 90
       50
176
     1
290
     0
176
     1
 90
       50
176
     1
 62
   256
176
     0
 40
1.0
176
     0
 90
        2
176
     1
  1
strokes_ogs.tif
176
     1
290
     0
176
     1
 40
1.0
176
     1
 40
1.0
176
     1
  0
VISUALSTYLE
  5
35
102
{ACAD_REACTORS
330
2A
102
}
330
2A
100
AcDbVisualStyle
  2
Dim
 70
    11
177
     3
291
     1
 70
    58
 90
        2
176
     1
 90
        2
176
     1
 90
        0
176
     1
 90
        0
176
     1
 40
0.6
176
     1
 40
30.0
176
     1
 62
     7
420
 16777215
176
     1
 90
        1
176
     1
 90
        4
176
     1
 62
     7
176
     1
 62
   257
176
     1
 90
        1
176
     1
 90
        1
176
     1
 40
1.0
176
     1
 90
        8
176
     1
 62
     7
176
     1
 40
1.0
176
     1
 90
        1
176
     1
 90
        6
176
     1
 90
        2
176
     1
 62
     7
176
     1
 90
        5
176
     1
 90
        0
176
     1
 90
        0
176
     1
290
     0
176
     1
 90
        1
176
     1
 40
-50.0
176
     1
 90
        0
176
     1
290
     0
176
     1
290
     1
176
     1
290
     1
176
     1
290
     0
176
     1
290
     0
176
     1
290
     0
176
     1
290
     0
176
     1
290
     0
176
     1
290
     0
176
     1
 90
       50
176
     1
 40
0.0
176
     1
 40
1.0
176
     1
 90
        0
176
     1
 62
    18
420
        0
176
     1
 90
       50
176
     1
 90
        3
176
     1
 62
     5
420
      255
176
     1
290
     0
176
     1
 90
       50
176
     1
 90
       50
176
     1
 90
       50
176
     1
290
     0
176
     1
 90
       50
176
     1
 62
   256
176
     0
 40
1.0
176
     0
 90
        2
176
     1
  1
strokes_ogs.tif
176
     1
290
     0
176
     1
 40
1.0
176
     1
 40
1.0
176
     1
  0
VISUALSTYLE
  5
3D
102
{ACAD_REACTORS
330
2A
102
}
330
2A
100
AcDbVisualStyle
  2
EdgeColorOff
 70
    22
177
     3
291
     1
 70
    58
 90
        2
176
     0
 90
        2
176
     0
 90
        0
176
     0
 90
        0
176
     0
 40
0.6
176
     0
 40
30.0
176
     0
 62
     7
420
 16777215
176
     0
 90
        1
176
     0
 90
        4
176
     0
 62
     7
176
     0
 62
   257
176
     0
 90
        1
176
     0
 90
        1
176
     0
 40
1.0
176
     0
 90
        8
176
     2
 62
     7
176
     0
 40
1.0
176
     0
 90
        1
176
     0
 90
        6
176
     0
 90
        2
176
     0
 62
     7
176
     0
 90
        5
176
     0
 90
        0
176
     0
 90
        0
176
     0
290
     0
176
     0
 90
        1
176
     0
 40
0.0
176
     0
 90
        0
176
     0
290
     0
176
     0
290
     1
176
     0
290
     1
176
     0
290
     0
176
     0
290
     0
176
     0
290
     0
176
     0
290
     0
176
     0
290
     0
176
     0
290
     0
176
     0
 90
       50
176
     0
 40
0.0
176
     0
 40
1.0
176
     0
 90
        0
176
     0
 62
    18
420
        0
176
     0
 90
       50
176
     0
 90
        3
176
     0
 62
     5
420
      255
176
     0
290
     0
176
     0
 90
       50
176
     0
 90
       50
176
     0
 90
       50
176
     0
290
     0
176
     0
 90
       50
176
     0
 62
   256
176
     0
 40
1.0
176
     0
 90
        2
176
     0
  1
strokes_ogs.tif
176
     0
290
     0
176
     0
 40
1.0
176
     0
 40
1.0
176
     0
  0
VISUALSTYLE
  5
39
102
{ACAD_REACTORS
330
2A
102
}
330
2A
100
AcDbVisualStyle
  2
Facepattern
 70
    15
177
     3
291
     1
 70
    58
 90
        2
176
     1
 90
        2
176
     1
 90
        0
176
     1
 90
        0
176
     1
 40
0.6
176
     1
 40
30.0
176
     1
 62
     7
420
 16777215
176
     1
 90
        1
176
     1
 90
        4
176
     1
 62
     7
176
     1
 62
   257
176
     1
 90
        1
176
     1
 90
        1
176
     1
 40
1.0
176
     1
 90
        8
176
     1
 62
     7
176
     1
 40
1.0
176
     1
 90
        1
176
     1
 90
        6
176
     1
 90
        2
176
     1
 62
     7
176
     1
 90
        5
176
     1
 90
        0
176
     1
 90
        0
176
     1
290
     0
176
     1
 90
        1
176
     1
 40
0.0
176
     1
 90
        0
176
     1
290
     0
176
     1
290
     1
176
     1
290
     1
176
     1
290
     0
176
     1
290
     0
176
     1
290
     0
176
     1
290
     0
176
     1
290
     0
176
     1
290
     0
176
     1
 90
       50
176
     1
 40
0.0
176
     1
 40
1.0
176
     1
 90
        0
176
     1
 62
    18
420
        0
176
     1
 90
       50
176
     1
 90
        3
176
     1
 62
     5
420
      255
176
     1
290
     0
176
     1
 90
       50
176
     1
 90
       50
176
     1
 90
       50
176
     1
290
     0
176
     1
 90
       50
176
     1
 62
   256
176
     0
 40
1.0
176
     0
 90
        2
176
     1
  1
strokes_ogs.tif
176
     1
290
     0
176
     1
 40
1.0
176
     1
 40
1.0
176
     1
  0
VISUALSTYLE
  5
2B
102
{ACAD_REACTORS
330
2A
102
}
330
2A
100
AcDbVisualStyle
  2
Flat
 70
     0
177
     3
291
     1
 70
    58
 90
        2
176
     1
 90
        1
176
     1
 90
        1
176
     1
 90
        2
176
     1
 40
0.6
176
     1
 40
30.0
176
     1
 62
     7
420
 16777215
176
     1
 90
        0
176
     1
 90
        0
176
     1
 62
     7
176
     1
 62
   257
176
     1
 90
        1
176
     1
 90
        1
176
     1
 40
1.0
176
     1
 90
        8
176
     1
 62
     7
176
     1
 40
1.0
176
     1
 90
        1
176
     1
 90
        6
176
     1
 90
        2
176
     1
 62
     7
176
     1
 90
        5
176
     1
 90
        0
176
     1
 90
        0
176
     1
290
     0
176
     1
 90
       13
176
     1
 40
0.0
176
     1
 90
        0
176
     1
290
     0
176
     1
290
     1
176
     1
290
     1
176
     1
290
     0
176
     1
290
     0
176
     1
290
     0
176
     1
290
     0
176
     1
290
     0
176
     1
290
     0
176
     1
 90
       50
176
     1
 40
0.0
176
     1
 40
1.0
176
     1
 90
        0
176
     1
 62
    18
420
        0
176
     1
 90
       50
176
     1
 90
        3
176
     1
 62
     5
420
      255
176
     1
290
     0
176
     1
 90
       50
176
     1
 90
       50
176
     1
 90
       50
176
     1
290
     0
176
     1
 90
       50
176
     1
 62
   256
176
     0
 40
1.0
176
     0
 90
        2
176
     1
  1
strokes_ogs.tif
176
     1
290
     0
176
     1
 40
1.0
176
     1
 40
1.0
176
     1
  0
VISUALSTYLE
  5
2C
102
{ACAD_REACTORS
330
2A
102
}
330
2A
100
AcDbVisualStyle
  2
FlatWithEdges
 70
     1
177
     3
291
     1
 70
    58
 90
        2
176
     1
 90
        1
176
     1
 90
        1
176
     1
 90
        2
176
     1
 40
0.6
176
     1
 40
30.0
176
     1
 62
     7
420
 16777215
176
     1
 90
        1
176
     1
 90
        0
176
     1
 62
     7
176
     1
 62
   257
176
     1
 90
        1
176
     1
 90
        1
176
     1
 40
1.0
176
     1
 90
        0
176
     1
 62
   257
176
     1
 40
1.0
176
     1
 90
        1
176
     1
 90
        6
176
     1
 90
        2
176
     1
 62
     7
176
     1
 90
        5
176
     1
 90
        0
176
     1
 90
        0
176
     1
290
     0
176
     1
 90
       13
176
     1
 40
0.0
176
     1
 90
        0
176
     1
290
     0
176
     1
290
     1
176
     1
290
     1
176
     1
290
     0
176
     1
290
     0
176
     1
290
     0
176
     1
290
     0
176
     1
290
     0
176
     1
290
     0
176
     1
 90
       50
176
     1
 40
0.0
176
     1
 40
1.0
176
     1
 90
        0
176
     1
 62
    18
420
        0
176
     1
 90
       50
176
     1
 90
        3
176
     1
 62
     5
420
      255
176
     1
290
     0
176
     1
 90
       50
176
     1
 90
       50
176
     1
 90
       50
176
     1
290
     0
176
     1
 90
       50
176
     1
 62
   256
176
     0
 40
1.0
176
     0
 90
        2
176
     1
  1
strokes_ogs.tif
176
     1
290
     0
176
     1
 40
1.0
176
     1
 40
1.0
176
     1
  0
VISUALSTYLE
  5
2D
102
{ACAD_REACTORS
330
2A
102
}
330
2A
100
AcDbVisualStyle
  2
Gouraud
 70
     2
177
     3
291
     1
 70
    58
 90
        2
176
     1
 90
        2
176
     1
 90
        1
176
     1
 90
        2
176
     1
 40
0.6
176
     1
 40
30.0
176
     1
 62
     7
420
 16777215
176
     1
 90
        0
176
     1
 90
        0
176
     1
 62
     7
176
     1
 62
   257
176
     1
 90
        1
176
     1
 90
        1
176
     1
 40
1.0
176
     1
 90
        0
176
     1
 62
     7
176
     1
 40
1.0
176
     1
 90
        1
176
     1
 90
        6
176
     1
 90
        2
176
     1
 62
     7
176
     1
 90
        5
176
     1
 90
        0
176
     1
 90
        0
176
     1
290
     0
176
     1
 90
       13
176
     1
 40
0.0
176
     1
 90
        0
176
     1
290
     0
176
     1
290
     1
176
     1
290
     1
176
     1
290
     0
176
     1
290
     0
176
     1
290
     0
176
     1
290
     0
176
     1
290
     0
176
     1
290
     0
176
     1
 90
       50
176
     1
 40
0.0
176
     1
 40
1.0
176
     1
 90
        0
176
     1
 62
    18
420
        0
176
     1
 90
       50
176
     1
 90
        3
176
     1
 62
     5
420
      255
176
     1
290
     0
176
     1
 90
       50
176
     1
 90
       50
176
     1
 90
       50
176
     1
290
     0
176
     1
 90
       50
176
     1
 62
   256
176
     0
 40
1.0
176
     0
 90
        2
176
     1
  1
strokes_ogs.tif
176
     1
290
     0
176
     1
 40
1.0
176
     1
 40
1.0
176
     1
  0
VISUALSTYLE
  5
2E
102
{ACAD_REACTORS
330
2A
102
}
330
2A
100
AcDbVisualStyle
  2
GouraudWithEdges
 70
     3
177
     3
291
     1
 70
    58
 90
        2
176
     1
 90
        2
176
     1
 90
        1
176
     1
 90
        2
176
     1
 40
0.6
176
     1
 40
30.0
176
     1
 62
     7
420
 16777215
176
     1
 90
        1
176
     1
 90
        0
176
     1
 62
     7
176
     1
 62
   257
176
     1
 90
        1
176
     1
 90
        1
176
     1
 40
1.0
176
     1
 90
        0
176
     1
 62
   257
176
     1
 40
1.0
176
     1
 90
        1
176
     1
 90
        6
176
     1
 90
        2
176
     1
 62
     7
176
     1
 90
        5
176
     1
 90
        0
176
     1
 90
        0
176
     1
290
     0
176
     1
 90
       13
176
     1
 40
0.0
176
     1
 90
        0
176
     1
290
     0
176
     1
290
     1
176
     1
290
     1
176
     1
290
     0
176
     1
290
     0
176
     1
290
     0
176
     1
290
     0
176
     1
290
     0
176
     1
290
     0
176
     1
 90
       50
176
     1
 40
0.0
176
     1
 40
1.0
176
     1
 90
        0
176
     1
 62
    18
420
        0
176
     1
 90
       50
176
     1
 90
        3
176
     1
 62
     5
420
      255
176
     1
290
     0
176
     1
 90
       50
176
     1
 90
       50
176
     1
 90
       50
176
     1
290
     0
176
     1
 90
       50
176
     1
 62
   256
176
     0
 40
1.0
176
     0
 90
        2
176
     1
  1
strokes_ogs.tif
176
     1
290
     0
176
     1
 40
1.0
176
     1
 40
1.0
176
     1
  0
VISUALSTYLE
  5
31
102
{ACAD_REACTORS
330
2A
102
}
330
2A
100
AcDbVisualStyle
  2
Hidden
 70
     6
177
     3
291
     0
 70
    58
 90
        1
176
     1
 90
        2
176
     1
 90
        2
176
     1
 90
        0
176
     1
 40
0.6
176
     1
 40
30.0
176
     1
 62
     7
420
 16777215
176
     1
 90
        2
176
     1
 90
        2
176
     1
 62
     7
176
     1
 62
   257
176
     1
 90
        2
176
     1
 90
        1
176
     1
 40
40.0
176
     1
 90
        0
176
     1
 62
   257
176
     1
 40
1.0
176
     1
 90
        1
176
     1
 90
        6
176
     1
 90
        2
176
     1
 62
     7
176
     1
 90
        3
176
     1
 90
        0
176
     1
 90
        0
176
     1
290
     0
176
     1
 90
        1
176
     1
 40
0.0
176
     1
 90
        0
176
     1
290
     0
176
     1
290
     1
176
     1
290
     1
176
     1
290
     0
176
     1
290
     0
176
     1
290
     0
176
     1
290
     0
176
     1
290
     0
176
     1
290
     0
176
     1
 90
       50
176
     1
 40
0.0
176
     1
 40
1.0
176
     1
 90
        0
176
     1
 62
    18
420
        0
176
     1
 90
       50
176
     1
 90
        3
176
     1
 62
     5
420
      255
176
     1
290
     0
176
     1
 90
       50
176
     1
 90
       50
176
     1
 90
       50
176
     1
290
     0
176
     1
 90
       50
176
     1
 62
   256
176
     0
 40
1.0
176
     0
 90
        2
176
     1
  1
strokes_ogs.tif
176
     1
290
     0
176
     1
 40
1.0
176
     1
 40
1.0
176
     1
  0
VISUALSTYLE
  5
3B
102
{ACAD_REACTORS
330
2A
102
}
330
2A
100
AcDbVisualStyle
  2
JitterOff
 70
    20
177
     3
291
     1
 70
    58
 90
        2
176
     0
 90
        2
176
     0
 90
        0
176
     0
 90
        0
176
     0
 40
0.6
176
     0
 40
30.0
176
     0
 62
     7
420
 16777215
176
     0
 90
        1
176
     0
 90
        4
176
     0
 62
     7
176
     0
 62
   257
176
     0
 90
        1
176
     0
 90
        1
176
     0
 40
1.0
176
     0
 90
       10
176
     2
 62
     7
176
     0
 40
1.0
176
     0
 90
        1
176
     0
 90
        6
176
     0
 90
        2
176
     0
 62
     7
176
     0
 90
        5
176
     0
 90
        0
176
     0
 90
        0
176
     0
290
     0
176
     0
 90
        1
176
     0
 40
0.0
176
     0
 90
        0
176
     0
290
     0
176
     0
290
     1
176
     0
290
     1
176
     0
290
     0
176
     0
290
     0
176
     0
290
     0
176
     0
290
     0
176
     0
290
     0
176
     0
290
     0
176
     0
 90
       50
176
     0
 40
0.0
176
     0
 40
1.0
176
     0
 90
        0
176
     0
 62
    18
420
        0
176
     0
 90
       50
176
     0
 90
        3
176
     0
 62
     5
420
      255
176
     0
290
     0
176
     0
 90
       50
176
     0
 90
       50
176
     0
 90
       50
176
     0
290
     0
176
     0
 90
       50
176
     0
 62
   256
176
     0
 40
1.0
176
     0
 90
        2
176
     0
  1
strokes_ogs.tif
176
     0
290
     0
176
     0
 40
1.0
176
     0
 40
1.0
176
     0
  0
VISUALSTYLE
  5
38
102
{ACAD_REACTORS
330
2A
102
}
330
2A
100
AcDbVisualStyle
  2
Linepattern
 70
    14
177
     3
291
     1
 70
    58
 90
        2
176
     1
 90
        2
176
     1
 90
        0
176
     1
 90
        0
176
     1
 40
0.6
176
     1
 40
30.0
176
     1
 62
     7
420
 16777215
176
     1
 90
        1
176
     1
 90
        4
176
     1
 62
     7
176
     1
 62
   257
176
     1
 90
        7
176
     1
 90
        7
176
     1
 40
1.0
176
     1
 90
        8
176
     1
 62
     7
176
     1
 40
1.0
176
     1
 90
        1
176
     1
 90
        6
176
     1
 90
        2
176
     1
 62
     7
176
     1
 90
        5
176
     1
 90
        0
176
     1
 90
        0
176
     1
290
     0
176
     1
 90
        1
176
     1
 40
0.0
176
     1
 90
        0
176
     1
290
     0
176
     1
290
     1
176
     1
290
     1
176
     1
290
     0
176
     1
290
     0
176
     1
290
     0
176
     1
290
     0
176
     1
290
     0
176
     1
290
     0
176
     1
 90
       50
176
     1
 40
0.0
176
     1
 40
1.0
176
     1
 90
        0
176
     1
 62
    18
420
        0
176
     1
 90
       50
176
     1
 90
        3
176
     1
 62
     5
420
      255
176
     1
290
     0
176
     1
 90
       50
176
     1
 90
       50
176
     1
 90
       50
176
     1
290
     0
176
     1
 90
       50
176
     1
 62
   256
176
     0
 40
1.0
176
     0
 90
        2
176
     1
  1
strokes_ogs.tif
176
     1
290
     0
176
     1
 40
1.0
176
     1
 40
1.0
176
     1
  0
VISUALSTYLE
  5
3C
102
{ACAD_REACTORS
330
2A
102
}
330
2A
100
AcDbVisualStyle
  2
OverhangOff
 70
    21
177
     3
291
     1
 70
    58
 90
        2
176
     0
 90
        2
176
     0
 90
        0
176
     0
 90
        0
176
     0
 40
0.6
176
     0
 40
30.0
176
     0
 62
     7
420
 16777215
176
     0
 90
        1
176
     0
 90
        4
176
     0
 62
     7
176
     0
 62
   257
176
     0
 90
        1
176
     0
 90
        1
176
     0
 40
1.0
176
     0
 90
        9
176
     2
 62
     7
176
     0
 40
1.0
176
     0
 90
        1
176
     0
 90
        6
176
     0
 90
        2
176
     0
 62
     7
176
     0
 90
        5
176
     0
 90
        0
176
     0
 90
        0
176
     0
290
     0
176
     0
 90
        1
176
     0
 40
0.0
176
     0
 90
        0
176
     0
290
     0
176
     0
290
     1
176
     0
290
     1
176
     0
290
     0
176
     0
290
     0
176
     0
290
     0
176
     0
290
     0
176
     0
290
     0
176
     0
290
     0
176
     0
 90
       50
176
     0
 40
0.0
176
     0
 40
1.0
176
     0
 90
        0
176
     0
 62
    18
420
        0
176
     0
 90
       50
176
     0
 90
        3
176
     0
 62
     5
420
      255
176
     0
290
     0
176
     0
 90
       50
176
     0
 90
       50
176
     0
 90
       50
176
     0
290
     0
176
     0
 90
       50
176
     0
 62
   256
176
     0
 40
1.0
176
     0
 90
        2
176
     0
  1
strokes_ogs.tif
176
     0
290
     0
176
     0
 40
1.0
176
     0
 40
1.0
176
     0
  0
VISUALSTYLE
  5
33
102
{ACAD_REACTORS
330
2A
102
}
330
2A
100
AcDbVisualStyle
  2
Realistic
 70
     8
177
     3
291
     0
 70
    58
 90
        2
176
     1
 90
        3
176
     1
 90
        0
176
     1
 90
        2
176
     1
 40
0.6
176
     1
 40
30.0
176
     1
 62
     7
420
 16777215
176
     1
 90
        0
176
     1
 90
        0
176
     1
 62
     7
176
     1
 62
   257
176
     1
 90
        1
176
     1
 90
        1
176
     1
 40
1.0
176
     1
 90
        8
176
     1
 62
   257
176
     1
 40
1.0
176
     1
 90
        1
176
     1
 90
        6
176
     1
 90
        2
176
     1
 62
     7
176
     1
 90
        3
176
     1
 90
        0
176
     1
 90
        0
176
     1
290
     0
176
     1
 90
       13
176
     1
 40
0.0
176
     1
 90
        0
176
     1
290
     0
176
     1
290
     1
176
     1
290
     1
176
     1
290
     0
176
     1
290
     0
176
     1
290
     0
176
     1
290
     0
176
     1
290
     0
176
     1
290
     0
176
     1
 90
       50
176
     1
 40
0.0
176
     1
 40
1.0
176
     1
 90
        0
176
     1
 62
    18
420
        0
176
     1
 90
       50
176
     1
 90
        3
176
     1
 62
     5
420
      255
176
     1
290
     0
176
     1
 90
       50
176
     1
 90
       50
176
     1
 90
       50
176
     1
290
     0
176
     1
 90
       50
176
     1
 62
   256
176
     0
 40
1.0
176
     0
 90
        2
176
     1
  1
strokes_ogs.tif
176
     1
290
     0
176
     1
 40
1.0
176
     1
 40
1.0
176
     1
  0
VISUALSTYLE
  5
42
102
{ACAD_REACTORS
330
2A
102
}
330
2A
100
AcDbVisualStyle
  2
Shaded
 70
    27
177
     3
291
     0
 70
    58
 90
        2
176
     1
 90
        2
176
     1
 90
        1
176
     1
 90
        2
176
     1
 40
0.6
176
     1
 40
30.0
176
     1
 62
     7
420
 16777215
176
     1
 90
        0
176
     1
 90
        4
176
     1
 62
     7
176
     1
 62
   257
176
     1
 90
        1
176
     1
 90
        1
176
     1
 40
1.0
176
     1
 90
        8
176
     1
 62
   257
176
     1
 40
1.0
176
     1
 90
        1
176
     1
 90
        6
176
     1
 90
        2
176
     1
 62
     8
420
  7895160
176
     1
 90
        3
176
     1
 90
        0
176
     1
 90
        0
176
     1
290
     0
176
     1
 90
        5
176
     1
 40
0.0
176
     1
 90
        0
176
     1
290
     0
176
     1
290
     1
176
     1
290
     1
176
     1
290
     0
176
     1
290
     0
176
     1
290
     0
176
     1
290
     0
176
     1
290
     0
176
     1
290
     0
176
     1
 90
       50
176
     1
 40
0.0
176
     1
 40
1.0
176
     1
 90
        0
176
     1
 62
    18
420
        0
176
     1
 90
       50
176
     1
 90
        3
176
     1
 62
     5
420
      255
176
     1
290
     0
176
     1
 90
       50
176
     1
 90
       50
176
     1
 90
       50
176
     1
290
     0
176
     1
 90
       50
176
     1
 62
   256
176
     0
 40
1.0
176
     0
 90
        2
176
     1
  1
strokes_ogs.tif
176
     1
290
     0
176
     1
 40
1.0
176
     1
 40
1.0
176
     1
  0
VISUALSTYLE
  5
41
102
{ACAD_REACTORS
330
2A
102
}
330
2A
100
AcDbVisualStyle
  2
Shaded with edges
 70
    26
177
     3
291
     0
 70
    58
 90
        2
176
     1
 90
        2
176
     1
 90
        1
176
     1
 90
        2
176
     1
 40
0.6
176
     1
 40
30.0
176
     1
 62
     7
420
 16777215
176
     1
 90
        1
176
     1
 90
       10
176
     1
 62
     7
176
     1
 62
   257
176
     1
 90
        2
176
     1
 90
        1
176
     1
 40
1.0
176
     1
 90
        8
176
     1
 62
   257
176
     1
 40
1.0
176
     1
 90
        1
176
     1
 90
        6
176
     1
 90
        2
176
     1
 62
     7
176
     1
 90
        3
176
     1
 90
        0
176
     1
 90
        0
176
     1
290
     0
176
     1
 90
        5
176
     1
 40
0.0
176
     1
 90
        0
176
     1
290
     0
176
     1
290
     1
176
     1
290
     1
176
     1
290
     0
176
     1
290
     0
176
     1
290
     0
176
     1
290
     0
176
     1
290
     0
176
     1
290
     0
176
     1
 90
       50
176
     1
 40
0.0
176
     1
 40
1.0
176
     1
 90
        0
176
     1
 62
    18
420
        0
176
     1
 90
       50
176
     1
 90
        3
176
     1
 62
     5
420
      255
176
     1
290
     0
176
     1
 90
       50
176
     1
 90
       50
176
     1
 90
       50
176
     1
290
     0
176
     1
 90
       50
176
     1
 62
   256
176
     0
 40
1.0
176
     0
 90
        2
176
     1
  1
strokes_ogs.tif
176
     1
290
     0
176
     1
 40
1.0
176
     1
 40
1.0
176
     1
  0
VISUALSTYLE
  5
3E
102
{ACAD_REACTORS
330
2A
102
}
330
2A
100
AcDbVisualStyle
  2
Shades of Gray
 70
    23
177
     3
291
     0
 70
    58
 90
        2
176
     1
 90
        2
176
     1
 90
        3
176
     1
 90
        0
176
     1
 40
0.6
176
     1
 40
30.0
176
     1
 62
     7
420
 16777215
176
     1
 90
        2
176
     1
 90
        2
176
     1
 62
     7
176
     1
 62
     7
176
     1
 90
        1
176
     1
 90
        1
176
     1
 40
40.0
176
     1
 90
        8
176
     1
 62
     7
176
     1
 40
1.0
176
     1
 90
        1
176
     1
 90
        6
176
     1
 90
        2
176
     1
 62
     7
176
     1
 90
        3
176
     1
 90
        0
176
     1
 90
        0
176
     1
290
     0
176
     1
 90
        1
176
     1
 40
0.0
176
     1
 90
        0
176
     1
290
     0
176
     1
290
     1
176
     1
290
     1
176
     1
290
     0
176
     1
290
     0
176
     1
290
     0
176
     1
290
     0
176
     1
290
     0
176
     1
290
     0
176
     1
 90
       50
176
     1
 40
0.0
176
     1
 40
1.0
176
     1
 90
        0
176
     1
 62
    18
420
        0
176
     1
 90
       50
176
     1
 90
        3
176
     1
 62
     5
420
      255
176
     1
290
     0
176
     1
 90
       50
176
     1
 90
       50
176
     1
 90
       50
176
     1
290
     0
176
     1
 90
       50
176
     1
 62
   256
176
     0
 40
1.0
176
     0
 90
        2
176
     1
  1
strokes_ogs.tif
176
     1
290
     0
176
     1
 40
1.0
176
     1
 40
1.0
176
     1
  0
VISUALSTYLE
  5
3F
102
{ACAD_REACTORS
330
2A
102
}
330
2A
100
AcDbVisualStyle
  2
Sketchy
 70
    24
177
     3
291
     0
 70
    58
 90
        1
176
     1
 90
        2
176
     1
 90
        2
176
     1
 90
        0
176
     1
 40
0.6
176
     1
 40
30.0
176
     1
 62
     7
420
 16777215
176
     1
 90
        2
176
     1
 90
        2
176
     1
 62
     7
176
     1
 62
     7
176
     1
 90
        1
176
     1
 90
        1
176
     1
 40
40.0
176
     1
 90
       11
176
     1
 62
     7
176
     1
 40
1.0
176
     1
 90
        1
176
     1
 90
        6
176
     1
 90
        2
176
     1
 62
     7
176
     1
 90
        6
176
     1
 90
        0
176
     1
 90
        0
176
     1
290
     0
176
     1
 90
        1
176
     1
 40
0.0
176
     1
 90
        0
176
     1
290
     0
176
     1
290
     1
176
     1
290
     1
176
     1
290
     0
176
     1
290
     0
176
     1
290
     0
176
     1
290
     0
176
     1
290
     0
176
     1
290
     0
176
     1
 90
       50
176
     1
 40
0.0
176
     1
 40
1.0
176
     1
 90
        0
176
     1
 62
    18
420
        0
176
     1
 90
       50
176
     1
 90
        3
176
     1
 62
     5
420
      255
176
     1
290
     0
176
     1
 90
       50
176
     1
 90
       50
176
     1
 90
       50
176
     1
290
     0
176
     1
 90
       50
176
     1
 62
   256
176
     0
 40
1.0
176
     0
 90
        2
176
     1
  1
strokes_ogs.tif
176
     1
290
     0
176
     1
 40
1.0
176
     1
 40
1.0
176
     1
  0
VISUALSTYLE
  5
37
102
{ACAD_REACTORS
330
2A
102
}
330
2A
100
AcDbVisualStyle
  2
Thicken
 70
    13
177
     3
291
     1
 70
    58
 90
        2
176
     1
 90
        2
176
     1
 90
        0
176
     1
 90
        0
176
     1
 40
0.6
176
     1
 40
30.0
176
     1
 62
     7
420
 16777215
176
     1
 90
        1
176
     1
 90
        4
176
     1
 62
     7
176
     1
 62
   257
176
     1
 90
        1
176
     1
 90
        1
176
     1
 40
1.0
176
     1
 90
       12
176
     1
 62
     7
176
     1
 40
1.0
176
     1
 90
        1
176
     1
 90
        6
176
     1
 90
        2
176
     1
 62
     7
176
     1
 90
        5
176
     1
 90
        0
176
     1
 90
        0
176
     1
290
     0
176
     1
 90
        1
176
     1
 40
0.0
176
     1
 90
        0
176
     1
290
     0
176
     1
290
     1
176
     1
290
     1
176
     1
290
     0
176
     1
290
     0
176
     1
290
     0
176
     1
290
     0
176
     1
290
     0
176
     1
290
     0
176
     1
 90
       50
176
     1
 40
0.0
176
     1
 40
1.0
176
     1
 90
        0
176
     1
 62
    18
420
        0
176
     1
 90
       50
176
     1
 90
        3
176
     1
 62
     5
420
      255
176
     1
290
     0
176
     1
 90
       50
176
     1
 90
       50
176
     1
 90
       50
176
     1
290
     0
176
     1
 90
       50
176
     1
 62
   256
176
     0
 40
1.0
176
     0
 90
        2
176
     1
  1
strokes_ogs.tif
176
     1
290
     0
176
     1
 40
1.0
176
     1
 40
1.0
176
     1
  0
VISUALSTYLE
  5
30
102
{ACAD_REACTORS
330
2A
102
}
330
2A
100
AcDbVisualStyle
  2
Wireframe
 70
     5
177
     3
291
     0
 70
    58
 90
        0
176
     1
 90
        2
176
     1
 90
        0
176
     1
 90
        0
176
     1
 40
0.6
176
     1
 40
30.0
176
     1
 62
     7
420
 16777215
176
     1
 90
        1
176
     1
 90
        4
176
     1
 62
     7
176
     1
 62
   257
176
     1
 90
        1
176
     1
 90
        1
176
     1
 40
1.0
176
     1
 90
        0
176
     1
 62
   257
176
     1
 40
1.0
176
     1
 90
        1
176
     1
 90
        6
176
     1
 90
        2
176
     1
 62
     7
176
     1
 90
        3
176
     1
 90
        0
176
     1
 90
        0
176
     1
290
     0
176
     1
 90
        1
176
     1
 40
0.0
176
     1
 90
        0
176
     1
290
     0
176
     1
290
     1
176
     1
290
     1
176
     1
290
     0
176
     1
290
     0
176
     1
290
     0
176
     1
290
     0
176
     1
290
     0
176
     1
290
     0
176
     1
 90
       50
176
     1
 40
0.0
176
     1
 40
1.0
176
     1
 90
        0
176
     1
 62
    18
420
        0
176
     1
 90
       50
176
     1
 90
        3
176
     1
 62
     5
420
      255
176
     1
290
     0
176
     1
 90
       50
176
     1
 90
       50
176
     1
 90
       50
176
     1
290
     0
176
     1
 90
       50
176
     1
 62
   256
176
     0
 40
1.0
176
     0
 90
        2
176
     1
  1
strokes_ogs.tif
176
     1
290
     0
176
     1
 40
1.0
176
     1
 40
1.0
176
     1
  0
VISUALSTYLE
  5
40
102
{ACAD_REACTORS
330
2A
102
}
330
2A
100
AcDbVisualStyle
  2
X-Ray
 70
    25
177
     3
291
     0
 70
    58
 90
        2
176
     1
 90
        2
176
     1
 90
        1
176
     1
 90
        1
176
     1
 40
0.5
176
     1
 40
30.0
176
     1
 62
     7
420
 16777215
176
     1
 90
        1
176
     1
 90
        0
176
     1
 62
     7
176
     1
 62
   257
176
     1
 90
        1
176
     1
 90
        1
176
     1
 40
1.0
176
     1
 90
        8
176
     1
 62
     7
176
     1
 40
1.0
176
     1
 90
        1
176
     1
 90
        6
176
     1
 90
        2
176
     1
 62
     7
176
     1
 90
        3
176
     1
 90
        0
176
     1
 90
        0
176
     1
290
     0
176
     1
 90
       13
176
     1
 40
0.0
176
     1
 90
        0
176
     1
290
     0
176
     1
290
     1
176
     1
290
     1
176
     1
290
     0
176
     1
290
     0
176
     1
290
     0
176
     1
290
     0
176
     1
290
     0
176
     1
290
     0
176
     1
 90
       50
176
     1
 40
0.0
176
     1
 40
1.0
176
     1
 90
        0
176
     1
 62
    18
420
        0
176
     1
 90
       50
176
     1
 90
        3
176
     1
 62
     5
420
      255
176
     1
290
     0
176
     1
 90
       50
176
     1
 90
       50
176
     1
 90
       50
176
     1
290
     0
176
     1
 90
       50
176
     1
 62
   256
176
     0
 40
1.0
176
     0
 90
        2
176
     1
  1
strokes_ogs.tif
176
     1
290
     0
176
     1
 40
1.0
176
     1
 40
1.0
176
     1
  0
DICTIONARYVAR
  5
154
102
{ACAD_REACTORS
330
153
102
}
330
153
100
DictionaryVariables
280
     0
  1
1:1
  0
DICTIONARYVAR
  5
159
102
{ACAD_REACTORS
330
153
102
}
330
153
100
DictionaryVariables
280
     0
  1
Standard
  0
DICTIONARYVAR
  5
158
102
{ACAD_REACTORS
330
153
102
}
330
153
100
DictionaryVariables
280
     0
  1
Standard
  0
DICTIONARY
  5
155
330
5A
100
AcDbDictionary
280
     1
281
     1
  3
ACAD_ROUNDTRIP_2008_TABLESTYLE_CELLSTYLEMAP
360
156
  0
CELLSTYLEMAP
  5
156
102
{ACAD_REACTORS
330
155
102
}
330
155
100
AcDbCellStyleMap
 90
        3
300
CELLSTYLE
  1
TABLEFORMAT_BEGIN
 90
        5
170
     1
 91
        0
 92
    32768
 62
   257
 93
        1
300
CONTENTFORMAT
  1
CONTENTFORMAT_BEGIN
 90
        0
 91
        0
 92
        4
 93
        0
300

 40
0.0
140
1.0
 94
        5
 62
     0
340
11
144
0.25
309
CONTENTFORMAT_END
171
     1
301
MARGIN
  1
CELLMARGIN_BEGIN
 40
0.06
 40
0.06
 40
0.06
 40
0.06
 40
0.06
 40
0.06
309
CELLMARGIN_END
 94
        6
 95
        1
302
GRIDFORMAT
  1
GRIDFORMAT_BEGIN
 90
        0
 91
        1
 62
     0
 92
       -2
340
14
 93
        0
 40
0.045
309
GRIDFORMAT_END
 95
        2
302
GRIDFORMAT
  1
GRIDFORMAT_BEGIN
 90
        0
 91
        1
 62
     0
 92
       -2
340
14
 93
        0
 40
0.045
309
GRIDFORMAT_END
 95
        4
302
GRIDFORMAT
  1
GRIDFORMAT_BEGIN
 90
        0
 91
        1
 62
     0
 92
       -2
340
14
 93
        0
 40
0.045
309
GRIDFORMAT_END
 95
        8
302
GRIDFORMAT
  1
GRIDFORMAT_BEGIN
 90
        0
 91
        1
 62
     0
 92
       -2
340
14
 93
        0
 40
0.045
309
GRIDFORMAT_END
 95
       16
302
GRIDFORMAT
  1
GRIDFORMAT_BEGIN
 90
        0
 91
        1
 62
     0
 92
       -2
340
14
 93
        0
 40
0.045
309
GRIDFORMAT_END
 95
       32
302
GRIDFORMAT
  1
GRIDFORMAT_BEGIN
 90
        0
 91
        1
 62
     0
 92
       -2
340
14
 93
        0
 40
0.045
309
GRIDFORMAT_END
309
TABLEFORMAT_END
  1
CELLSTYLE_BEGIN
 90
        1
 91
        1
300
_TITLE
309
CELLSTYLE_END
300
CELLSTYLE
  1
TABLEFORMAT_BEGIN
 90
        5
170
     1
 91
        0
 92
        0
 62
   257
 93
        1
300
CONTENTFORMAT
  1
CONTENTFORMAT_BEGIN
 90
        0
 91
        0
 92
        4
 93
        0
300

 40
0.0
140
1.0
 94
        5
 62
     0
340
11
144
0.18
309
CONTENTFORMAT_END
171
     1
301
MARGIN
  1
CELLMARGIN_BEGIN
 40
0.06
 40
0.06
 40
0.06
 40
0.06
 40
0.06
 40
0.06
309
CELLMARGIN_END
 94
        6
 95
        1
302
GRIDFORMAT
  1
GRIDFORMAT_BEGIN
 90
        0
 91
        1
 62
     0
 92
       -2
340
14
 93
        0
 40
0.045
309
GRIDFORMAT_END
 95
        2
302
GRIDFORMAT
  1
GRIDFORMAT_BEGIN
 90
        0
 91
        1
 62
     0
 92
       -2
340
14
 93
        0
 40
0.045
309
GRIDFORMAT_END
 95
        4
302
GRIDFORMAT
  1
GRIDFORMAT_BEGIN
 90
        0
 91
        1
 62
     0
 92
       -2
340
14
 93
        0
 40
0.045
309
GRIDFORMAT_END
 95
        8
302
GRIDFORMAT
  1
GRIDFORMAT_BEGIN
 90
        0
 91
        1
 62
     0
 92
       -2
340
14
 93
        0
 40
0.045
309
GRIDFORMAT_END
 95
       16
302
GRIDFORMAT
  1
GRIDFORMAT_BEGIN
 90
        0
 91
        1
 62
     0
 92
       -2
340
14
 93
        0
 40
0.045
309
GRIDFORMAT_END
 95
       32
302
GRIDFORMAT
  1
GRIDFORMAT_BEGIN
 90
        0
 91
        1
 62
     0
 92
       -2
340
14
 93
        0
 40
0.045
309
GRIDFORMAT_END
309
TABLEFORMAT_END
  1
CELLSTYLE_BEGIN
 90
        2
 91
        1
300
_HEADER
309
CELLSTYLE_END
300
CELLSTYLE
  1
TABLEFORMAT_BEGIN
 90
        5
170
     1
 91
        0
 92
        0
 62
   257
 93
        1
300
CONTENTFORMAT
  1
CONTENTFORMAT_BEGIN
 90
        0
 91
        0
 92
        4
 93
        0
300

 40
0.0
140
1.0
 94
        2
 62
     0
340
11
144
0.18
309
CONTENTFORMAT_END
171
     1
301
MARGIN
  1
CELLMARGIN_BEGIN
 40
0.06
 40
0.06
 40
0.06
 40
0.06
 40
0.06
 40
0.06
309
CELLMARGIN_END
 94
        6
 95
        1
302
GRIDFORMAT
  1
GRIDFORMAT_BEGIN
 90
        0
 91
        1
 62
     0
 92
       -2
340
14
 93
        0
 40
0.045
309
GRIDFORMAT_END
 95
        2
302
GRIDFORMAT
  1
GRIDFORMAT_BEGIN
 90
        0
 91
        1
 62
     0
 92
       -2
340
14
 93
        0
 40
0.045
309
GRIDFORMAT_END
 95
        4
302
GRIDFORMAT
  1
GRIDFORMAT_BEGIN
 90
        0
 91
        1
 62
     0
 92
       -2
340
14
 93
        0
 40
0.045
309
GRIDFORMAT_END
 95
        8
302
GRIDFORMAT
  1
GRIDFORMAT_BEGIN
 90
        0
 91
        1
 62
     0
 92
       -2
340
14
 93
        0
 40
0.045
309
GRIDFORMAT_END
 95
       16
302
GRIDFORMAT
  1
GRIDFORMAT_BEGIN
 90
        0
 91
        1
 62
     0
 92
       -2
340
14
 93
        0
 40
0.045
309
GRIDFORMAT_END
 95
       32
302
GRIDFORMAT
  1
GRIDFORMAT_BEGIN
 90
        0
 91
        1
 62
     0
 92
       -2
340
14
 93
        0
 40
0.045
309
GRIDFORMAT_END
309
TABLEFORMAT_END
  1
CELLSTYLE_BEGIN
 90
        3
 91
        2
300
_DATA
309
CELLSTYLE_END
  0
ENDSEC
  0
EOF
