  0
SECTION
  2
HEADER
  9
$ACADVER
  1
AC1027
  9
$ACADMAINTVER
 70
   105
  9
$DWGCODEPAGE
  3
ANSI_1252
  9
$LASTSAVEDBY
  1
Office Desk
  9
$REQUIREDVERSIONS
160
                 0
  9
$INSBASE
 10
0.0
 20
0.0
 30
0.0
  9
$EXTMIN
 10
274.316
 20
-507.8118
 30
0.0
  9
$EXTMAX
 10
1374.3168
 20
342.3147
 30
0.0
  9
$LIMMIN
 10
0.0
 20
0.0
  9
$LIMMAX
 10
12.0
 20
9.0
  9
$ORTHOMODE
 70
     0
  9
$REGENMODE
 70
     1
  9
$FILLMODE
 70
     1
  9
$QTEXTMODE
 70
     0
  9
$MIRRTEXT
 70
     1
  9
$LTSCALE
 40
1.0
  9
$ATTMODE
 70
     1
  9
$TEXTSIZE
 40
0.2
  9
$TRACEWID
 40
0.05
  9
$TEXTSTYLE
  7
Standard
  9
$CLAYER
  8
0
  9
$CELTYPE
  6
ByLayer
  9
$CECOLOR
 62
   256
  9
$CELTSCALE
 40
1.0
  9
$DISPSILH
 70
     0
  9
$DIMSCALE
 40
1.0
  9
$DIMASZ
 40
0.18
  9
$DIMEXO
 40
0.0625
  9
$DIMDLI
 40
0.38
  9
$DIMRND
 40
0.0
  9
$DIMDLE
 40
0.0
  9
$DIMEXE
 40
0.18
  9
$DIMTP
 40
0.0
  9
$DIMTM
 40
0.0
  9
$DIMTXT
 40
0.18
  9
$DIMCEN
 40
0.09
  9
$DIMTSZ
 40
0.0
  9
$DIMTOL
 70
     0
  9
$DIMLIM
 70
     0
  9
$DIMTIH
 70
     1
  9
$DIMTOH
 70
     1
  9
$DIMSE1
 70
     0
  9
$DIMSE2
 70
     0
  9
$DIMTAD
 70
     0
  9
$DIMZIN
 70
     0
  9
$DIMBLK
  1

  9
$DIMASO
 70
     1
  9
$DIMSHO
 70
     1
  9
$DIMPOST
  1

  9
$DIMAPOST
  1

  9
$DIMALT
 70
     0
  9
$DIMALTD
 70
     2
  9
$DIMALTF
 40
25.4
  9
$DIMLFAC
 40
1.0
  9
$DIMTOFL
 70
     0
  9
$DIMTVP
 40
0.0
  9
$DIMTIX
 70
     0
  9
$DIMSOXD
 70
     0
  9
$DIMSAH
 70
     0
  9
$DIMBLK1
  1

  9
$DIMBLK2
  1

  9
$DIMSTYLE
  2
Standard
  9
$DIMCLRD
 70
     0
  9
$DIMCLRE
 70
     0
  9
$DIMCLRT
 70
     0
  9
$DIMTFAC
 40
1.0
  9
$DIMGAP
 40
0.09
  9
$DIMJUST
 70
     0
  9
$DIMSD1
 70
     0
  9
$DIMSD2
 70
     0
  9
$DIMTOLJ
 70
     1
  9
$DIMTZIN
 70
     0
  9
$DIMALTZ
 70
     0
  9
$DIMALTTZ
 70
     0
  9
$DIMUPT
 70
     0
  9
$DIMDEC
 70
     4
  9
$DIMTDEC
 70
     4
  9
$DIMALTU
 70
     2
  9
$DIMALTTD
 70
     2
  9
$DIMTXSTY
  7
Standard
  9
$DIMAUNIT
 70
     0
  9
$DIMADEC
 70
     0
  9
$DIMALTRND
 40
0.0
  9
$DIMAZIN
 70
     0
  9
$DIMDSEP
 70
    46
  9
$DIMATFIT
 70
     3
  9
$DIMFRAC
 70
     0
  9
$DIMLDRBLK
  1

  9
$DIMLUNIT
 70
     2
  9
$DIMLWD
 70
    -2
  9
$DIMLWE
 70
    -2
  9
$DIMTMOVE
 70
     0
  9
$DIMFXL
 40
1.0
  9
$DIMFXLON
 70
     0
  9
$DIMJOGANG
 40
0.7853981633974483
  9
$DIMTFILL
 70
     0
  9
$DIMTFILLCLR
 70
     0
  9
$DIMARCSYM
 70
     0
  9
$DIMLTYPE
  6

  9
$DIMLTEX1
  6

  9
$DIMLTEX2
  6

  9
$DIMTXTDIRECTION
 70
     0
  9
$LUNITS
 70
     2
  9
$LUPREC
 70
     4
  9
$SKETCHINC
 40
0.1
  9
$FILLETRAD
 40
0.0
  9
$AUNITS
 70
     0
  9
$AUPREC
 70
     0
  9
$MENU
  1
.
  9
$ELEVATION
 40
0.0
  9
$PELEVATION
 40
0.0
  9
$THICKNESS
 40
0.0
  9
$LIMCHECK
 70
     0
  9
$CHAMFERA
 40
0.0
  9
$CHAMFERB
 40
0.0
  9
$CHAMFERC
 40
0.0
  9
$CHAMFERD
 40
0.0
  9
$SKPOLY
 70
     0
  9
$TDCREATE
 40
2461000.606176378
  9
$TDUCREATE
 40
2461000.377009711
  9
$TDUPDATE
 40
2461000.606177292
  9
$TDUUPDATE
 40
2461000.377010625
  9
$TDINDWG
 40
0.0000000116
  9
$TDUSRTIMER
 40
0.0000000116
  9
$USRTIMER
 70
     1
  9
$ANGBASE
 50
0.0
  9
$ANGDIR
 70
     0
  9
$PDMODE
 70
     0
  9
$PDSIZE
 40
0.0
  9
$PLINEWID
 40
0.0
  9
$SPLFRAME
 70
     0
  9
$SPLINETYPE
 70
     6
  9
$SPLINESEGS
 70
     8
  9
$HANDSEED
  5
25B
  9
$SURFTAB1
 70
     6
  9
$SURFTAB2
 70
     6
  9
$SURFTYPE
 70
     6
  9
$SURFU
 70
     6
  9
$SURFV
 70
     6
  9
$UCSBASE
  2

  9
$UCSNAME
  2

  9
$UCSORG
 10
0.0
 20
0.0
 30
0.0
  9
$UCSXDIR
 10
1.0
 20
0.0
 30
0.0
  9
$UCSYDIR
 10
0.0
 20
1.0
 30
0.0
  9
$UCSORTHOREF
  2

  9
$UCSORTHOVIEW
 70
     0
  9
$UCSORGTOP
 10
0.0
 20
0.0
 30
0.0
  9
$UCSORGBOTTOM
 10
0.0
 20
0.0
 30
0.0
  9
$UCSORGLEFT
 10
0.0
 20
0.0
 30
0.0
  9
$UCSORGRIGHT
 10
0.0
 20
0.0
 30
0.0
  9
$UCSORGFRONT
 10
0.0
 20
0.0
 30
0.0
  9
$UCSORGBACK
 10
0.0
 20
0.0
 30
0.0
  9
$PUCSBASE
  2

  9
$PUCSNAME
  2

  9
$PUCSORG
 10
0.0
 20
0.0
 30
0.0
  9
$PUCSXDIR
 10
1.0
 20
0.0
 30
0.0
  9
$PUCSYDIR
 10
0.0
 20
1.0
 30
0.0
  9
$PUCSORTHOREF
  2

  9
$PUCSORTHOVIEW
 70
     0
  9
$PUCSORGTOP
 10
0.0
 20
0.0
 30
0.0
  9
$PUCSORGBOTTOM
 10
0.0
 20
0.0
 30
0.0
  9
$PUCSORGLEFT
 10
0.0
 20
0.0
 30
0.0
  9
$PUCSORGRIGHT
 10
0.0
 20
0.0
 30
0.0
  9
$PUCSORGFRONT
 10
0.0
 20
0.0
 30
0.0
  9
$PUCSORGBACK
 10
0.0
 20
0.0
 30
0.0
  9
$USERI1
 70
     0
  9
$USERI2
 70
     0
  9
$USERI3
 70
     0
  9
$USERI4
 70
     0
  9
$USERI5
 70
     0
  9
$USERR1
 40
0.0
  9
$USERR2
 40
0.0
  9
$USERR3
 40
0.0
  9
$USERR4
 40
0.0
  9
$USERR5
 40
0.0
  9
$WORLDVIEW
 70
     1
  9
$SHADEDGE
 70
     3
  9
$SHADEDIF
 70
    70
  9
$TILEMODE
 70
     1
  9
$MAXACTVP
 70
    64
  9
$PINSBASE
 10
0.0
 20
0.0
 30
0.0
  9
$PLIMCHECK
 70
     0
  9
$PEXTMIN
 10
1.000000000000000E+20
 20
1.000000000000000E+20
 30
1.000000000000000E+20
  9
$PEXTMAX
 10
-1.000000000000000E+20
 20
-1.000000000000000E+20
 30
-1.000000000000000E+20
  9
$PLIMMIN
 10
0.0
 20
0.0
  9
$PLIMMAX
 10
12.0
 20
9.0
  9
$UNITMODE
 70
     0
  9
$VISRETAIN
 70
     1
  9
$PLINEGEN
 70
     0
  9
$PSLTSCALE
 70
     1
  9
$TREEDEPTH
 70
  3020
  9
$CMLSTYLE
  2
Standard
  9
$CMLJUST
 70
     0
  9
$CMLSCALE
 40
1.0
  9
$PROXYGRAPHICS
 70
     1
  9
$MEASUREMENT
 70
     0
  9
$CELWEIGHT
370
    -1
  9
$ENDCAPS
280
     0
  9
$JOINSTYLE
280
     0
  9
$LWDISPLAY
290
     0
  9
$INSUNITS
 70
     4
  9
$HYPERLINKBASE
  1

  9
$STYLESHEET
  1

  9
$XEDIT
290
     1
  9
$CEPSNTYPE
380
     0
  9
$PSTYLEMODE
290
     1
  9
$FINGERPRINTGUID
  2
{9ca36323-99da-4ab6-bea5-d8f5900b2cdf}
  9
$VERSIONGUID
  2
{FAEB1C32-E019-11D5-929B-00C0DF256EC4}
  9
$EXTNAMES
290
     1
  9
$PSVPSCALE
 40
0.0
  9
$OLESTARTUP
290
     0
  9
$SORTENTS
280
   127
  9
$INDEXCTL
280
     0
  9
$HIDETEXT
280
     1
  9
$XCLIPFRAME
280
     2
  9
$HALOGAP
280
     0
  9
$OBSCOLOR
 70
   257
  9
$OBSLTYPE
280
     0
  9
$INTERSECTIONDISPLAY
280
     0
  9
$INTERSECTIONCOLOR
 70
   257
  9
$DIMASSOC
280
     2
  9
$PROJECTNAME
  1

  9
$CAMERADISPLAY
290
     0
  9
$LENSLENGTH
 40
50.0
  9
$CAMERAHEIGHT
 40
0.0
  9
$STEPSPERSEC
 40
2.0
  9
$STEPSIZE
 40
6.0
  9
$3DDWFPREC
 40
2.0
  9
$PSOLWIDTH
 40
0.25
  9
$PSOLHEIGHT
 40
4.0
  9
$LOFTANG1
 40
1.570796326794897
  9
$LOFTANG2
 40
1.570796326794897
  9
$LOFTMAG1
 40
0.0
  9
$LOFTMAG2
 40
0.0
  9
$LOFTPARAM
 70
     7
  9
$LOFTNORMALS
280
     1
  9
$LATITUDE
 40
37.795
  9
$LONGITUDE
 40
-122.394
  9
$NORTHDIRECTION
 40
0.0
  9
$TIMEZONE
 70
 -8000
  9
$LIGHTGLYPHDISPLAY
280
     1
  9
$TILEMODELIGHTSYNCH
280
     1
  9
$CMATERIAL
347
44
  9
$SOLIDHIST
280
     0
  9
$SHOWHIST
280
     1
  9
$DWFFRAME
280
     2
  9
$DGNFRAME
280
     2
  9
$REALWORLDSCALE
290
     1
  9
$INTERFERECOLOR
 62
   256
  9
$CSHADOW
280
     0
  9
$SHADOWPLANELOCATION
 40
0.0
  0
ENDSEC
  0
SECTION
  2
CLASSES
  0
CLASS
  1
ACDBDICTIONARYWDFLT
  2
AcDbDictionaryWithDefault
  3
ObjectDBX Classes
 90
        0
 91
        3
280
     0
281
     0
  0
CLASS
  1
VISUALSTYLE
  2
AcDbVisualStyle
  3
ObjectDBX Classes
 90
     4095
 91
        3
280
     0
281
     0
  0
CLASS
  1
MATERIAL
  2
AcDbMaterial
  3
ObjectDBX Classes
 90
     1153
 91
        3
280
     0
281
     0
  0
CLASS
  1
SCALE
  2
AcDbScale
  3
ObjectDBX Classes
 90
     1153
 91
        3
280
     0
281
     0
  0
CLASS
  1
TABLESTYLE
  2
AcDbTableStyle
  3
ObjectDBX Classes
 90
     4095
 91
        3
280
     0
281
     0
  0
CLASS
  1
MLEADERSTYLE
  2
AcDbMLeaderStyle
  3
ACDB_MLEADERSTYLE_CLASS
 90
     4095
 91
        3
280
     0
281
     0
  0
CLASS
  1
SUN
  2
AcDbSun
  3
SCENEOE
 90
     1153
 91
        3
280
     0
281
     0
  0
CLASS
  1
IMAGEDEF
  2
AcDbRasterImageDef
  3
ISM
 90
        0
 91
        3
280
     0
281
     0
  0
CLASS
  1
IMAGE
  2
AcDbRasterImage
  3
ISM
 90
      127
 91
        4
280
     0
281
     1
  0
CLASS
  1
IMAGEDEF_REACTOR
  2
AcDbRasterImageDefReactor
  3
ISM
 90
        1
 91
        3
280
     0
281
     0
  0
CLASS
  1
DICTIONARYVAR
  2
AcDbDictionaryVar
  3
ObjectDBX Classes
 90
        0
 91
        3
280
     0
281
     0
  0
CLASS
  1
CELLSTYLEMAP
  2
AcDbCellStyleMap
  3
ObjectDBX Classes
 90
     1152
 91
        3
280
     0
281
     0
  0
ENDSEC
  0
SECTION
  2
TABLES
  0
TABLE
  2
VPORT
  5
8
330
0
100
AcDbSymbolTable
 70
     1
  0
VPORT
  5
29
330
8
100
AcDbSymbolTableRecord
100
AcDbViewportTableRecord
  2
*Active
 70
     0
 10
0.0
 20
0.0
 11
1.0
 21
1.0
 12
10.42990654205607
 22
4.5
 13
0.0
 23
0.0
 14
0.5
 24
0.5
 15
0.5
 25
0.5
 16
0.0
 26
0.0
 36
1.0
 17
0.0
 27
0.0
 37
0.0
 40
9.0
 41
1.972972972850329
 42
50.0
 43
0.0
 44
0.0
 50
0.0
 51
0.0
 71
     0
 72
   100
 73
     1
 74
     3
 75
     0
 76
     0
 77
     0
 78
     0
281
     0
 65
     1
110
0.0
120
0.0
130
0.0
111
1.0
121
0.0
131
0.0
112
0.0
122
1.0
132
0.0
 79
     0
146
0.0
348
2F
 60
     3
 61
     5
292
     1
282
     1
141
0.0
142
0.0
 63
   250
361
5D
  0
ENDTAB
  0
TABLE
  2
LTYPE
  5
5
330
0
100
AcDbSymbolTable
 70
     1
  0
LTYPE
  5
14
330
5
100
AcDbSymbolTableRecord
100
AcDbLinetypeTableRecord
  2
ByBlock
 70
     0
  3

 72
    65
 73
     0
 40
0.0
  0
LTYPE
  5
15
330
5
100
AcDbSymbolTableRecord
100
AcDbLinetypeTableRecord
  2
ByLayer
 70
     0
  3

 72
    65
 73
     0
 40
0.0
  0
LTYPE
  5
16
330
5
100
AcDbSymbolTableRecord
100
AcDbLinetypeTableRecord
  2
Continuous
 70
     0
  3
Solid line
 72
    65
 73
     0
 40
0.0
  0
ENDTAB
  0
TABLE
  2
LAYER
  5
2
330
0
100
AcDbSymbolTable
 70
     2
  0
LAYER
  5
10
330
2
100
AcDbSymbolTableRecord
100
AcDbLayerTableRecord
  2
0
 70
     0
 62
     7
  6
Continuous
370
    -3
390
F
347
46
348
0
  0
LAYER
  5
5F
330
2
100
AcDbSymbolTableRecord
100
AcDbLayerTableRecord
  2
Layer 1
 70
     0
 62
     7
  6
Continuous
370
    -3
390
F
347
46
348
0
  0
ENDTAB
  0
TABLE
  2
STYLE
  5
3
330
0
100
AcDbSymbolTable
 70
     1
  0
STYLE
  5
11
330
3
100
AcDbSymbolTableRecord
100
AcDbTextStyleTableRecord
  2
Standard
 70
     0
 40
0.0
 41
1.0
 50
0.0
 71
     0
 42
0.2
  3
txt
  4

  0
ENDTAB
  0
TABLE
  2
VIEW
  5
6
330
0
100
AcDbSymbolTable
 70
     0
  0
ENDTAB
  0
TABLE
  2
UCS
  5
7
330
0
100
AcDbSymbolTable
 70
     0
  0
ENDTAB
  0
TABLE
  2
APPID
  5
9
330
0
100
AcDbSymbolTable
 70
     2
  0
APPID
  5
12
330
9
100
AcDbSymbolTableRecord
100
AcDbRegAppTableRecord
  2
ACAD
 70
     0
  0
APPID
  5
5E
330
9
100
AcDbSymbolTableRecord
100
AcDbRegAppTableRecord
  2
ODA
 70
     0
  0
ENDTAB
  0
TABLE
  2
DIMSTYLE
  5
A
330
0
100
AcDbSymbolTable
 70
     1
100
AcDbDimStyleTable
  0
DIMSTYLE
105
27
330
A
100
AcDbSymbolTableRecord
100
AcDbDimStyleTableRecord
  2
Standard
 70
     0
178
     0
340
11
  0
ENDTAB
  0
TABLE
  2
BLOCK_RECORD
  5
1
330
0
100
AcDbSymbolTable
 70
     1
  0
BLOCK_RECORD
  5
1F
330
1
100
AcDbSymbolTableRecord
100
AcDbBlockTableRecord
  2
*Model_Space
340
22
 70
     0
280
     1
281
     0
  0
BLOCK_RECORD
  5
1B
330
1
100
AcDbSymbolTableRecord
100
AcDbBlockTableRecord
  2
*Paper_Space
340
1E
 70
     0
280
     1
281
     0
  0
BLOCK_RECORD
  5
23
330
1
100
AcDbSymbolTableRecord
100
AcDbBlockTableRecord
  2
*Paper_Space0
340
26
 70
     0
280
     1
281
     0
  0
ENDTAB
  0
ENDSEC
  0
SECTION
  2
BLOCKS
  0
BLOCK
  5
20
330
1F
100
AcDbEntity
  8
0
100
AcDbBlockBegin
  2
*Model_Space
 70
     0
 10
0.0
 20
0.0
 30
0.0
  3
*Model_Space
  1

  0
ENDBLK
  5
21
330
1F
100
AcDbEntity
  8
0
100
AcDbBlockEnd
  0
BLOCK
  5
1C
330
1B
100
AcDbEntity
 67
     1
  8
0
100
AcDbBlockBegin
  2
*Paper_Space
 70
     0
 10
0.0
 20
0.0
 30
0.0
  3
*Paper_Space
  1

  0
ENDBLK
  5
1D
330
1B
100
AcDbEntity
 67
     1
  8
0
100
AcDbBlockEnd
  0
BLOCK
  5
24
330
23
100
AcDbEntity
  8
0
100
AcDbBlockBegin
  2
*Paper_Space0
 70
     0
 10
0.0
 20
0.0
 30
0.0
  3
*Paper_Space0
  1

  0
ENDBLK
  5
25
330
23
100
AcDbEntity
  8
0
100
AcDbBlockEnd
  0
ENDSEC
  0
SECTION
  2
ENTITIES
  0
LWPOLYLINE
  5
60
330
1F
100
AcDbEntity
  8
Layer 1
 62
   251
100
AcDbPolyline
 90
       47
 70
     1
 43
0.0
 10
1223.5276
 20
154.6689
 10
1221.8855
 20
172.0896
 10
1217.1199
 20
187.3501
 10
1209.4717
 20
200.3743
 10
1199.1819
 20
211.0862
 10
1186.4915
 20
219.4097
 10
1171.6414
 20
225.2686
 10
1154.8726
 20
228.587
 10
1136.4261
 20
229.2888
 10
1051.8923
 20
235.1179
 10
860.208
 20
242.8739
 10
690.1881
 20
243.878
 10
433.85
 20
234.7646
 10
365.362
 20
229.3546
 10
345.5458
 20
228.8767
 10
327.7668
 20
225.5231
 10
312.2115
 20
219.4171
 10
299.0663
 20
210.6819
 10
288.5177
 20
199.4408
 10
280.7522
 20
185.8169
 10
275.9561
 20
169.9336
 10
274.316
 20
151.9139
 10
274.316
 20
-281.8241
 10
276.0991
 20
-432.9721
 10
278.6567
 20
-444.4953
 10
283.8677
 20
-455.3496
 10
291.2813
 20
-465.2805
 10
300.4469
 20
-474.0338
 10
310.9139
 20
-481.3549
 10
322.2315
 20
-486.9895
 10
333.9492
 20
-490.6832
 10
345.6161
 20
-492.1816
 10
504.1196
 20
-501.976
 10
638.6996
 20
-506.6736
 10
656.171
 20
-506.9468
 10
862.065
 20
-506.6393
 10
1022.5694
 20
-500.4769
 10
1133.8891
 20
-492.535
 10
1153.9591
 20
-492.2804
 10
1171.7262
 20
-489.0783
 10
1187.0753
 20
-483.0632
 10
1199.8915
 20
-474.369
 10
1210.0598
 20
-463.1302
 10
1217.4653
 20
-449.4809
 10
1221.9929
 20
-433.5553
 10
1223.5276
 20
-415.4876
 10
1223.5276
 20
154.6689
  0
IMAGE
  5
63
330
1F
100
AcDbEntity
  8
Layer 1
 62
   251
160
               140
310
8C00000001000000840000000600000005000000EFA57F493E0578405CB468571FA576C00000000000000000EFA57F493E057840DA77E4C1E8AF76C0000000000000000091F93FEC46A97840DA77E4C1E8AF76C0000000000000000091F93FEC46A978405CB468571FA576C00000000000000000EFA57F493E0578405CB468
310
571FA576C00000000000000000
100
AcDbRasterImage
 90
        0
 10
379.056
 20
-416.6285
 30
0.0
 11
0.01388914102925957
 21
0.0
 31
0.0
 12
0.0
 22
0.01389269968508445
 32
0.0
 13
53145.0
 23
3493.0
340
62
 70
     7
280
     1
281
    50
282
    50
283
     0
360
64
 71
     1
 91
        2
 14
379.056
 24
-416.6285
 14
1117.1944
 24
-368.1013
290
     0
  0
LWPOLYLINE
  5
65
330
1F
100
AcDbEntity
  8
Layer 1
 62
     7
370
    25
100
AcDbPolyline
 90
       10
 70
     1
 43
0.0
 10
1198.6519
 20
-341.7031
 10
1198.1003
 20
-343.9547
 10
1196.1595
 20
-344.8072
 10
1194.2187
 20
-344.524
 10
1192.835
 20
-342.8189
 10
1192.835
 20
-340.8506
 10
1194.2187
 20
-339.1497
 10
1196.1595
 20
-338.8679
 10
1198.1003
 20
-339.7148
 10
1198.6519
 20
-341.7031
  0
IMAGE
  5
67
330
1F
100
AcDbEntity
  8
Layer 1
 62
     7
160
               140
310
8C00000001000000840000000600000005000000EFA57F493E05784099A46E821E0963400000000000000000EFA57F493E057840BF6515051DF36240000000000000000091F93FEC46A97840BF6515051DF36240000000000000000091F93FEC46A9784099A46E821E0963400000000000000000EFA57F493E05784099A46E
310
821E0963400000000000000000
100
AcDbRasterImage
 90
        0
 10
379.056
 20
104.2405
 30
0.0
 11
0.01388914102925957
 21
0.0
 31
0.0
 12
0.0
 22
0.01389267471232108
 32
0.0
 13
53145.0
 23
3563.0
340
66
 70
     7
280
     1
281
    50
282
    50
283
     0
360
68
 71
     1
 91
        2
 14
379.056
 24
104.2405
 14
1117.1944
 24
153.7401
290
     0
  0
LWPOLYLINE
  5
69
330
1F
100
AcDbEntity
  8
Layer 1
 62
     7
370
    25
100
AcDbPolyline
 90
       20
 70
     1
 43
0.0
 10
713.831
 20
-131.902
 10
713.2795
 20
-135.8587
 10
711.3387
 20
-139.5278
 10
708.3102
 20
-142.3487
 10
704.7092
 20
-144.0495
 10
700.5526
 20
-144.337
 10
696.6947
 20
-143.2012
 10
693.3702
 20
-140.9454
 10
690.8932
 20
-137.827
 10
689.7888
 20
-133.8703
 10
689.7888
 20
-129.9137
 10
690.8932
 20
-125.9628
 10
693.3702
 20
-122.8386
 10
696.6947
 20
-120.5885
 10
700.5526
 20
-119.4527
 10
704.7092
 20
-119.736
 10
708.3102
 20
-121.4411
 10
711.3387
 20
-124.2577
 10
713.2795
 20
-127.9311
 10
713.831
 20
-131.902
  0
LWPOLYLINE
  5
6A
330
1F
100
AcDbEntity
  8
Layer 1
 62
     7
370
    25
100
AcDbPolyline
 90
        7
 70
     1
 43
0.0
 10
750.8766
 20
-279.2064
 10
750.0444
 20
-280.9072
 10
748.3843
 20
-280.9072
 10
747.5521
 20
-279.2064
 10
748.3843
 20
-277.7888
 10
750.0444
 20
-277.7888
 10
750.8766
 20
-279.2064
  0
LWPOLYLINE
  5
6B
330
1F
100
AcDbEntity
  8
Layer 1
 62
     7
370
    25
100
AcDbPolyline
 90
        7
 70
     1
 43
0.0
 10
750.8766
 20
-233.9653
 10
750.0444
 20
-235.3828
 10
748.3843
 20
-235.3828
 10
747.5521
 20
-233.9653
 10
748.3843
 20
-232.5477
 10
750.0444
 20
-232.5477
 10
750.8766
 20
-233.9653
  0
LWPOLYLINE
  5
6C
330
1F
100
AcDbEntity
  8
Layer 1
 62
     7
370
    25
100
AcDbPolyline
 90
        7
 70
     1
 43
0.0
 10
750.8766
 20
-204.8454
 10
750.0444
 20
-206.263
 10
748.3843
 20
-206.263
 10
747.5521
 20
-204.8454
 10
748.3843
 20
-203.4264
 10
750.0444
 20
-203.4264
 10
750.8766
 20
-204.8454
  0
LWPOLYLINE
  5
6D
330
1F
100
AcDbEntity
  8
Layer 1
 62
     7
370
    25
100
AcDbPolyline
 90
        7
 70
     1
 43
0.0
 10
764.9677
 20
-279.2064
 10
764.1355
 20
-280.9072
 10
762.7504
 20
-280.9072
 10
761.9182
 20
-279.2064
 10
762.7504
 20
-277.7888
 10
764.1355
 20
-277.7888
 10
764.9677
 20
-279.2064
  0
LWPOLYLINE
  5
6E
330
1F
100
AcDbEntity
  8
Layer 1
 62
     7
370
    25
100
AcDbPolyline
 90
        7
 70
     1
 43
0.0
 10
764.9677
 20
-233.9653
 10
764.1355
 20
-235.3828
 10
762.7504
 20
-235.3828
 10
761.9182
 20
-233.9653
 10
762.7504
 20
-232.5477
 10
764.1355
 20
-232.5477
 10
764.9677
 20
-233.9653
  0
LWPOLYLINE
  5
6F
330
1F
100
AcDbEntity
  8
Layer 1
 62
     7
370
    25
100
AcDbPolyline
 90
        7
 70
     1
 43
0.0
 10
764.9677
 20
-204.8454
 10
764.1355
 20
-206.263
 10
762.7504
 20
-206.263
 10
761.9182
 20
-204.8454
 10
762.7504
 20
-203.4264
 10
764.1355
 20
-203.4264
 10
764.9677
 20
-204.8454
  0
LWPOLYLINE
  5
70
330
1F
100
AcDbEntity
  8
Layer 1
 62
     7
370
    25
100
AcDbPolyline
 90
        7
 70
     1
 43
0.0
 10
722.3999
 20
-204.8454
 10
721.5677
 20
-206.263
 10
719.9075
 20
-206.263
 10
719.0754
 20
-204.8454
 10
719.9075
 20
-203.4264
 10
721.5677
 20
-203.4264
 10
722.3999
 20
-204.8454
  0
LWPOLYLINE
  5
71
330
1F
100
AcDbEntity
  8
Layer 1
 62
     7
370
    25
100
AcDbPolyline
 90
        7
 70
     1
 43
0.0
 10
722.3999
 20
-233.9653
 10
721.5677
 20
-235.3828
 10
719.9075
 20
-235.3828
 10
719.0754
 20
-233.9653
 10
719.9075
 20
-232.5477
 10
721.5677
 20
-232.5477
 10
722.3999
 20
-233.9653
  0
LWPOLYLINE
  5
72
330
1F
100
AcDbEntity
  8
Layer 1
 62
     7
370
    25
100
AcDbPolyline
 90
        7
 70
     1
 43
0.0
 10
722.3999
 20
-279.2064
 10
721.5677
 20
-280.9072
 10
719.9075
 20
-280.9072
 10
719.0754
 20
-279.2064
 10
719.9075
 20
-277.7888
 10
721.5677
 20
-277.7888
 10
722.3999
 20
-279.2064
  0
LWPOLYLINE
  5
73
330
1F
100
AcDbEntity
  8
Layer 1
 62
     7
370
    25
100
AcDbPolyline
 90
        7
 70
     1
 43
0.0
 10
736.4909
 20
-204.8454
 10
735.6588
 20
-206.263
 10
734.2751
 20
-206.263
 10
733.4624
 20
-204.8454
 10
734.2751
 20
-203.4264
 10
735.6588
 20
-203.4264
 10
736.4909
 20
-204.8454
  0
LWPOLYLINE
  5
74
330
1F
100
AcDbEntity
  8
Layer 1
 62
     7
370
    25
100
AcDbPolyline
 90
        7
 70
     1
 43
0.0
 10
736.4909
 20
-233.9653
 10
735.6588
 20
-235.3828
 10
734.2751
 20
-235.3828
 10
733.4624
 20
-233.9653
 10
734.2751
 20
-232.5477
 10
735.6588
 20
-232.5477
 10
736.4909
 20
-233.9653
  0
LWPOLYLINE
  5
75
330
1F
100
AcDbEntity
  8
Layer 1
 62
     7
370
    25
100
AcDbPolyline
 90
        7
 70
     1
 43
0.0
 10
736.4909
 20
-279.2064
 10
735.6588
 20
-280.9072
 10
734.2751
 20
-280.9072
 10
733.4624
 20
-279.2064
 10
734.2751
 20
-277.7888
 10
735.6588
 20
-277.7888
 10
736.4909
 20
-279.2064
  0
LWPOLYLINE
  5
76
330
1F
100
AcDbEntity
  8
Layer 1
 62
     7
370
    25
100
AcDbPolyline
 90
        7
 70
     1
 43
0.0
 10
807.8119
 20
-204.8454
 10
806.9784
 20
-206.263
 10
805.3196
 20
-206.263
 10
804.486
 20
-204.8454
 10
805.3196
 20
-203.4264
 10
806.9784
 20
-203.4264
 10
807.8119
 20
-204.8454
  0
LWPOLYLINE
  5
77
330
1F
100
AcDbEntity
  8
Layer 1
 62
     7
370
    25
100
AcDbPolyline
 90
        7
 70
     1
 43
0.0
 10
807.8119
 20
-233.9653
 10
806.9784
 20
-235.3828
 10
805.3196
 20
-235.3828
 10
804.486
 20
-233.9653
 10
805.3196
 20
-232.5477
 10
806.9784
 20
-232.5477
 10
807.8119
 20
-233.9653
  0
LWPOLYLINE
  5
78
330
1F
100
AcDbEntity
  8
Layer 1
 62
     7
370
    25
100
AcDbPolyline
 90
        7
 70
     1
 43
0.0
 10
807.8119
 20
-279.2064
 10
806.9784
 20
-280.9072
 10
805.3196
 20
-280.9072
 10
804.486
 20
-279.2064
 10
805.3196
 20
-277.7888
 10
806.9784
 20
-277.7888
 10
807.8119
 20
-279.2064
  0
LWPOLYLINE
  5
79
330
1F
100
AcDbEntity
  8
Layer 1
 62
     7
370
    25
100
AcDbPolyline
 90
        7
 70
     1
 43
0.0
 10
793.4263
 20
-204.8454
 10
792.6136
 20
-206.263
 10
791.2285
 20
-206.263
 10
790.3964
 20
-204.8454
 10
791.2285
 20
-203.4264
 10
792.6136
 20
-203.4264
 10
793.4263
 20
-204.8454
  0
LWPOLYLINE
  5
7A
330
1F
100
AcDbEntity
  8
Layer 1
 62
     7
370
    25
100
AcDbPolyline
 90
        7
 70
     1
 43
0.0
 10
793.4263
 20
-233.9653
 10
792.6136
 20
-235.3828
 10
791.2285
 20
-235.3828
 10
790.3964
 20
-233.9653
 10
791.2285
 20
-232.5477
 10
792.6136
 20
-232.5477
 10
793.4263
 20
-233.9653
  0
LWPOLYLINE
  5
7B
330
1F
100
AcDbEntity
  8
Layer 1
 62
     7
370
    25
100
AcDbPolyline
 90
        7
 70
     1
 43
0.0
 10
779.3352
 20
-233.9653
 10
778.503
 20
-235.3828
 10
776.8429
 20
-235.3828
 10
776.0302
 20
-233.9653
 10
776.8429
 20
-232.5477
 10
778.503
 20
-232.5477
 10
779.3352
 20
-233.9653
  0
LWPOLYLINE
  5
7C
330
1F
100
AcDbEntity
  8
Layer 1
 62
     7
370
    25
100
AcDbPolyline
 90
        7
 70
     1
 43
0.0
 10
779.3352
 20
-279.2064
 10
778.503
 20
-280.9072
 10
776.8429
 20
-280.9072
 10
776.0302
 20
-279.2064
 10
776.8429
 20
-277.7888
 10
778.503
 20
-277.7888
 10
779.3352
 20
-279.2064
  0
LWPOLYLINE
  5
7D
330
1F
100
AcDbEntity
  8
Layer 1
 62
     7
370
    25
100
AcDbPolyline
 90
        7
 70
     1
 43
0.0
 10
793.4263
 20
-279.2064
 10
792.6136
 20
-280.9072
 10
791.2285
 20
-280.9072
 10
790.3964
 20
-279.2064
 10
791.2285
 20
-277.7888
 10
792.6136
 20
-277.7888
 10
793.4263
 20
-279.2064
  0
LWPOLYLINE
  5
7E
330
1F
100
AcDbEntity
  8
Layer 1
 62
     7
370
    25
100
AcDbPolyline
 90
        7
 70
     1
 43
0.0
 10
779.3352
 20
-204.8454
 10
778.503
 20
-206.263
 10
776.8429
 20
-206.263
 10
776.0302
 20
-204.8454
 10
776.8429
 20
-203.4264
 10
778.503
 20
-203.4264
 10
779.3352
 20
-204.8454
  0
LWPOLYLINE
  5
7F
330
1F
100
AcDbEntity
  8
Layer 1
 62
     7
370
    25
100
AcDbPolyline
 90
        7
 70
     1
 43
0.0
 10
807.8119
 20
-190.1431
 10
806.9784
 20
-191.5607
 10
805.3196
 20
-191.5607
 10
804.486
 20
-190.1431
 10
805.3196
 20
-188.7241
 10
806.9784
 20
-188.7241
 10
807.8119
 20
-190.1431
  0
LWPOLYLINE
  5
80
330
1F
100
AcDbEntity
  8
Layer 1
 62
     7
370
    25
100
AcDbPolyline
 90
        7
 70
     1
 43
0.0
 10
807.8119
 20
-219.263
 10
806.9784
 20
-220.682
 10
805.3196
 20
-220.682
 10
804.486
 20
-219.263
 10
805.3196
 20
-217.8454
 10
806.9784
 20
-217.8454
 10
807.8119
 20
-219.263
  0
LWPOLYLINE
  5
81
330
1F
100
AcDbEntity
  8
Layer 1
 62
     7
370
    25
100
AcDbPolyline
 90
        7
 70
     1
 43
0.0
 10
807.8119
 20
-263.653
 10
806.9784
 20
-265.0706
 10
805.3196
 20
-265.0706
 10
804.486
 20
-263.653
 10
805.3196
 20
-262.2497
 10
806.9784
 20
-262.2497
 10
807.8119
 20
-263.653
  0
LWPOLYLINE
  5
82
330
1F
100
AcDbEntity
  8
Layer 1
 62
     7
370
    25
100
AcDbPolyline
 90
        7
 70
     1
 43
0.0
 10
764.9677
 20
-219.263
 10
764.1355
 20
-220.682
 10
762.7504
 20
-220.682
 10
761.9182
 20
-219.263
 10
762.7504
 20
-217.8454
 10
764.1355
 20
-217.8454
 10
764.9677
 20
-219.263
  0
LWPOLYLINE
  5
83
330
1F
100
AcDbEntity
  8
Layer 1
 62
     7
370
    25
100
AcDbPolyline
 90
        7
 70
     1
 43
0.0
 10
764.9677
 20
-190.1431
 10
764.1355
 20
-191.5607
 10
762.7504
 20
-191.5607
 10
761.9182
 20
-190.1431
 10
762.7504
 20
-188.7241
 10
764.1355
 20
-188.7241
 10
764.9677
 20
-190.1431
  0
LWPOLYLINE
  5
84
330
1F
100
AcDbEntity
  8
Layer 1
 62
     7
370
    25
100
AcDbPolyline
 90
        7
 70
     1
 43
0.0
 10
779.3352
 20
-263.653
 10
778.503
 20
-265.0706
 10
776.8429
 20
-265.0706
 10
776.0302
 20
-263.653
 10
776.8429
 20
-262.2497
 10
778.503
 20
-262.2497
 10
779.3352
 20
-263.653
  0
LWPOLYLINE
  5
85
330
1F
100
AcDbEntity
  8
Layer 1
 62
     7
370
    25
100
AcDbPolyline
 90
        7
 70
     1
 43
0.0
 10
779.3352
 20
-219.263
 10
778.503
 20
-220.682
 10
776.8429
 20
-220.682
 10
776.0302
 20
-219.263
 10
776.8429
 20
-217.8454
 10
778.503
 20
-217.8454
 10
779.3352
 20
-219.263
  0
LWPOLYLINE
  5
86
330
1F
100
AcDbEntity
  8
Layer 1
 62
     7
370
    25
100
AcDbPolyline
 90
        7
 70
     1
 43
0.0
 10
793.4263
 20
-190.1431
 10
792.6136
 20
-191.5607
 10
791.2285
 20
-191.5607
 10
790.3964
 20
-190.1431
 10
791.2285
 20
-188.7241
 10
792.6136
 20
-188.7241
 10
793.4263
 20
-190.1431
  0
LWPOLYLINE
  5
87
330
1F
100
AcDbEntity
  8
Layer 1
 62
     7
370
    25
100
AcDbPolyline
 90
        7
 70
     1
 43
0.0
 10
793.4263
 20
-219.263
 10
792.6136
 20
-220.682
 10
791.2285
 20
-220.682
 10
790.3964
 20
-219.263
 10
791.2285
 20
-217.8454
 10
792.6136
 20
-217.8454
 10
793.4263
 20
-219.263
  0
LWPOLYLINE
  5
88
330
1F
100
AcDbEntity
  8
Layer 1
 62
     7
370
    25
100
AcDbPolyline
 90
        7
 70
     1
 43
0.0
 10
793.4263
 20
-263.653
 10
792.6136
 20
-265.0706
 10
791.2285
 20
-265.0706
 10
790.3964
 20
-263.653
 10
791.2285
 20
-262.2497
 10
792.6136
 20
-262.2497
 10
793.4263
 20
-263.653
  0
LWPOLYLINE
  5
89
330
1F
100
AcDbEntity
  8
Layer 1
 62
     7
370
    25
100
AcDbPolyline
 90
        7
 70
     1
 43
0.0
 10
779.3352
 20
-190.1431
 10
778.503
 20
-191.5607
 10
776.8429
 20
-191.5607
 10
776.0302
 20
-190.1431
 10
776.8429
 20
-188.7241
 10
778.503
 20
-188.7241
 10
779.3352
 20
-190.1431
  0
LWPOLYLINE
  5
8A
330
1F
100
AcDbEntity
  8
Layer 1
 62
     7
370
    25
100
AcDbPolyline
 90
        7
 70
     1
 43
0.0
 10
693.9245
 20
-279.2064
 10
693.0924
 20
-280.9072
 10
691.4462
 20
-280.9072
 10
690.6196
 20
-279.2064
 10
691.4462
 20
-277.7888
 10
693.0924
 20
-277.7888
 10
693.9245
 20
-279.2064
  0
LWPOLYLINE
  5
8B
330
1F
100
AcDbEntity
  8
Layer 1
 62
     7
370
    25
100
AcDbPolyline
 90
        7
 70
     1
 43
0.0
 10
693.9245
 20
-233.9653
 10
693.0924
 20
-235.3828
 10
691.4462
 20
-235.3828
 10
690.6196
 20
-233.9653
 10
691.4462
 20
-232.5477
 10
693.0924
 20
-232.5477
 10
693.9245
 20
-233.9653
  0
LWPOLYLINE
  5
8C
330
1F
100
AcDbEntity
  8
Layer 1
 62
     7
370
    25
100
AcDbPolyline
 90
        7
 70
     1
 43
0.0
 10
693.9245
 20
-204.8454
 10
693.0924
 20
-206.263
 10
691.4462
 20
-206.263
 10
690.6196
 20
-204.8454
 10
691.4462
 20
-203.4264
 10
693.0924
 20
-203.4264
 10
693.9245
 20
-204.8454
  0
LWPOLYLINE
  5
8D
330
1F
100
AcDbEntity
  8
Layer 1
 62
     7
370
    25
100
AcDbPolyline
 90
        7
 70
     1
 43
0.0
 10
708.0323
 20
-279.2064
 10
707.2002
 20
-280.9072
 10
705.54
 20
-280.9072
 10
704.9885
 20
-279.2064
 10
705.54
 20
-277.7888
 10
707.2002
 20
-277.7888
 10
708.0323
 20
-279.2064
  0
LWPOLYLINE
  5
8E
330
1F
100
AcDbEntity
  8
Layer 1
 62
     7
370
    25
100
AcDbPolyline
 90
        7
 70
     1
 43
0.0
 10
708.0323
 20
-233.9653
 10
707.2002
 20
-235.3828
 10
705.54
 20
-235.3828
 10
704.9885
 20
-233.9653
 10
705.54
 20
-232.5477
 10
707.2002
 20
-232.5477
 10
708.0323
 20
-233.9653
  0
LWPOLYLINE
  5
8F
330
1F
100
AcDbEntity
  8
Layer 1
 62
     7
370
    25
100
AcDbPolyline
 90
        7
 70
     1
 43
0.0
 10
708.0323
 20
-204.8454
 10
707.2002
 20
-206.263
 10
705.54
 20
-206.263
 10
704.9885
 20
-204.8454
 10
705.54
 20
-203.4264
 10
707.2002
 20
-203.4264
 10
708.0323
 20
-204.8454
  0
LWPOLYLINE
  5
90
330
1F
100
AcDbEntity
  8
Layer 1
 62
     7
370
    25
100
AcDbPolyline
 90
        7
 70
     1
 43
0.0
 10
750.8766
 20
-263.653
 10
750.0444
 20
-265.0706
 10
748.3843
 20
-265.0706
 10
747.5521
 20
-263.653
 10
748.3843
 20
-262.2497
 10
750.0444
 20
-262.2497
 10
750.8766
 20
-263.653
  0
LWPOLYLINE
  5
91
330
1F
100
AcDbEntity
  8
Layer 1
 62
     7
370
    25
100
AcDbPolyline
 90
        7
 70
     1
 43
0.0
 10
750.8766
 20
-219.263
 10
750.0444
 20
-220.682
 10
748.3843
 20
-220.682
 10
747.5521
 20
-219.263
 10
748.3843
 20
-217.8454
 10
750.0444
 20
-217.8454
 10
750.8766
 20
-219.263
  0
LWPOLYLINE
  5
92
330
1F
100
AcDbEntity
  8
Layer 1
 62
     7
370
    25
100
AcDbPolyline
 90
        7
 70
     1
 43
0.0
 10
750.8766
 20
-190.1431
 10
750.0444
 20
-191.5607
 10
748.3843
 20
-191.5607
 10
747.5521
 20
-190.1431
 10
748.3843
 20
-188.7241
 10
750.0444
 20
-188.7241
 10
750.8766
 20
-190.1431
  0
LWPOLYLINE
  5
93
330
1F
100
AcDbEntity
  8
Layer 1
 62
     7
370
    25
100
AcDbPolyline
 90
        7
 70
     1
 43
0.0
 10
764.9677
 20
-263.653
 10
764.1355
 20
-265.0706
 10
762.7504
 20
-265.0706
 10
761.9182
 20
-263.653
 10
762.7504
 20
-262.2497
 10
764.1355
 20
-262.2497
 10
764.9677
 20
-263.653
  0
LWPOLYLINE
  5
94
330
1F
100
AcDbEntity
  8
Layer 1
 62
     7
370
    25
100
AcDbPolyline
 90
        7
 70
     1
 43
0.0
 10
722.3999
 20
-190.1431
 10
721.5677
 20
-191.5607
 10
719.9075
 20
-191.5607
 10
719.0754
 20
-190.1431
 10
719.9075
 20
-188.7241
 10
721.5677
 20
-188.7241
 10
722.3999
 20
-190.1431
  0
LWPOLYLINE
  5
95
330
1F
100
AcDbEntity
  8
Layer 1
 62
     7
370
    25
100
AcDbPolyline
 90
        7
 70
     1
 43
0.0
 10
736.4909
 20
-263.653
 10
735.6588
 20
-265.0706
 10
734.2751
 20
-265.0706
 10
733.4624
 20
-263.653
 10
734.2751
 20
-262.2497
 10
735.6588
 20
-262.2497
 10
736.4909
 20
-263.653
  0
LWPOLYLINE
  5
96
330
1F
100
AcDbEntity
  8
Layer 1
 62
     7
370
    25
100
AcDbPolyline
 90
        7
 70
     1
 43
0.0
 10
736.4909
 20
-219.263
 10
735.6588
 20
-220.682
 10
734.2751
 20
-220.682
 10
733.4624
 20
-219.263
 10
734.2751
 20
-217.8454
 10
735.6588
 20
-217.8454
 10
736.4909
 20
-219.263
  0
LWPOLYLINE
  5
97
330
1F
100
AcDbEntity
  8
Layer 1
 62
     7
370
    25
100
AcDbPolyline
 90
        7
 70
     1
 43
0.0
 10
736.4909
 20
-190.1431
 10
735.6588
 20
-191.5607
 10
734.2751
 20
-191.5607
 10
733.4624
 20
-190.1431
 10
734.2751
 20
-188.7241
 10
735.6588
 20
-188.7241
 10
736.4909
 20
-190.1431
  0
LWPOLYLINE
  5
98
330
1F
100
AcDbEntity
  8
Layer 1
 62
     7
370
    25
100
AcDbPolyline
 90
        7
 70
     1
 43
0.0
 10
708.0323
 20
-263.653
 10
707.2002
 20
-265.0706
 10
705.54
 20
-265.0706
 10
704.9885
 20
-263.653
 10
705.54
 20
-262.2497
 10
707.2002
 20
-262.2497
 10
708.0323
 20
-263.653
  0
LWPOLYLINE
  5
99
330
1F
100
AcDbEntity
  8
Layer 1
 62
     7
370
    25
100
AcDbPolyline
 90
        7
 70
     1
 43
0.0
 10
693.9245
 20
-190.1431
 10
693.0924
 20
-191.5607
 10
691.4462
 20
-191.5607
 10
690.6196
 20
-190.1431
 10
691.4462
 20
-188.7241
 10
693.0924
 20
-188.7241
 10
693.9245
 20
-190.1431
  0
LWPOLYLINE
  5
9A
330
1F
100
AcDbEntity
  8
Layer 1
 62
     7
370
    25
100
AcDbPolyline
 90
        7
 70
     1
 43
0.0
 10
693.9245
 20
-219.263
 10
693.0924
 20
-220.682
 10
691.4462
 20
-220.682
 10
690.6196
 20
-219.263
 10
691.4462
 20
-217.8454
 10
693.0924
 20
-217.8454
 10
693.9245
 20
-219.263
  0
LWPOLYLINE
  5
9B
330
1F
100
AcDbEntity
  8
Layer 1
 62
     7
370
    25
100
AcDbPolyline
 90
        7
 70
     1
 43
0.0
 10
693.9245
 20
-263.653
 10
693.0924
 20
-265.0706
 10
691.4462
 20
-265.0706
 10
690.6196
 20
-263.653
 10
691.4462
 20
-262.2497
 10
693.0924
 20
-262.2497
 10
693.9245
 20
-263.653
  0
LWPOLYLINE
  5
9C
330
1F
100
AcDbEntity
  8
Layer 1
 62
     7
370
    25
100
AcDbPolyline
 90
        7
 70
     1
 43
0.0
 10
708.0323
 20
-219.263
 10
707.2002
 20
-220.682
 10
705.54
 20
-220.682
 10
704.9885
 20
-219.263
 10
705.54
 20
-217.8454
 10
707.2002
 20
-217.8454
 10
708.0323
 20
-219.263
  0
LWPOLYLINE
  5
9D
330
1F
100
AcDbEntity
  8
Layer 1
 62
     7
370
    25
100
AcDbPolyline
 90
        7
 70
     1
 43
0.0
 10
708.0323
 20
-190.1431
 10
707.2002
 20
-191.5607
 10
705.54
 20
-191.5607
 10
704.9885
 20
-190.1431
 10
705.54
 20
-188.7241
 10
707.2002
 20
-188.7241
 10
708.0323
 20
-190.1431
  0
LWPOLYLINE
  5
9E
330
1F
100
AcDbEntity
  8
Layer 1
 62
     7
370
    25
100
AcDbPolyline
 90
        7
 70
     1
 43
0.0
 10
722.3999
 20
-263.653
 10
721.5677
 20
-265.0706
 10
719.9075
 20
-265.0706
 10
719.0754
 20
-263.653
 10
719.9075
 20
-262.2497
 10
721.5677
 20
-262.2497
 10
722.3999
 20
-263.653
  0
LWPOLYLINE
  5
9F
330
1F
100
AcDbEntity
  8
Layer 1
 62
     7
370
    25
100
AcDbPolyline
 90
        7
 70
     1
 43
0.0
 10
722.3999
 20
-219.263
 10
721.5677
 20
-220.682
 10
719.9075
 20
-220.682
 10
719.0754
 20
-219.263
 10
719.9075
 20
-217.8454
 10
721.5677
 20
-217.8454
 10
722.3999
 20
-219.263
  0
LWPOLYLINE
  5
A0
330
1F
100
AcDbEntity
  8
Layer 1
 62
     7
370
    25
100
AcDbPolyline
 90
        7
 70
     1
 43
0.0
 10
508.7343
 20
15.4195
 10
507.9021
 20
14.0019
 10
506.2419
 20
14.0019
 10
505.4098
 20
15.4195
 10
506.2419
 20
16.8385
 10
507.9021
 20
16.8385
 10
508.7343
 20
15.4195
  0
LWPOLYLINE
  5
A1
330
1F
100
AcDbEntity
  8
Layer 1
 62
     7
370
    25
100
AcDbPolyline
 90
        7
 70
     1
 43
0.0
 10
505.9641
 20
-117.4658
 10
505.4126
 20
-118.8848
 10
503.7678
 20
-118.8848
 10
502.9356
 20
-117.4658
 10
503.7678
 20
-116.064
 10
505.4126
 20
-116.064
 10
505.9641
 20
-117.4658
  0
LWPOLYLINE
  5
A2
330
1F
100
AcDbEntity
  8
Layer 1
 62
     7
370
    25
100
AcDbPolyline
 90
        7
 70
     1
 43
0.0
 10
505.9641
 20
-0.1339
 10
505.4126
 20
-1.5515
 10
503.7678
 20
-1.5515
 10
502.9356
 20
-0.1339
 10
503.7678
 20
1.2837
 10
505.4126
 20
1.2837
 10
505.9641
 20
-0.1339
  0
LWPOLYLINE
  5
A3
330
1F
100
AcDbEntity
  8
Layer 1
 62
     7
370
    25
100
AcDbPolyline
 90
        7
 70
     1
 43
0.0
 10
458.7062
 20
-9.1787
 10
457.8741
 20
-10.5963
 10
456.2139
 20
-10.5963
 10
455.6582
 20
-9.1787
 10
456.2139
 20
-7.7597
 10
457.8741
 20
-7.7597
 10
458.7062
 20
-9.1787
  0
LWPOLYLINE
  5
A4
330
1F
100
AcDbEntity
  8
Layer 1
 62
     7
370
    25
100
AcDbPolyline
 90
        7
 70
     1
 43
0.0
 10
505.9641
 20
-29.8216
 10
505.4126
 20
-31.2392
 10
503.7678
 20
-31.2392
 10
502.9356
 20
-29.8216
 10
503.7678
 20
-28.404
 10
505.4126
 20
-28.404
 10
505.9641
 20
-29.8216
  0
LWPOLYLINE
  5
A5
330
1F
100
AcDbEntity
  8
Layer 1
 62
     7
370
    25
100
AcDbPolyline
 90
        7
 70
     1
 43
0.0
 10
505.9641
 20
-58.9415
 10
505.4126
 20
-60.3605
 10
503.7678
 20
-60.3605
 10
502.9356
 20
-58.9415
 10
503.7678
 20
-57.5239
 10
505.4126
 20
-57.5239
 10
505.9641
 20
-58.9415
  0
LWPOLYLINE
  5
A6
330
1F
100
AcDbEntity
  8
Layer 1
 62
     7
370
    25
100
AcDbPolyline
 90
        7
 70
     1
 43
0.0
 10
505.9641
 20
-88.0628
 10
505.4126
 20
-89.4803
 10
503.7678
 20
-89.4803
 10
502.9356
 20
-88.0628
 10
503.7678
 20
-86.6595
 10
505.4126
 20
-86.6595
 10
505.9641
 20
-88.0628
  0
LWPOLYLINE
  5
A7
330
1F
100
AcDbEntity
  8
Layer 1
 62
     7
370
    25
100
AcDbPolyline
 90
        7
 70
     1
 43
0.0
 10
583.9145
 20
-117.4658
 10
583.0824
 20
-118.8848
 10
581.4222
 20
-118.8848
 10
580.6096
 20
-117.4658
 10
581.4222
 20
-116.064
 10
583.0824
 20
-116.064
 10
583.9145
 20
-117.4658
  0
LWPOLYLINE
  5
A8
330
1F
100
AcDbEntity
  8
Layer 1
 62
     7
370
    25
100
AcDbPolyline
 90
        7
 70
     1
 43
0.0
 10
549.0862
 20
-131.902
 10
548.2526
 20
-133.3053
 10
546.6078
 20
-133.3053
 10
545.7813
 20
-131.902
 10
546.6078
 20
-130.4844
 10
548.2526
 20
-130.4844
 10
549.0862
 20
-131.902
  0
LWPOLYLINE
  5
A9
330
1F
100
AcDbEntity
  8
Layer 1
 62
     7
370
    25
100
AcDbPolyline
 90
        7
 70
     1
 43
0.0
 10
549.0862
 20
-102.7636
 10
548.2526
 20
-104.1826
 10
546.6078
 20
-104.1826
 10
545.7813
 20
-102.7636
 10
546.6078
 20
-101.3617
 10
548.2526
 20
-101.3617
 10
549.0862
 20
-102.7636
  0
LWPOLYLINE
  5
AA
330
1F
100
AcDbEntity
  8
Layer 1
 62
     7
370
    25
100
AcDbPolyline
 90
        7
 70
     1
 43
0.0
 10
549.0862
 20
-73.6437
 10
548.2526
 20
-75.0613
 10
546.6078
 20
-75.0613
 10
545.7813
 20
-73.6437
 10
546.6078
 20
-72.2261
 10
548.2526
 20
-72.2261
 10
549.0862
 20
-73.6437
  0
LWPOLYLINE
  5
AB
330
1F
100
AcDbEntity
  8
Layer 1
 62
     7
370
    25
100
AcDbPolyline
 90
        7
 70
     1
 43
0.0
 10
549.0862
 20
-44.5239
 10
548.2526
 20
-45.9415
 10
546.6078
 20
-45.9415
 10
545.7813
 20
-44.5239
 10
546.6078
 20
-43.1049
 10
548.2526
 20
-43.1049
 10
549.0862
 20
-44.5239
  0
LWPOLYLINE
  5
AC
330
1F
100
AcDbEntity
  8
Layer 1
 62
     7
370
    25
100
AcDbPolyline
 90
        7
 70
     1
 43
0.0
 10
549.0862
 20
-15.4026
 10
548.2526
 20
-16.8216
 10
546.6078
 20
-16.8216
 10
545.7813
 20
-15.4026
 10
546.6078
 20
-13.985
 10
548.2526
 20
-13.985
 10
549.0862
 20
-15.4026
  0
LWPOLYLINE
  5
AD
330
1F
100
AcDbEntity
  8
Layer 1
 62
     7
370
    25
100
AcDbPolyline
 90
        7
 70
     1
 43
0.0
 10
346.7582
 20
-91.184
 10
345.9261
 20
-92.5859
 10
344.2659
 20
-92.5859
 10
343.4533
 20
-91.184
 10
344.2659
 20
-89.4832
 10
345.9261
 20
-89.4832
 10
346.7582
 20
-91.184
  0
LWPOLYLINE
  5
AE
330
1F
100
AcDbEntity
  8
Layer 1
 62
     7
370
    25
100
AcDbPolyline
 90
        7
 70
     1
 43
0.0
 10
346.7582
 20
11.181
 10
345.9261
 20
9.7635
 10
344.2659
 20
9.7635
 10
343.4533
 20
11.181
 10
344.2659
 20
12.5986
 10
345.9261
 20
12.5986
 10
346.7582
 20
11.181
  0
LWPOLYLINE
  5
AF
330
1F
100
AcDbEntity
  8
Layer 1
 62
     7
370
    25
100
AcDbPolyline
 90
        7
 70
     1
 43
0.0
 10
407.0167
 20
-91.184
 10
406.1845
 20
-92.5859
 10
404.5243
 20
-92.5859
 10
403.9672
 20
-91.184
 10
404.5243
 20
-89.4832
 10
406.1845
 20
-89.4832
 10
407.0167
 20
-91.184
  0
LWPOLYLINE
  5
B0
330
1F
100
AcDbEntity
  8
Layer 1
 62
     7
370
    25
100
AcDbPolyline
 90
        7
 70
     1
 43
0.0
 10
407.0167
 20
-50.1813
 10
406.1845
 20
-51.5989
 10
404.5243
 20
-51.5989
 10
403.9672
 20
-50.1813
 10
404.5243
 20
-48.7623
 10
406.1845
 20
-48.7623
 10
407.0167
 20
-50.1813
  0
LWPOLYLINE
  5
B1
330
1F
100
AcDbEntity
  8
Layer 1
 62
     7
370
    25
100
AcDbPolyline
 90
        7
 70
     1
 43
0.0
 10
407.0167
 20
-9.1787
 10
406.1845
 20
-10.5963
 10
404.5243
 20
-10.5963
 10
403.9672
 20
-9.1787
 10
404.5243
 20
-7.7597
 10
406.1845
 20
-7.7597
 10
407.0167
 20
-9.1787
  0
LWPOLYLINE
  5
B2
330
1F
100
AcDbEntity
  8
Layer 1
 62
     7
370
    25
100
AcDbPolyline
 90
        7
 70
     1
 43
0.0
 10
346.7582
 20
-29.8216
 10
345.9261
 20
-31.2392
 10
344.2659
 20
-31.2392
 10
343.4533
 20
-29.8216
 10
344.2659
 20
-28.404
 10
345.9261
 20
-28.404
 10
346.7582
 20
-29.8216
  0
LWPOLYLINE
  5
B3
330
1F
100
AcDbEntity
  8
Layer 1
 62
     7
370
    25
100
AcDbPolyline
 90
        7
 70
     1
 43
0.0
 10
346.7582
 20
-70.5396
 10
345.9261
 20
-71.9587
 10
344.2659
 20
-71.9587
 10
343.4533
 20
-70.5396
 10
344.2659
 20
-69.1221
 10
345.9261
 20
-69.1221
 10
346.7582
 20
-70.5396
  0
LWPOLYLINE
  5
B4
330
1F
100
AcDbEntity
  8
Layer 1
 62
     7
370
    25
100
AcDbPolyline
 90
        7
 70
     1
 43
0.0
 10
346.7582
 20
-111.5423
 10
345.9261
 20
-112.9456
 10
344.2659
 20
-112.9456
 10
343.4533
 20
-111.5423
 10
344.2659
 20
-110.1247
 10
345.9261
 20
-110.1247
 10
346.7582
 20
-111.5423
  0
LWPOLYLINE
  5
B5
330
1F
100
AcDbEntity
  8
Layer 1
 62
     7
370
    25
100
AcDbPolyline
 90
        7
 70
     1
 43
0.0
 10
407.0167
 20
-111.5423
 10
406.1845
 20
-112.9456
 10
404.5243
 20
-112.9456
 10
403.9672
 20
-111.5423
 10
404.5243
 20
-110.1247
 10
406.1845
 20
-110.1247
 10
407.0167
 20
-111.5423
  0
LWPOLYLINE
  5
B6
330
1F
100
AcDbEntity
  8
Layer 1
 62
     7
370
    25
100
AcDbPolyline
 90
        7
 70
     1
 43
0.0
 10
407.0167
 20
-70.5396
 10
406.1845
 20
-71.9587
 10
404.5243
 20
-71.9587
 10
403.9672
 20
-70.5396
 10
404.5243
 20
-69.1221
 10
406.1845
 20
-69.1221
 10
407.0167
 20
-70.5396
  0
LWPOLYLINE
  5
B7
330
1F
100
AcDbEntity
  8
Layer 1
 62
     7
370
    25
100
AcDbPolyline
 90
        7
 70
     1
 43
0.0
 10
407.0167
 20
-29.8216
 10
406.1845
 20
-31.2392
 10
404.5243
 20
-31.2392
 10
403.9672
 20
-29.8216
 10
404.5243
 20
-28.404
 10
406.1845
 20
-28.404
 10
407.0167
 20
-29.8216
  0
LWPOLYLINE
  5
B8
330
1F
100
AcDbEntity
  8
Layer 1
 62
     7
370
    25
100
AcDbPolyline
 90
        7
 70
     1
 43
0.0
 10
407.0167
 20
11.181
 10
406.1845
 20
9.7635
 10
404.5243
 20
9.7635
 10
403.9672
 20
11.181
 10
404.5243
 20
12.5986
 10
406.1845
 20
12.5986
 10
407.0167
 20
11.181
  0
LWPOLYLINE
  5
B9
330
1F
100
AcDbEntity
  8
Layer 1
 62
     7
370
    25
100
AcDbPolyline
 90
        7
 70
     1
 43
0.0
 10
458.7062
 20
-91.184
 10
457.8741
 20
-92.5859
 10
456.2139
 20
-92.5859
 10
455.6582
 20
-91.184
 10
456.2139
 20
-89.4832
 10
457.8741
 20
-89.4832
 10
458.7062
 20
-91.184
  0
LWPOLYLINE
  5
BA
330
1F
100
AcDbEntity
  8
Layer 1
 62
     7
370
    25
100
AcDbPolyline
 90
        7
 70
     1
 43
0.0
 10
458.7062
 20
-50.1813
 10
457.8741
 20
-51.5989
 10
456.2139
 20
-51.5989
 10
455.6582
 20
-50.1813
 10
456.2139
 20
-48.7623
 10
457.8741
 20
-48.7623
 10
458.7062
 20
-50.1813
  0
LWPOLYLINE
  5
BB
330
1F
100
AcDbEntity
  8
Layer 1
 62
     7
370
    25
100
AcDbPolyline
 90
        7
 70
     1
 43
0.0
 10
346.7582
 20
-50.1813
 10
345.9261
 20
-51.5989
 10
344.2659
 20
-51.5989
 10
343.4533
 20
-50.1813
 10
344.2659
 20
-48.7623
 10
345.9261
 20
-48.7623
 10
346.7582
 20
-50.1813
  0
LWPOLYLINE
  5
BC
330
1F
100
AcDbEntity
  8
Layer 1
 62
     7
370
    25
100
AcDbPolyline
 90
        7
 70
     1
 43
0.0
 10
346.7582
 20
-9.1787
 10
345.9261
 20
-10.5963
 10
344.2659
 20
-10.5963
 10
343.4533
 20
-9.1787
 10
344.2659
 20
-7.7597
 10
345.9261
 20
-7.7597
 10
346.7582
 20
-9.1787
  0
LWPOLYLINE
  5
BD
330
1F
100
AcDbEntity
  8
Layer 1
 62
     7
370
    25
100
AcDbPolyline
 90
        7
 70
     1
 43
0.0
 10
917.8205
 20
-161.0233
 10
916.9884
 20
-162.4252
 10
915.3282
 20
-162.4252
 10
914.496
 20
-161.0233
 10
915.3282
 20
-159.6043
 10
916.9884
 20
-159.6043
 10
917.8205
 20
-161.0233
  0
LWPOLYLINE
  5
BE
330
1F
100
AcDbEntity
  8
Layer 1
 62
     7
370
    25
100
AcDbPolyline
 90
        7
 70
     1
 43
0.0
 10
917.8205
 20
-190.1431
 10
916.9884
 20
-191.5607
 10
915.3282
 20
-191.5607
 10
914.496
 20
-190.1431
 10
915.3282
 20
-188.7241
 10
916.9884
 20
-188.7241
 10
917.8205
 20
-190.1431
  0
LWPOLYLINE
  5
BF
330
1F
100
AcDbEntity
  8
Layer 1
 62
     7
370
    25
100
AcDbPolyline
 90
        7
 70
     1
 43
0.0
 10
917.8205
 20
-219.263
 10
916.9884
 20
-220.682
 10
915.3282
 20
-220.682
 10
914.496
 20
-219.263
 10
915.3282
 20
-217.8454
 10
916.9884
 20
-217.8454
 10
917.8205
 20
-219.263
  0
LWPOLYLINE
  5
C0
330
1F
100
AcDbEntity
  8
Layer 1
 62
     7
370
    25
100
AcDbPolyline
 90
        7
 70
     1
 43
0.0
 10
917.8205
 20
-248.3828
 10
916.9884
 20
-249.8019
 10
915.3282
 20
-249.8019
 10
914.496
 20
-248.3828
 10
915.3282
 20
-246.981
 10
916.9884
 20
-246.981
 10
917.8205
 20
-248.3828
  0
LWPOLYLINE
  5
C1
330
1F
100
AcDbEntity
  8
Layer 1
 62
     7
370
    25
100
AcDbPolyline
 90
        7
 70
     1
 43
0.0
 10
902.8987
 20
-274.1168
 10
902.0665
 20
-275.5344
 10
900.6814
 20
-275.5344
 10
899.8493
 20
-274.1168
 10
900.6814
 20
-272.6992
 10
902.0665
 20
-272.6992
 10
902.8987
 20
-274.1168
  0
LWPOLYLINE
  5
C2
330
1F
100
AcDbEntity
  8
Layer 1
 62
     7
370
    25
100
AcDbPolyline
 90
        7
 70
     1
 43
0.0
 10
947.3877
 20
-279.2064
 10
946.5556
 20
-280.9072
 10
944.9094
 20
-280.9072
 10
944.0828
 20
-279.2064
 10
944.9094
 20
-277.7888
 10
946.5556
 20
-277.7888
 10
947.3877
 20
-279.2064
  0
LWPOLYLINE
  5
C3
330
1F
100
AcDbEntity
  8
Layer 1
 62
     7
370
    25
100
AcDbPolyline
 90
        7
 70
     1
 43
0.0
 10
890.4524
 20
-233.9653
 10
889.6203
 20
-235.3828
 10
887.9601
 20
-235.3828
 10
887.1279
 20
-233.9653
 10
887.9601
 20
-232.5477
 10
889.6203
 20
-232.5477
 10
890.4524
 20
-233.9653
  0
LWPOLYLINE
  5
C4
330
1F
100
AcDbEntity
  8
Layer 1
 62
     7
370
    25
100
AcDbPolyline
 90
        7
 70
     1
 43
0.0
 10
890.4524
 20
-204.8454
 10
889.6203
 20
-206.263
 10
887.9601
 20
-206.263
 10
887.1279
 20
-204.8454
 10
887.9601
 20
-203.4264
 10
889.6203
 20
-203.4264
 10
890.4524
 20
-204.8454
  0
LWPOLYLINE
  5
C5
330
1F
100
AcDbEntity
  8
Layer 1
 62
     7
370
    25
100
AcDbPolyline
 90
        7
 70
     1
 43
0.0
 10
890.4524
 20
-175.7241
 10
889.6203
 20
-177.1417
 10
887.9601
 20
-177.1417
 10
887.1279
 20
-175.7241
 10
887.9601
 20
-174.3065
 10
889.6203
 20
-174.3065
 10
890.4524
 20
-175.7241
  0
LWPOLYLINE
  5
C6
330
1F
100
AcDbEntity
  8
Layer 1
 62
     7
370
    25
100
AcDbPolyline
 90
        7
 70
     1
 43
0.0
 10
885.2081
 20
-248.3828
 10
884.3745
 20
-249.8019
 10
882.7157
 20
-249.8019
 10
881.8822
 20
-248.3828
 10
882.7157
 20
-246.981
 10
884.3745
 20
-246.981
 10
885.2081
 20
-248.3828
  0
LWPOLYLINE
  5
C7
330
1F
100
AcDbEntity
  8
Layer 1
 62
     7
370
    25
100
AcDbPolyline
 90
        7
 70
     1
 43
0.0
 10
865.3002
 20
-131.902
 10
864.468
 20
-133.3053
 10
862.8079
 20
-133.3053
 10
861.9757
 20
-131.902
 10
862.8079
 20
-130.4844
 10
864.468
 20
-130.4844
 10
865.3002
 20
-131.902
  0
LWPOLYLINE
  5
C8
330
1F
100
AcDbEntity
  8
Layer 1
 62
     7
370
    25
100
AcDbPolyline
 90
        7
 70
     1
 43
0.0
 10
865.3002
 20
-161.0233
 10
864.468
 20
-162.4252
 10
862.8079
 20
-162.4252
 10
861.9757
 20
-161.0233
 10
862.8079
 20
-159.6043
 10
864.468
 20
-159.6043
 10
865.3002
 20
-161.0233
  0
LWPOLYLINE
  5
C9
330
1F
100
AcDbEntity
  8
Layer 1
 62
     7
370
    25
100
AcDbPolyline
 90
        7
 70
     1
 43
0.0
 10
890.4524
 20
-146.6043
 10
889.6203
 20
-148.0076
 10
887.9601
 20
-148.0076
 10
887.1279
 20
-146.6043
 10
887.9601
 20
-145.1867
 10
889.6203
 20
-145.1867
 10
890.4524
 20
-146.6043
  0
LWPOLYLINE
  5
CA
330
1F
100
AcDbEntity
  8
Layer 1
 62
     7
370
    25
100
AcDbPolyline
 90
        7
 70
     1
 43
0.0
 10
616.5284
 20
15.4195
 10
615.6962
 20
14.0019
 10
614.0514
 20
14.0019
 10
613.2234
 20
15.4195
 10
614.0514
 20
16.8385
 10
615.6962
 20
16.8385
 10
616.5284
 20
15.4195
  0
LWPOLYLINE
  5
CB
330
1F
100
AcDbEntity
  8
Layer 1
 62
     7
370
    25
100
AcDbPolyline
 90
        7
 70
     1
 43
0.0
 10
624.8194
 20
-4.6556
 10
623.9872
 20
-6.0732
 10
622.3424
 20
-6.0732
 10
621.5144
 20
-4.6556
 10
622.3424
 20
-3.238
 10
623.9872
 20
-3.238
 10
624.8194
 20
-4.6556
  0
LWPOLYLINE
  5
CC
330
1F
100
AcDbEntity
  8
Layer 1
 62
     7
370
    25
100
AcDbPolyline
 90
        7
 70
     1
 43
0.0
 10
636.4363
 20
-58.9415
 10
635.6027
 20
-60.3605
 10
633.9426
 20
-60.3605
 10
633.1104
 20
-58.9415
 10
633.9426
 20
-57.5239
 10
635.6027
 20
-57.5239
 10
636.4363
 20
-58.9415
  0
LWPOLYLINE
  5
CD
330
1F
100
AcDbEntity
  8
Layer 1
 62
     7
370
    25
100
AcDbPolyline
 90
        7
 70
     1
 43
0.0
 10
636.4363
 20
-88.0628
 10
635.6027
 20
-89.4803
 10
633.9426
 20
-89.4803
 10
633.1104
 20
-88.0628
 10
633.9426
 20
-86.6595
 10
635.6027
 20
-86.6595
 10
636.4363
 20
-88.0628
  0
LWPOLYLINE
  5
CE
330
1F
100
AcDbEntity
  8
Layer 1
 62
     7
370
    25
100
AcDbPolyline
 90
        7
 70
     1
 43
0.0
 10
636.4363
 20
-117.4658
 10
635.6027
 20
-118.8848
 10
633.9426
 20
-118.8848
 10
633.1104
 20
-117.4658
 10
633.9426
 20
-116.064
 10
635.6027
 20
-116.064
 10
636.4363
 20
-117.4658
  0
LWPOLYLINE
  5
CF
330
1F
100
AcDbEntity
  8
Layer 1
 62
     7
370
    25
100
AcDbPolyline
 90
        7
 70
     1
 43
0.0
 10
860.0544
 20
-263.653
 10
859.2223
 20
-265.0706
 10
857.5621
 20
-265.0706
 10
856.7299
 20
-263.653
 10
857.5621
 20
-262.2497
 10
859.2223
 20
-262.2497
 10
860.0544
 20
-263.653
  0
LWPOLYLINE
  5
D0
330
1F
100
AcDbEntity
  8
Layer 1
 62
     7
370
    25
100
AcDbPolyline
 90
        7
 70
     1
 43
0.0
 10
865.3002
 20
-219.263
 10
864.468
 20
-220.682
 10
862.8079
 20
-220.682
 10
861.9757
 20
-219.263
 10
862.8079
 20
-217.8454
 10
864.468
 20
-217.8454
 10
865.3002
 20
-219.263
  0
LWPOLYLINE
  5
D1
330
1F
100
AcDbEntity
  8
Layer 1
 62
     7
370
    25
100
AcDbPolyline
 90
        7
 70
     1
 43
0.0
 10
865.3002
 20
-190.1431
 10
864.468
 20
-191.5607
 10
862.8079
 20
-191.5607
 10
861.9757
 20
-190.1431
 10
862.8079
 20
-188.7241
 10
864.468
 20
-188.7241
 10
865.3002
 20
-190.1431
  0
LWPOLYLINE
  5
D2
330
1F
100
AcDbEntity
  8
Layer 1
 62
     7
370
    25
100
AcDbPolyline
 90
        7
 70
     1
 43
0.0
 10
641.6806
 20
15.4195
 10
640.8485
 20
14.0019
 10
639.2023
 20
14.0019
 10
638.3757
 20
15.4195
 10
639.2023
 20
16.8385
 10
640.8485
 20
16.8385
 10
641.6806
 20
15.4195
  0
LWPOLYLINE
  5
D3
330
1F
100
AcDbEntity
  8
Layer 1
 62
     7
370
    25
100
AcDbPolyline
 90
        7
 70
     1
 43
0.0
 10
638.9286
 20
-29.8216
 10
638.095
 20
-31.2392
 10
636.7113
 20
-31.2392
 10
635.8792
 20
-29.8216
 10
636.7113
 20
-28.404
 10
638.095
 20
-28.404
 10
638.9286
 20
-29.8216
  0
LWPOLYLINE
  5
D4
330
1F
100
AcDbEntity
  8
Layer 1
 62
     7
370
    25
100
AcDbPolyline
 90
        7
 70
     1
 43
0.0
 10
589.177
 20
-0.1339
 10
588.3449
 20
-1.5515
 10
586.6847
 20
-1.5515
 10
585.8525
 20
-0.1339
 10
586.6847
 20
1.2837
 10
588.3449
 20
1.2837
 10
589.177
 20
-0.1339
  0
LWPOLYLINE
  5
D5
330
1F
100
AcDbEntity
  8
Layer 1
 62
     7
370
    25
100
AcDbPolyline
 90
        7
 70
     1
 43
0.0
 10
583.9145
 20
-88.0628
 10
583.0824
 20
-89.4803
 10
581.4222
 20
-89.4803
 10
580.6096
 20
-88.0628
 10
581.4222
 20
-86.6595
 10
583.0824
 20
-86.6595
 10
583.9145
 20
-88.0628
  0
LWPOLYLINE
  5
D6
330
1F
100
AcDbEntity
  8
Layer 1
 62
     7
370
    25
100
AcDbPolyline
 90
        7
 70
     1
 43
0.0
 10
583.9145
 20
-58.9415
 10
583.0824
 20
-60.3605
 10
581.4222
 20
-60.3605
 10
580.6096
 20
-58.9415
 10
581.4222
 20
-57.5239
 10
583.0824
 20
-57.5239
 10
583.9145
 20
-58.9415
  0
LWPOLYLINE
  5
D7
330
1F
100
AcDbEntity
  8
Layer 1
 62
     7
370
    25
100
AcDbPolyline
 90
        7
 70
     1
 43
0.0
 10
583.9145
 20
-29.8216
 10
583.0824
 20
-31.2392
 10
581.4222
 20
-31.2392
 10
580.6096
 20
-29.8216
 10
581.4222
 20
-28.404
 10
583.0824
 20
-28.404
 10
583.9145
 20
-29.8216
  0
LWPOLYLINE
  5
D8
330
1F
100
AcDbEntity
  8
Layer 1
 62
     7
370
    25
100
AcDbPolyline
 90
        7
 70
     1
 43
0.0
 10
611.2826
 20
-131.902
 10
610.4505
 20
-133.3053
 10
608.7903
 20
-133.3053
 10
607.9581
 20
-131.902
 10
608.7903
 20
-130.4844
 10
610.4505
 20
-130.4844
 10
611.2826
 20
-131.902
  0
LWPOLYLINE
  5
D9
330
1F
100
AcDbEntity
  8
Layer 1
 62
     7
370
    25
100
AcDbPolyline
 90
        7
 70
     1
 43
0.0
 10
611.2826
 20
-102.7636
 10
610.4505
 20
-104.1826
 10
608.7903
 20
-104.1826
 10
607.9581
 20
-102.7636
 10
608.7903
 20
-101.3617
 10
610.4505
 20
-101.3617
 10
611.2826
 20
-102.7636
  0
LWPOLYLINE
  5
DA
330
1F
100
AcDbEntity
  8
Layer 1
 62
     7
370
    25
100
AcDbPolyline
 90
        7
 70
     1
 43
0.0
 10
611.2826
 20
-73.6437
 10
610.4505
 20
-75.0613
 10
608.7903
 20
-75.0613
 10
607.9581
 20
-73.6437
 10
608.7903
 20
-72.2261
 10
610.4505
 20
-72.2261
 10
611.2826
 20
-73.6437
  0
LWPOLYLINE
  5
DB
330
1F
100
AcDbEntity
  8
Layer 1
 62
     7
370
    25
100
AcDbPolyline
 90
        7
 70
     1
 43
0.0
 10
611.2826
 20
-44.5239
 10
610.4505
 20
-45.9415
 10
608.7903
 20
-45.9415
 10
607.9581
 20
-44.5239
 10
608.7903
 20
-43.1049
 10
610.4505
 20
-43.1049
 10
611.2826
 20
-44.5239
  0
LWPOLYLINE
  5
DC
330
1F
100
AcDbEntity
  8
Layer 1
 62
     7
370
    25
100
AcDbPolyline
 90
        7
 70
     1
 43
0.0
 10
952.6503
 20
-131.902
 10
951.8167
 20
-133.3053
 10
950.1579
 20
-133.3053
 10
949.3244
 20
-131.902
 10
950.1579
 20
-130.4844
 10
951.8167
 20
-130.4844
 10
952.6503
 20
-131.902
  0
LWPOLYLINE
  5
DD
330
1F
100
AcDbEntity
  8
Layer 1
 62
     7
370
    25
100
AcDbPolyline
 90
        7
 70
     1
 43
0.0
 10
952.6503
 20
-161.0233
 10
951.8167
 20
-162.4252
 10
950.1579
 20
-162.4252
 10
949.3244
 20
-161.0233
 10
950.1579
 20
-159.6043
 10
951.8167
 20
-159.6043
 10
952.6503
 20
-161.0233
  0
LWPOLYLINE
  5
DE
330
1F
100
AcDbEntity
  8
Layer 1
 62
     7
370
    25
100
AcDbPolyline
 90
        7
 70
     1
 43
0.0
 10
952.6503
 20
-190.1431
 10
951.8167
 20
-191.5607
 10
950.1579
 20
-191.5607
 10
949.3244
 20
-190.1431
 10
950.1579
 20
-188.7241
 10
951.8167
 20
-188.7241
 10
952.6503
 20
-190.1431
  0
LWPOLYLINE
  5
DF
330
1F
100
AcDbEntity
  8
Layer 1
 62
     7
370
    25
100
AcDbPolyline
 90
        7
 70
     1
 43
0.0
 10
952.6503
 20
-219.263
 10
951.8167
 20
-220.682
 10
950.1579
 20
-220.682
 10
949.3244
 20
-219.263
 10
950.1579
 20
-217.8454
 10
951.8167
 20
-217.8454
 10
952.6503
 20
-219.263
  0
LWPOLYLINE
  5
E0
330
1F
100
AcDbEntity
  8
Layer 1
 62
     7
370
    25
100
AcDbPolyline
 90
        7
 70
     1
 43
0.0
 10
952.6503
 20
-248.3828
 10
951.8167
 20
-249.8019
 10
950.1579
 20
-249.8019
 10
949.3244
 20
-248.3828
 10
950.1579
 20
-246.981
 10
951.8167
 20
-246.981
 10
952.6503
 20
-248.3828
  0
LWPOLYLINE
  5
E1
330
1F
100
AcDbEntity
  8
Layer 1
 62
     7
370
    25
100
AcDbPolyline
 90
        7
 70
     1
 43
0.0
 10
917.8205
 20
-146.6043
 10
916.9884
 20
-148.0076
 10
915.3282
 20
-148.0076
 10
914.496
 20
-146.6043
 10
915.3282
 20
-145.1867
 10
916.9884
 20
-145.1867
 10
917.8205
 20
-146.6043
  0
LWPOLYLINE
  5
E2
330
1F
100
AcDbEntity
  8
Layer 1
 62
     7
370
    25
100
AcDbPolyline
 90
        7
 70
     1
 43
0.0
 10
917.8205
 20
-175.7241
 10
916.9884
 20
-177.1417
 10
915.3282
 20
-177.1417
 10
914.496
 20
-175.7241
 10
915.3282
 20
-174.3065
 10
916.9884
 20
-174.3065
 10
917.8205
 20
-175.7241
  0
LWPOLYLINE
  5
E3
330
1F
100
AcDbEntity
  8
Layer 1
 62
     7
370
    25
100
AcDbPolyline
 90
        7
 70
     1
 43
0.0
 10
995.4945
 20
-146.6043
 10
994.661
 20
-148.0076
 10
993.0008
 20
-148.0076
 10
992.1686
 20
-146.6043
 10
993.0008
 20
-145.1867
 10
994.661
 20
-145.1867
 10
995.4945
 20
-146.6043
  0
LWPOLYLINE
  5
E4
330
1F
100
AcDbEntity
  8
Layer 1
 62
     7
370
    25
100
AcDbPolyline
 90
        7
 70
     1
 43
0.0
 10
995.4945
 20
-175.7241
 10
994.661
 20
-177.1417
 10
993.0008
 20
-177.1417
 10
992.1686
 20
-175.7241
 10
993.0008
 20
-174.3065
 10
994.661
 20
-174.3065
 10
995.4945
 20
-175.7241
  0
LWPOLYLINE
  5
E5
330
1F
100
AcDbEntity
  8
Layer 1
 62
     7
370
    25
100
AcDbPolyline
 90
        7
 70
     1
 43
0.0
 10
993.0008
 20
-279.2064
 10
992.1686
 20
-280.9072
 10
990.5085
 20
-280.9072
 10
989.6763
 20
-279.2064
 10
990.5085
 20
-277.7888
 10
992.1686
 20
-277.7888
 10
993.0008
 20
-279.2064
  0
LWPOLYLINE
  5
E6
330
1F
100
AcDbEntity
  8
Layer 1
 62
     7
370
    25
100
AcDbPolyline
 90
        7
 70
     1
 43
0.0
 10
995.4945
 20
-233.9653
 10
994.661
 20
-235.3828
 10
993.0008
 20
-235.3828
 10
992.1686
 20
-233.9653
 10
993.0008
 20
-232.5477
 10
994.661
 20
-232.5477
 10
995.4945
 20
-233.9653
  0
LWPOLYLINE
  5
E7
330
1F
100
AcDbEntity
  8
Layer 1
 62
     7
370
    25
100
AcDbPolyline
 90
        7
 70
     1
 43
0.0
 10
995.4945
 20
-204.8454
 10
994.661
 20
-206.263
 10
993.0008
 20
-206.263
 10
992.1686
 20
-204.8454
 10
993.0008
 20
-203.4264
 10
994.661
 20
-203.4264
 10
995.4945
 20
-204.8454
  0
LWPOLYLINE
  5
E8
330
1F
100
AcDbEntity
  8
Layer 1
 62
     7
370
    25
100
AcDbPolyline
 90
        7
 70
     1
 43
0.0
 10
917.8205
 20
-204.8454
 10
916.9884
 20
-206.263
 10
915.3282
 20
-206.263
 10
914.496
 20
-204.8454
 10
915.3282
 20
-203.4264
 10
916.9884
 20
-203.4264
 10
917.8205
 20
-204.8454
  0
LWPOLYLINE
  5
E9
330
1F
100
AcDbEntity
  8
Layer 1
 62
     7
370
    25
100
AcDbPolyline
 90
        7
 70
     1
 43
0.0
 10
917.8205
 20
-233.9653
 10
916.9884
 20
-235.3828
 10
915.3282
 20
-235.3828
 10
914.496
 20
-233.9653
 10
915.3282
 20
-232.5477
 10
916.9884
 20
-232.5477
 10
917.8205
 20
-233.9653
  0
LWPOLYLINE
  5
EA
330
1F
100
AcDbEntity
  8
Layer 1
 62
     7
370
    25
100
AcDbPolyline
 90
        7
 70
     1
 43
0.0
 10
912.558
 20
-263.653
 10
911.7454
 20
-265.0706
 10
910.0811
 20
-265.0706
 10
909.2531
 20
-263.653
 10
910.0811
 20
-262.2497
 10
911.7454
 20
-262.2497
 10
912.558
 20
-263.653
  0
LWPOLYLINE
  5
EB
330
1F
100
AcDbEntity
  8
Layer 1
 62
     7
370
    25
100
AcDbPolyline
 90
        7
 70
     1
 43
0.0
 10
890.4524
 20
-131.902
 10
889.6203
 20
-133.3053
 10
887.9601
 20
-133.3053
 10
887.1279
 20
-131.902
 10
887.9601
 20
-130.4844
 10
889.6203
 20
-130.4844
 10
890.4524
 20
-131.902
  0
LWPOLYLINE
  5
EC
330
1F
100
AcDbEntity
  8
Layer 1
 62
     7
370
    25
100
AcDbPolyline
 90
        7
 70
     1
 43
0.0
 10
890.4524
 20
-161.0233
 10
889.6203
 20
-162.4252
 10
887.9601
 20
-162.4252
 10
887.1279
 20
-161.0233
 10
887.9601
 20
-159.6043
 10
889.6203
 20
-159.6043
 10
890.4524
 20
-161.0233
  0
LWPOLYLINE
  5
ED
330
1F
100
AcDbEntity
  8
Layer 1
 62
     7
370
    25
100
AcDbPolyline
 90
        7
 70
     1
 43
0.0
 10
890.4524
 20
-190.1431
 10
889.6203
 20
-191.5607
 10
887.9601
 20
-191.5607
 10
887.1279
 20
-190.1431
 10
887.9601
 20
-188.7241
 10
889.6203
 20
-188.7241
 10
890.4524
 20
-190.1431
  0
LWPOLYLINE
  5
EE
330
1F
100
AcDbEntity
  8
Layer 1
 62
     7
370
    25
100
AcDbPolyline
 90
        7
 70
     1
 43
0.0
 10
890.4524
 20
-219.263
 10
889.6203
 20
-220.682
 10
887.9601
 20
-220.682
 10
887.1279
 20
-219.263
 10
887.9601
 20
-217.8454
 10
889.6203
 20
-217.8454
 10
890.4524
 20
-219.263
  0
LWPOLYLINE
  5
EF
330
1F
100
AcDbEntity
  8
Layer 1
 62
     7
370
    25
100
AcDbPolyline
 90
        7
 70
     1
 43
0.0
 10
876.9157
 20
-259.1313
 10
876.0835
 20
-260.5489
 10
874.4233
 20
-260.5489
 10
873.5912
 20
-259.1313
 10
874.4233
 20
-257.7123
 10
876.0835
 20
-257.7123
 10
876.9157
 20
-259.1313
  0
LWPOLYLINE
  5
F0
330
1F
100
AcDbEntity
  8
Layer 1
 62
     7
370
    25
100
AcDbPolyline
 90
        7
 70
     1
 43
0.0
 10
885.2081
 20
-279.2064
 10
884.3745
 20
-280.9072
 10
882.7157
 20
-280.9072
 10
881.8822
 20
-279.2064
 10
882.7157
 20
-277.7888
 10
884.3745
 20
-277.7888
 10
885.2081
 20
-279.2064
  0
LWPOLYLINE
  5
F1
330
1F
100
AcDbEntity
  8
Layer 1
 62
     7
370
    25
100
AcDbPolyline
 90
        7
 70
     1
 43
0.0
 10
1154.9782
 20
-213.6055
 10
1154.1447
 20
-215.0245
 10
1152.4859
 20
-215.0245
 10
1151.6523
 20
-213.6055
 10
1152.4859
 20
-212.2037
 10
1154.1447
 20
-212.2037
 10
1154.9782
 20
-213.6055
  0
LWPOLYLINE
  5
F2
330
1F
100
AcDbEntity
  8
Layer 1
 62
     7
370
    25
100
AcDbPolyline
 90
        7
 70
     1
 43
0.0
 10
1154.9782
 20
-254.6082
 10
1154.1447
 20
-256.0258
 10
1152.4859
 20
-256.0258
 10
1151.6523
 20
-254.6082
 10
1152.4859
 20
-253.1906
 10
1154.1447
 20
-253.1906
 10
1154.9782
 20
-254.6082
  0
LWPOLYLINE
  5
F3
330
1F
100
AcDbEntity
  8
Layer 1
 62
     7
370
    25
100
AcDbPolyline
 90
        7
 70
     1
 43
0.0
 10
1094.4419
 20
-152.2431
 10
1093.6098
 20
-153.6622
 10
1092.2247
 20
-153.6622
 10
1091.3925
 20
-152.2431
 10
1092.2247
 20
-150.8413
 10
1093.6098
 20
-150.8413
 10
1094.4419
 20
-152.2431
  0
LWPOLYLINE
  5
F4
330
1F
100
AcDbEntity
  8
Layer 1
 62
     7
370
    25
100
AcDbPolyline
 90
        7
 70
     1
 43
0.0
 10
1094.4419
 20
-193.2472
 10
1093.6098
 20
-194.6648
 10
1092.2247
 20
-194.6648
 10
1091.3925
 20
-193.2472
 10
1092.2247
 20
-191.844
 10
1093.6098
 20
-191.844
 10
1094.4419
 20
-193.2472
  0
LWPOLYLINE
  5
F5
330
1F
100
AcDbEntity
  8
Layer 1
 62
     7
370
    25
100
AcDbPolyline
 90
        7
 70
     1
 43
0.0
 10
1094.4419
 20
-234.2485
 10
1093.6098
 20
-235.6675
 10
1092.2247
 20
-235.6675
 10
1091.3925
 20
-234.2485
 10
1092.2247
 20
-232.5491
 10
1093.6098
 20
-232.5491
 10
1094.4419
 20
-234.2485
  0
LWPOLYLINE
  5
F6
330
1F
100
AcDbEntity
  8
Layer 1
 62
     7
370
    25
100
AcDbPolyline
 90
        7
 70
     1
 43
0.0
 10
1094.4419
 20
-274.9679
 10
1093.6098
 20
-276.3855
 10
1092.2247
 20
-276.3855
 10
1091.3925
 20
-274.9679
 10
1092.2247
 20
-273.5503
 10
1093.6098
 20
-273.5503
 10
1094.4419
 20
-274.9679
  0
LWPOLYLINE
  5
F7
330
1F
100
AcDbEntity
  8
Layer 1
 62
     7
370
    25
100
AcDbPolyline
 90
        7
 70
     1
 43
0.0
 10
1154.9782
 20
-172.8875
 10
1154.1447
 20
-174.3051
 10
1152.4859
 20
-174.3051
 10
1151.6523
 20
-172.8875
 10
1152.4859
 20
-171.4842
 10
1154.1447
 20
-171.4842
 10
1154.9782
 20
-172.8875
  0
LWPOLYLINE
  5
F8
330
1F
100
AcDbEntity
  8
Layer 1
 62
     7
370
    25
100
AcDbPolyline
 90
        7
 70
     1
 43
0.0
 10
1042.7524
 20
-254.6082
 10
1041.9202
 20
-256.0258
 10
1040.5351
 20
-256.0258
 10
1039.7085
 20
-254.6082
 10
1040.5351
 20
-253.1906
 10
1041.9202
 20
-253.1906
 10
1042.7524
 20
-254.6082
  0
LWPOLYLINE
  5
F9
330
1F
100
AcDbEntity
  8
Layer 1
 62
     7
370
    25
100
AcDbPolyline
 90
        7
 70
     1
 43
0.0
 10
995.4945
 20
-263.653
 10
994.661
 20
-265.0706
 10
993.0008
 20
-265.0706
 10
992.1686
 20
-263.653
 10
993.0008
 20
-262.2497
 10
994.661
 20
-262.2497
 10
995.4945
 20
-263.653
  0
LWPOLYLINE
  5
FA
330
1F
100
AcDbEntity
  8
Layer 1
 62
     7
370
    25
100
AcDbPolyline
 90
        7
 70
     1
 43
0.0
 10
1042.7524
 20
-213.6055
 10
1041.9202
 20
-215.0245
 10
1040.5351
 20
-215.0245
 10
1039.7085
 20
-213.6055
 10
1040.5351
 20
-212.2037
 10
1041.9202
 20
-212.2037
 10
1042.7524
 20
-213.6055
  0
LWPOLYLINE
  5
FB
330
1F
100
AcDbEntity
  8
Layer 1
 62
     7
370
    25
100
AcDbPolyline
 90
        7
 70
     1
 43
0.0
 10
1042.7524
 20
-172.8875
 10
1041.9202
 20
-174.3051
 10
1040.5351
 20
-174.3051
 10
1039.7085
 20
-172.8875
 10
1040.5351
 20
-171.4842
 10
1041.9202
 20
-171.4842
 10
1042.7524
 20
-172.8875
  0
LWPOLYLINE
  5
FC
330
1F
100
AcDbEntity
  8
Layer 1
 62
     7
370
    25
100
AcDbPolyline
 90
        7
 70
     1
 43
0.0
 10
505.9641
 20
-131.902
 10
505.4126
 20
-133.3053
 10
503.7678
 20
-133.3053
 10
502.9356
 20
-131.902
 10
503.7678
 20
-130.4844
 10
505.4126
 20
-130.4844
 10
505.9641
 20
-131.902
  0
LWPOLYLINE
  5
FD
330
1F
100
AcDbEntity
  8
Layer 1
 62
     7
370
    25
100
AcDbPolyline
 90
        7
 70
     1
 43
0.0
 10
505.9641
 20
-102.7636
 10
505.4126
 20
-104.1826
 10
503.7678
 20
-104.1826
 10
502.9356
 20
-102.7636
 10
503.7678
 20
-101.3617
 10
505.4126
 20
-101.3617
 10
505.9641
 20
-102.7636
  0
LWPOLYLINE
  5
FE
330
1F
100
AcDbEntity
  8
Layer 1
 62
     7
370
    25
100
AcDbPolyline
 90
        7
 70
     1
 43
0.0
 10
505.9641
 20
-73.6437
 10
505.4126
 20
-75.0613
 10
503.7678
 20
-75.0613
 10
502.9356
 20
-73.6437
 10
503.7678
 20
-72.2261
 10
505.4126
 20
-72.2261
 10
505.9641
 20
-73.6437
  0
LWPOLYLINE
  5
FF
330
1F
100
AcDbEntity
  8
Layer 1
 62
     7
370
    25
100
AcDbPolyline
 90
        7
 70
     1
 43
0.0
 10
505.9641
 20
-44.5239
 10
505.4126
 20
-45.9415
 10
503.7678
 20
-45.9415
 10
502.9356
 20
-44.5239
 10
503.7678
 20
-43.1049
 10
505.4126
 20
-43.1049
 10
505.9641
 20
-44.5239
  0
LWPOLYLINE
  5
100
330
1F
100
AcDbEntity
  8
Layer 1
 62
     7
370
    25
100
AcDbPolyline
 90
        7
 70
     1
 43
0.0
 10
549.0862
 20
-88.0628
 10
548.2526
 20
-89.4803
 10
546.6078
 20
-89.4803
 10
545.7813
 20
-88.0628
 10
546.6078
 20
-86.6595
 10
548.2526
 20
-86.6595
 10
549.0862
 20
-88.0628
  0
LWPOLYLINE
  5
101
330
1F
100
AcDbEntity
  8
Layer 1
 62
     7
370
    25
100
AcDbPolyline
 90
        7
 70
     1
 43
0.0
 10
549.0862
 20
-58.9415
 10
548.2526
 20
-60.3605
 10
546.6078
 20
-60.3605
 10
545.7813
 20
-58.9415
 10
546.6078
 20
-57.5239
 10
548.2526
 20
-57.5239
 10
549.0862
 20
-58.9415
  0
LWPOLYLINE
  5
102
330
1F
100
AcDbEntity
  8
Layer 1
 62
     7
370
    25
100
AcDbPolyline
 90
        7
 70
     1
 43
0.0
 10
549.0862
 20
-29.8216
 10
548.2526
 20
-31.2392
 10
546.6078
 20
-31.2392
 10
545.7813
 20
-29.8216
 10
546.6078
 20
-28.404
 10
548.2526
 20
-28.404
 10
549.0862
 20
-29.8216
  0
LWPOLYLINE
  5
103
330
1F
100
AcDbEntity
  8
Layer 1
 62
     7
370
    25
100
AcDbPolyline
 90
        7
 70
     1
 43
0.0
 10
505.9641
 20
-15.4026
 10
505.4126
 20
-16.8216
 10
503.7678
 20
-16.8216
 10
502.9356
 20
-15.4026
 10
503.7678
 20
-13.985
 10
505.4126
 20
-13.985
 10
505.9641
 20
-15.4026
  0
LWPOLYLINE
  5
104
330
1F
100
AcDbEntity
  8
Layer 1
 62
     7
370
    25
100
AcDbPolyline
 90
        7
 70
     1
 43
0.0
 10
549.0862
 20
-0.1339
 10
548.2526
 20
-1.5515
 10
546.6078
 20
-1.5515
 10
545.7813
 20
-0.1339
 10
546.6078
 20
1.2837
 10
548.2526
 20
1.2837
 10
549.0862
 20
-0.1339
  0
LWPOLYLINE
  5
105
330
1F
100
AcDbEntity
  8
Layer 1
 62
     7
370
    25
100
AcDbPolyline
 90
        7
 70
     1
 43
0.0
 10
549.0862
 20
-117.4658
 10
548.2526
 20
-118.8848
 10
546.6078
 20
-118.8848
 10
545.7813
 20
-117.4658
 10
546.6078
 20
-116.064
 10
548.2526
 20
-116.064
 10
549.0862
 20
-117.4658
  0
LWPOLYLINE
  5
106
330
1F
100
AcDbEntity
  8
Layer 1
 62
     7
370
    25
100
AcDbPolyline
 90
        7
 70
     1
 43
0.0
 10
458.7062
 20
-111.5423
 10
457.8741
 20
-112.9456
 10
456.2139
 20
-112.9456
 10
455.6582
 20
-111.5423
 10
456.2139
 20
-110.1247
 10
457.8741
 20
-110.1247
 10
458.7062
 20
-111.5423
  0
LWPOLYLINE
  5
107
330
1F
100
AcDbEntity
  8
Layer 1
 62
     7
370
    25
100
AcDbPolyline
 90
        7
 70
     1
 43
0.0
 10
458.7062
 20
-70.5396
 10
457.8741
 20
-71.9587
 10
456.2139
 20
-71.9587
 10
455.6582
 20
-70.5396
 10
456.2139
 20
-69.1221
 10
457.8741
 20
-69.1221
 10
458.7062
 20
-70.5396
  0
LWPOLYLINE
  5
108
330
1F
100
AcDbEntity
  8
Layer 1
 62
     7
370
    25
100
AcDbPolyline
 90
        7
 70
     1
 43
0.0
 10
458.7062
 20
-29.8216
 10
457.8741
 20
-31.2392
 10
456.2139
 20
-31.2392
 10
455.6582
 20
-29.8216
 10
456.2139
 20
-28.404
 10
457.8741
 20
-28.404
 10
458.7062
 20
-29.8216
  0
LWPOLYLINE
  5
109
330
1F
100
AcDbEntity
  8
Layer 1
 62
     7
370
    25
100
AcDbPolyline
 90
        7
 70
     1
 43
0.0
 10
458.7062
 20
11.181
 10
457.8741
 20
9.7635
 10
456.2139
 20
9.7635
 10
455.6582
 20
11.181
 10
456.2139
 20
12.5986
 10
457.8741
 20
12.5986
 10
458.7062
 20
11.181
  0
LWPOLYLINE
  5
10A
330
1F
100
AcDbEntity
  8
Layer 1
 62
     7
370
    25
100
AcDbPolyline
 90
        7
 70
     1
 43
0.0
 10
636.4363
 20
-102.7636
 10
635.6027
 20
-104.1826
 10
633.9426
 20
-104.1826
 10
633.1104
 20
-102.7636
 10
633.9426
 20
-101.3617
 10
635.6027
 20
-101.3617
 10
636.4363
 20
-102.7636
  0
LWPOLYLINE
  5
10B
330
1F
100
AcDbEntity
  8
Layer 1
 62
     7
370
    25
100
AcDbPolyline
 90
        7
 70
     1
 43
0.0
 10
636.4363
 20
-73.6437
 10
635.6027
 20
-75.0613
 10
633.9426
 20
-75.0613
 10
633.1104
 20
-73.6437
 10
633.9426
 20
-72.2261
 10
635.6027
 20
-72.2261
 10
636.4363
 20
-73.6437
  0
LWPOLYLINE
  5
10C
330
1F
100
AcDbEntity
  8
Layer 1
 62
     7
370
    25
100
AcDbPolyline
 90
        7
 70
     1
 43
0.0
 10
636.4363
 20
-44.5239
 10
635.6027
 20
-45.9415
 10
633.9426
 20
-45.9415
 10
633.1104
 20
-44.5239
 10
633.9426
 20
-43.1049
 10
635.6027
 20
-43.1049
 10
636.4363
 20
-44.5239
  0
LWPOLYLINE
  5
10D
330
1F
100
AcDbEntity
  8
Layer 1
 62
     7
370
    25
100
AcDbPolyline
 90
        7
 70
     1
 43
0.0
 10
636.4363
 20
-131.902
 10
635.6027
 20
-133.3053
 10
633.9426
 20
-133.3053
 10
633.1104
 20
-131.902
 10
633.9426
 20
-130.4844
 10
635.6027
 20
-130.4844
 10
636.4363
 20
-131.902
  0
LWPOLYLINE
  5
10E
330
1F
100
AcDbEntity
  8
Layer 1
 62
     7
370
    25
100
AcDbPolyline
 90
        7
 70
     1
 43
0.0
 10
865.3002
 20
-146.6043
 10
864.468
 20
-148.0076
 10
862.8079
 20
-148.0076
 10
861.9757
 20
-146.6043
 10
862.8079
 20
-145.1867
 10
864.468
 20
-145.1867
 10
865.3002
 20
-146.6043
  0
LWPOLYLINE
  5
10F
330
1F
100
AcDbEntity
  8
Layer 1
 62
     7
370
    25
100
AcDbPolyline
 90
        7
 70
     1
 43
0.0
 10
865.3002
 20
-175.7241
 10
864.468
 20
-177.1417
 10
862.8079
 20
-177.1417
 10
861.9757
 20
-175.7241
 10
862.8079
 20
-174.3065
 10
864.468
 20
-174.3065
 10
865.3002
 20
-175.7241
  0
LWPOLYLINE
  5
110
330
1F
100
AcDbEntity
  8
Layer 1
 62
     7
370
    25
100
AcDbPolyline
 90
        7
 70
     1
 43
0.0
 10
865.3002
 20
-204.8454
 10
864.468
 20
-206.263
 10
862.8079
 20
-206.263
 10
861.9757
 20
-204.8454
 10
862.8079
 20
-203.4264
 10
864.468
 20
-203.4264
 10
865.3002
 20
-204.8454
  0
LWPOLYLINE
  5
111
330
1F
100
AcDbEntity
  8
Layer 1
 62
     7
370
    25
100
AcDbPolyline
 90
        7
 70
     1
 43
0.0
 10
641.6806
 20
-0.1339
 10
640.8485
 20
-1.5515
 10
639.2023
 20
-1.5515
 10
638.3757
 20
-0.1339
 10
639.2023
 20
1.2837
 10
640.8485
 20
1.2837
 10
641.6806
 20
-0.1339
  0
LWPOLYLINE
  5
112
330
1F
100
AcDbEntity
  8
Layer 1
 62
     7
370
    25
100
AcDbPolyline
 90
        7
 70
     1
 43
0.0
 10
860.0544
 20
-279.2064
 10
859.2223
 20
-280.9072
 10
857.5621
 20
-280.9072
 10
856.7299
 20
-279.2064
 10
857.5621
 20
-277.7888
 10
859.2223
 20
-277.7888
 10
860.0544
 20
-279.2064
  0
LWPOLYLINE
  5
113
330
1F
100
AcDbEntity
  8
Layer 1
 62
     7
370
    25
100
AcDbPolyline
 90
        7
 70
     1
 43
0.0
 10
862.53
 20
-233.9653
 10
861.6978
 20
-235.3828
 10
860.3337
 20
-235.3828
 10
859.5015
 20
-233.9653
 10
860.3337
 20
-232.5477
 10
861.6978
 20
-232.5477
 10
862.53
 20
-233.9653
  0
LWPOLYLINE
  5
114
330
1F
100
AcDbEntity
  8
Layer 1
 62
     7
370
    25
100
AcDbPolyline
 90
        7
 70
     1
 43
0.0
 10
583.9145
 20
-15.4026
 10
583.0824
 20
-16.8216
 10
581.4222
 20
-16.8216
 10
580.6096
 20
-15.4026
 10
581.4222
 20
-13.985
 10
583.0824
 20
-13.985
 10
583.9145
 20
-15.4026
  0
LWPOLYLINE
  5
115
330
1F
100
AcDbEntity
  8
Layer 1
 62
     7
370
    25
100
AcDbPolyline
 90
        7
 70
     1
 43
0.0
 10
598.5599
 20
10.0467
 10
597.7473
 20
8.6277
 10
596.0816
 20
8.6277
 10
595.53
 20
10.0467
 10
596.0816
 20
11.4643
 10
597.7473
 20
11.4643
 10
598.5599
 20
10.0467
  0
LWPOLYLINE
  5
116
330
1F
100
AcDbEntity
  8
Layer 1
 62
     7
370
    25
100
AcDbPolyline
 90
        7
 70
     1
 43
0.0
 10
611.2826
 20
-117.4658
 10
610.4505
 20
-118.8848
 10
608.7903
 20
-118.8848
 10
607.9581
 20
-117.4658
 10
608.7903
 20
-116.064
 10
610.4505
 20
-116.064
 10
611.2826
 20
-117.4658
  0
LWPOLYLINE
  5
117
330
1F
100
AcDbEntity
  8
Layer 1
 62
     7
370
    25
100
AcDbPolyline
 90
        7
 70
     1
 43
0.0
 10
554.3473
 20
15.4195
 10
553.5151
 20
14.0019
 10
551.855
 20
14.0019
 10
551.0228
 20
15.4195
 10
551.855
 20
16.8385
 10
553.5151
 20
16.8385
 10
554.3473
 20
15.4195
  0
LWPOLYLINE
  5
118
330
1F
100
AcDbEntity
  8
Layer 1
 62
     7
370
    25
100
AcDbPolyline
 90
        7
 70
     1
 43
0.0
 10
583.9145
 20
-102.7636
 10
583.0824
 20
-104.1826
 10
581.4222
 20
-104.1826
 10
580.6096
 20
-102.7636
 10
581.4222
 20
-101.3617
 10
583.0824
 20
-101.3617
 10
583.9145
 20
-102.7636
  0
LWPOLYLINE
  5
119
330
1F
100
AcDbEntity
  8
Layer 1
 62
     7
370
    25
100
AcDbPolyline
 90
        7
 70
     1
 43
0.0
 10
583.9145
 20
-73.6437
 10
583.0824
 20
-75.0613
 10
581.4222
 20
-75.0613
 10
580.6096
 20
-73.6437
 10
581.4222
 20
-72.2261
 10
583.0824
 20
-72.2261
 10
583.9145
 20
-73.6437
  0
LWPOLYLINE
  5
11A
330
1F
100
AcDbEntity
  8
Layer 1
 62
     7
370
    25
100
AcDbPolyline
 90
        7
 70
     1
 43
0.0
 10
583.9145
 20
-44.5239
 10
583.0824
 20
-45.9415
 10
581.4222
 20
-45.9415
 10
580.6096
 20
-44.5239
 10
581.4222
 20
-43.1049
 10
583.0824
 20
-43.1049
 10
583.9145
 20
-44.5239
  0
LWPOLYLINE
  5
11B
330
1F
100
AcDbEntity
  8
Layer 1
 62
     7
370
    25
100
AcDbPolyline
 90
        7
 70
     1
 43
0.0
 10
616.5284
 20
-15.4026
 10
615.6962
 20
-16.8216
 10
614.0514
 20
-16.8216
 10
613.2234
 20
-15.4026
 10
614.0514
 20
-13.985
 10
615.6962
 20
-13.985
 10
616.5284
 20
-15.4026
  0
LWPOLYLINE
  5
11C
330
1F
100
AcDbEntity
  8
Layer 1
 62
     7
370
    25
100
AcDbPolyline
 90
        7
 70
     1
 43
0.0
 10
611.2826
 20
-88.0628
 10
610.4505
 20
-89.4803
 10
608.7903
 20
-89.4803
 10
607.9581
 20
-88.0628
 10
608.7903
 20
-86.6595
 10
610.4505
 20
-86.6595
 10
611.2826
 20
-88.0628
  0
LWPOLYLINE
  5
11D
330
1F
100
AcDbEntity
  8
Layer 1
 62
     7
370
    25
100
AcDbPolyline
 90
        7
 70
     1
 43
0.0
 10
611.2826
 20
-58.9415
 10
610.4505
 20
-60.3605
 10
608.7903
 20
-60.3605
 10
607.9581
 20
-58.9415
 10
608.7903
 20
-57.5239
 10
610.4505
 20
-57.5239
 10
611.2826
 20
-58.9415
  0
LWPOLYLINE
  5
11E
330
1F
100
AcDbEntity
  8
Layer 1
 62
     7
370
    25
100
AcDbPolyline
 90
        7
 70
     1
 43
0.0
 10
611.2826
 20
-29.8216
 10
610.4505
 20
-31.2392
 10
608.7903
 20
-31.2392
 10
607.9581
 20
-29.8216
 10
608.7903
 20
-28.404
 10
610.4505
 20
-28.404
 10
611.2826
 20
-29.8216
  0
LWPOLYLINE
  5
11F
330
1F
100
AcDbEntity
  8
Layer 1
 62
     7
370
    25
100
AcDbPolyline
 90
        7
 70
     1
 43
0.0
 10
1154.9782
 20
-274.9679
 10
1154.1447
 20
-276.3855
 10
1152.4859
 20
-276.3855
 10
1151.6523
 20
-274.9679
 10
1152.4859
 20
-273.5503
 10
1154.1447
 20
-273.5503
 10
1154.9782
 20
-274.9679
  0
LWPOLYLINE
  5
120
330
1F
100
AcDbEntity
  8
Layer 1
 62
     7
370
    25
100
AcDbPolyline
 90
        7
 70
     1
 43
0.0
 10
1154.9782
 20
-234.2485
 10
1154.1447
 20
-235.6675
 10
1152.4859
 20
-235.6675
 10
1151.6523
 20
-234.2485
 10
1152.4859
 20
-232.5491
 10
1154.1447
 20
-232.5491
 10
1154.9782
 20
-234.2485
  0
LWPOLYLINE
  5
121
330
1F
100
AcDbEntity
  8
Layer 1
 62
     7
370
    25
100
AcDbPolyline
 90
        7
 70
     1
 43
0.0
 10
1154.9782
 20
-193.2472
 10
1154.1447
 20
-194.6648
 10
1152.4859
 20
-194.6648
 10
1151.6523
 20
-193.2472
 10
1152.4859
 20
-191.844
 10
1154.1447
 20
-191.844
 10
1154.9782
 20
-193.2472
  0
LWPOLYLINE
  5
122
330
1F
100
AcDbEntity
  8
Layer 1
 62
     7
370
    25
100
AcDbPolyline
 90
        7
 70
     1
 43
0.0
 10
1154.9782
 20
-152.2431
 10
1154.1447
 20
-153.6622
 10
1152.4859
 20
-153.6622
 10
1151.6523
 20
-152.2431
 10
1152.4859
 20
-150.8413
 10
1154.1447
 20
-150.8413
 10
1154.9782
 20
-152.2431
  0
LWPOLYLINE
  5
123
330
1F
100
AcDbEntity
  8
Layer 1
 62
     7
370
    25
100
AcDbPolyline
 90
        7
 70
     1
 43
0.0
 10
995.4945
 20
-219.263
 10
994.661
 20
-220.682
 10
993.0008
 20
-220.682
 10
992.1686
 20
-219.263
 10
993.0008
 20
-217.8454
 10
994.661
 20
-217.8454
 10
995.4945
 20
-219.263
  0
LWPOLYLINE
  5
124
330
1F
100
AcDbEntity
  8
Layer 1
 62
     7
370
    25
100
AcDbPolyline
 90
        7
 70
     1
 43
0.0
 10
995.4945
 20
-248.3828
 10
994.661
 20
-249.8019
 10
993.0008
 20
-249.8019
 10
992.1686
 20
-248.3828
 10
993.0008
 20
-246.981
 10
994.661
 20
-246.981
 10
995.4945
 20
-248.3828
  0
LWPOLYLINE
  5
125
330
1F
100
AcDbEntity
  8
Layer 1
 62
     7
370
    25
100
AcDbPolyline
 90
        7
 70
     1
 43
0.0
 10
952.6503
 20
-263.653
 10
951.8167
 20
-265.0706
 10
950.1579
 20
-265.0706
 10
949.3244
 20
-263.653
 10
950.1579
 20
-262.2497
 10
951.8167
 20
-262.2497
 10
952.6503
 20
-263.653
  0
LWPOLYLINE
  5
126
330
1F
100
AcDbEntity
  8
Layer 1
 62
     7
370
    25
100
AcDbPolyline
 90
        7
 70
     1
 43
0.0
 10
952.6503
 20
-146.6043
 10
951.8167
 20
-148.0076
 10
950.1579
 20
-148.0076
 10
949.3244
 20
-146.6043
 10
950.1579
 20
-145.1867
 10
951.8167
 20
-145.1867
 10
952.6503
 20
-146.6043
  0
LWPOLYLINE
  5
127
330
1F
100
AcDbEntity
  8
Layer 1
 62
     7
370
    25
100
AcDbPolyline
 90
        7
 70
     1
 43
0.0
 10
952.6503
 20
-175.7241
 10
951.8167
 20
-177.1417
 10
950.1579
 20
-177.1417
 10
949.3244
 20
-175.7241
 10
950.1579
 20
-174.3065
 10
951.8167
 20
-174.3065
 10
952.6503
 20
-175.7241
  0
LWPOLYLINE
  5
128
330
1F
100
AcDbEntity
  8
Layer 1
 62
     7
370
    25
100
AcDbPolyline
 90
        7
 70
     1
 43
0.0
 10
952.6503
 20
-204.8454
 10
951.8167
 20
-206.263
 10
950.1579
 20
-206.263
 10
949.3244
 20
-204.8454
 10
950.1579
 20
-203.4264
 10
951.8167
 20
-203.4264
 10
952.6503
 20
-204.8454
  0
LWPOLYLINE
  5
129
330
1F
100
AcDbEntity
  8
Layer 1
 62
     7
370
    25
100
AcDbPolyline
 90
        7
 70
     1
 43
0.0
 10
952.6503
 20
-233.9653
 10
951.8167
 20
-235.3828
 10
950.1579
 20
-235.3828
 10
949.3244
 20
-233.9653
 10
950.1579
 20
-232.5477
 10
951.8167
 20
-232.5477
 10
952.6503
 20
-233.9653
  0
LWPOLYLINE
  5
12A
330
1F
100
AcDbEntity
  8
Layer 1
 62
     7
370
    25
100
AcDbPolyline
 90
        7
 70
     1
 43
0.0
 10
995.4945
 20
-190.1431
 10
994.661
 20
-191.5607
 10
993.0008
 20
-191.5607
 10
992.1686
 20
-190.1431
 10
993.0008
 20
-188.7241
 10
994.661
 20
-188.7241
 10
995.4945
 20
-190.1431
  0
LWPOLYLINE
  5
12B
330
1F
100
AcDbEntity
  8
Layer 1
 62
     7
370
    25
100
AcDbPolyline
 90
        7
 70
     1
 43
0.0
 10
995.4945
 20
-161.0233
 10
994.661
 20
-162.4252
 10
993.0008
 20
-162.4252
 10
992.1686
 20
-161.0233
 10
993.0008
 20
-159.6043
 10
994.661
 20
-159.6043
 10
995.4945
 20
-161.0233
  0
LWPOLYLINE
  5
12C
330
1F
100
AcDbEntity
  8
Layer 1
 62
     7
370
    25
100
AcDbPolyline
 90
        7
 70
     1
 43
0.0
 10
995.4945
 20
-131.902
 10
994.661
 20
-133.3053
 10
993.0008
 20
-133.3053
 10
992.1686
 20
-131.902
 10
993.0008
 20
-130.4844
 10
994.661
 20
-130.4844
 10
995.4945
 20
-131.902
  0
LWPOLYLINE
  5
12D
330
1F
100
AcDbEntity
  8
Layer 1
 62
     7
370
    25
100
AcDbPolyline
 90
        7
 70
     1
 43
0.0
 10
1042.7524
 20
-274.9679
 10
1041.9202
 20
-276.3855
 10
1040.5351
 20
-276.3855
 10
1039.7085
 20
-274.9679
 10
1040.5351
 20
-273.5503
 10
1041.9202
 20
-273.5503
 10
1042.7524
 20
-274.9679
  0
LWPOLYLINE
  5
12E
330
1F
100
AcDbEntity
  8
Layer 1
 62
     7
370
    25
100
AcDbPolyline
 90
        7
 70
     1
 43
0.0
 10
1042.7524
 20
-234.2485
 10
1041.9202
 20
-235.6675
 10
1040.5351
 20
-235.6675
 10
1039.7085
 20
-234.2485
 10
1040.5351
 20
-232.5491
 10
1041.9202
 20
-232.5491
 10
1042.7524
 20
-234.2485
  0
LWPOLYLINE
  5
12F
330
1F
100
AcDbEntity
  8
Layer 1
 62
     7
370
    25
100
AcDbPolyline
 90
        7
 70
     1
 43
0.0
 10
1042.7524
 20
-193.2472
 10
1041.9202
 20
-194.6648
 10
1040.5351
 20
-194.6648
 10
1039.7085
 20
-193.2472
 10
1040.5351
 20
-191.844
 10
1041.9202
 20
-191.844
 10
1042.7524
 20
-193.2472
  0
LWPOLYLINE
  5
130
330
1F
100
AcDbEntity
  8
Layer 1
 62
     7
370
    25
100
AcDbPolyline
 90
        7
 70
     1
 43
0.0
 10
1042.7524
 20
-152.2431
 10
1041.9202
 20
-153.6622
 10
1040.5351
 20
-153.6622
 10
1039.7085
 20
-152.2431
 10
1040.5351
 20
-150.8413
 10
1041.9202
 20
-150.8413
 10
1042.7524
 20
-152.2431
  0
LWPOLYLINE
  5
131
330
1F
100
AcDbEntity
  8
Layer 1
 62
     7
370
    25
100
AcDbPolyline
 90
        7
 70
     1
 43
0.0
 10
1094.4419
 20
-254.6082
 10
1093.6098
 20
-256.0258
 10
1092.2247
 20
-256.0258
 10
1091.3925
 20
-254.6082
 10
1092.2247
 20
-253.1906
 10
1093.6098
 20
-253.1906
 10
1094.4419
 20
-254.6082
  0
LWPOLYLINE
  5
132
330
1F
100
AcDbEntity
  8
Layer 1
 62
     7
370
    25
100
AcDbPolyline
 90
        7
 70
     1
 43
0.0
 10
1094.4419
 20
-213.6055
 10
1093.6098
 20
-215.0245
 10
1092.2247
 20
-215.0245
 10
1091.3925
 20
-213.6055
 10
1092.2247
 20
-212.2037
 10
1093.6098
 20
-212.2037
 10
1094.4419
 20
-213.6055
  0
LWPOLYLINE
  5
133
330
1F
100
AcDbEntity
  8
Layer 1
 62
     7
370
    25
100
AcDbPolyline
 90
        7
 70
     1
 43
0.0
 10
1094.4419
 20
-172.8875
 10
1093.6098
 20
-174.3051
 10
1092.2247
 20
-174.3051
 10
1091.3925
 20
-172.8875
 10
1092.2247
 20
-171.4842
 10
1093.6098
 20
-171.4842
 10
1094.4419
 20
-172.8875
  0
LWPOLYLINE
  5
134
330
1F
100
AcDbEntity
  8
Layer 1
 62
   250
370
    25
100
AcDbPolyline
 90
        2
 70
     0
 43
0.0
 10
274.9011
 20
156.8003
 10
274.9011
 20
-420.869
  0
LWPOLYLINE
  5
135
330
1F
100
AcDbEntity
  8
Layer 1
 62
   250
370
    25
100
AcDbPolyline
 90
       11
 70
     0
 43
0.0
 10
1159.3918
 20
-491.5608
 10
1169.6222
 20
-489.8614
 10
1179.5775
 20
-486.7573
 10
1188.9758
 20
-482.2314
 10
1197.546
 20
-476.2907
 10
1205.0035
 20
-468.9338
 10
1211.3578
 20
-460.7387
 10
1216.6189
 20
-451.4079
 10
1220.4796
 20
-441.5119
 10
1222.6969
 20
-431.3328
 10
1223.529
 20
-420.59
  0
LWPOLYLINE
  5
136
330
1F
100
AcDbEntity
  8
Layer 1
 62
   250
370
    25
100
AcDbPolyline
 90
        2
 70
     0
 43
0.0
 10
1223.5276
 20
-420.5872
 10
1223.5276
 20
156.8003
  0
LWPOLYLINE
  5
137
330
1F
100
AcDbEntity
  8
Layer 1
 62
   250
370
    25
100
AcDbPolyline
 90
       11
 70
     0
 43
0.0
 10
1223.5276
 20
156.8003
 10
1222.6955
 20
167.5488
 10
1220.4782
 20
177.7279
 10
1216.6217
 20
187.6238
 10
1211.3564
 20
196.9547
 10
1205.0076
 20
205.1441
 10
1197.5446
 20
212.5067
 10
1188.9744
 20
218.4459
 10
1179.5761
 20
222.9676
 10
1169.6208
 20
226.0717
 10
1159.3904
 20
227.7725
  0
LWPOLYLINE
  5
138
330
1F
100
AcDbEntity
  8
Layer 1
 62
   250
370
    25
100
AcDbPolyline
 90
       10
 70
     0
 43
0.0
 10
1159.3918
 20
227.7754
 10
1068.4589
 20
234.2654
 10
977.2496
 20
239.0746
 10
886.0402
 20
242.4748
 10
794.8114
 20
243.878
 10
703.602
 20
243.878
 10
612.3927
 20
242.4748
 10
521.1791
 20
239.0746
 10
429.9544
 20
234.2654
 10
339.0216
 20
227.7754
  0
LWPOLYLINE
  5
139
330
1F
100
AcDbEntity
  8
Layer 1
 62
   250
370
    25
100
AcDbPolyline
 90
       11
 70
     0
 43
0.0
 10
339.0202
 20
227.7754
 10
328.7898
 20
226.0746
 10
318.8344
 20
222.9705
 10
309.4515
 20
218.4445
 10
300.8855
 20
212.5052
 10
293.4085
 20
205.1469
 10
286.7791
 20
196.9519
 10
281.8084
 20
187.621
 10
277.9324
 20
177.7251
 10
275.7305
 20
167.5473
 10
274.9025
 20
156.7989
  0
LWPOLYLINE
  5
13A
330
1F
100
AcDbEntity
  8
Layer 1
 62
     7
370
    25
100
AcDbPolyline
 90
       20
 70
     1
 43
0.0
 10
761.3667
 20
-131.902
 10
760.8152
 20
-127.9311
 10
758.8884
 20
-124.2577
 10
755.8445
 20
-121.4411
 10
752.2435
 20
-119.736
 10
748.1064
 20
-119.4527
 10
744.2304
 20
-120.5885
 10
740.9255
 20
-122.8386
 10
738.4275
 20
-125.9628
 10
737.3245
 20
-129.9137
 10
737.3245
 20
-133.8703
 10
738.4275
 20
-137.827
 10
740.9255
 20
-140.9454
 10
744.2304
 20
-143.2012
 10
748.1064
 20
-144.337
 10
752.2435
 20
-144.0495
 10
755.8445
 20
-142.3487
 10
758.8884
 20
-139.5278
 10
760.8152
 20
-135.8587
 10
761.3667
 20
-131.902
  0
LWPOLYLINE
  5
13B
330
1F
100
AcDbEntity
  8
Layer 1
 62
     7
370
    25
100
AcDbPolyline
 90
        7
 70
     1
 43
0.0
 10
1154.9782
 20
11.181
 10
1154.1447
 20
12.5986
 10
1152.4859
 20
12.5986
 10
1151.6523
 20
11.181
 10
1152.4859
 20
9.7635
 10
1154.1447
 20
9.7635
 10
1154.9782
 20
11.181
  0
LWPOLYLINE
  5
13C
330
1F
100
AcDbEntity
  8
Layer 1
 62
     7
370
    25
100
AcDbPolyline
 90
        7
 70
     1
 43
0.0
 10
1094.4419
 20
-50.1813
 10
1093.6098
 20
-48.7623
 10
1092.2247
 20
-48.7623
 10
1091.3925
 20
-50.1813
 10
1092.2247
 20
-51.5989
 10
1093.6098
 20
-51.5989
 10
1094.4419
 20
-50.1813
  0
LWPOLYLINE
  5
13D
330
1F
100
AcDbEntity
  8
Layer 1
 62
     7
370
    25
100
AcDbPolyline
 90
        7
 70
     1
 43
0.0
 10
1094.4419
 20
-70.5396
 10
1093.6098
 20
-69.1221
 10
1092.2247
 20
-69.1221
 10
1091.3925
 20
-70.5396
 10
1092.2247
 20
-71.9587
 10
1093.6098
 20
-71.9587
 10
1094.4419
 20
-70.5396
  0
LWPOLYLINE
  5
13E
330
1F
100
AcDbEntity
  8
Layer 1
 62
     7
370
    25
100
AcDbPolyline
 90
        7
 70
     1
 43
0.0
 10
1094.4419
 20
-91.184
 10
1093.6098
 20
-89.4832
 10
1092.2247
 20
-89.4832
 10
1091.3925
 20
-91.184
 10
1092.2247
 20
-92.5859
 10
1093.6098
 20
-92.5859
 10
1094.4419
 20
-91.184
  0
LWPOLYLINE
  5
13F
330
1F
100
AcDbEntity
  8
Layer 1
 62
     7
370
    25
100
AcDbPolyline
 90
        7
 70
     1
 43
0.0
 10
1094.4419
 20
-111.5423
 10
1093.6098
 20
-110.1247
 10
1092.2247
 20
-110.1247
 10
1091.3925
 20
-111.5423
 10
1092.2247
 20
-112.9456
 10
1093.6098
 20
-112.9456
 10
1094.4419
 20
-111.5423
  0
LWPOLYLINE
  5
140
330
1F
100
AcDbEntity
  8
Layer 1
 62
     7
370
    25
100
AcDbPolyline
 90
        7
 70
     1
 43
0.0
 10
1094.4419
 20
-131.902
 10
1093.6098
 20
-130.4844
 10
1092.2247
 20
-130.4844
 10
1091.3925
 20
-131.902
 10
1092.2247
 20
-133.3053
 10
1093.6098
 20
-133.3053
 10
1094.4419
 20
-131.902
  0
LWPOLYLINE
  5
141
330
1F
100
AcDbEntity
  8
Layer 1
 62
     7
370
    25
100
AcDbPolyline
 90
        7
 70
     1
 43
0.0
 10
995.4945
 20
-0.1339
 10
994.661
 20
1.2837
 10
993.0008
 20
1.2837
 10
992.1686
 20
-0.1339
 10
993.0008
 20
-1.5515
 10
994.661
 20
-1.5515
 10
995.4945
 20
-0.1339
  0
LWPOLYLINE
  5
142
330
1F
100
AcDbEntity
  8
Layer 1
 62
     7
370
    25
100
AcDbPolyline
 90
        7
 70
     1
 43
0.0
 10
952.6503
 20
-117.4658
 10
951.8167
 20
-116.064
 10
950.1579
 20
-116.064
 10
949.3244
 20
-117.4658
 10
950.1579
 20
-118.8848
 10
951.8167
 20
-118.8848
 10
952.6503
 20
-117.4658
  0
LWPOLYLINE
  5
143
330
1F
100
AcDbEntity
  8
Layer 1
 62
     7
370
    25
100
AcDbPolyline
 90
        7
 70
     1
 43
0.0
 10
952.6503
 20
-102.7636
 10
951.8167
 20
-101.3617
 10
950.1579
 20
-101.3617
 10
949.3244
 20
-102.7636
 10
950.1579
 20
-104.1826
 10
951.8167
 20
-104.1826
 10
952.6503
 20
-102.7636
  0
LWPOLYLINE
  5
144
330
1F
100
AcDbEntity
  8
Layer 1
 62
     7
370
    25
100
AcDbPolyline
 90
        7
 70
     1
 43
0.0
 10
952.6503
 20
-88.0628
 10
951.8167
 20
-86.6595
 10
950.1579
 20
-86.6595
 10
949.3244
 20
-88.0628
 10
950.1579
 20
-89.4803
 10
951.8167
 20
-89.4803
 10
952.6503
 20
-88.0628
  0
LWPOLYLINE
  5
145
330
1F
100
AcDbEntity
  8
Layer 1
 62
     7
370
    25
100
AcDbPolyline
 90
        7
 70
     1
 43
0.0
 10
952.6503
 20
-73.6437
 10
951.8167
 20
-72.2261
 10
950.1579
 20
-72.2261
 10
949.3244
 20
-73.6437
 10
950.1579
 20
-75.0613
 10
951.8167
 20
-75.0613
 10
952.6503
 20
-73.6437
  0
LWPOLYLINE
  5
146
330
1F
100
AcDbEntity
  8
Layer 1
 62
     7
370
    25
100
AcDbPolyline
 90
        7
 70
     1
 43
0.0
 10
993.0008
 20
15.4195
 10
992.1686
 20
16.8385
 10
990.5085
 20
16.8385
 10
989.6763
 20
15.4195
 10
990.5085
 20
14.0019
 10
992.1686
 20
14.0019
 10
993.0008
 20
15.4195
  0
LWPOLYLINE
  5
147
330
1F
100
AcDbEntity
  8
Layer 1
 62
     7
370
    25
100
AcDbPolyline
 90
        7
 70
     1
 43
0.0
 10
952.6503
 20
-15.4026
 10
951.8167
 20
-13.985
 10
950.1579
 20
-13.985
 10
949.3244
 20
-15.4026
 10
950.1579
 20
-16.8216
 10
951.8167
 20
-16.8216
 10
952.6503
 20
-15.4026
  0
LWPOLYLINE
  5
148
330
1F
100
AcDbEntity
  8
Layer 1
 62
     7
370
    25
100
AcDbPolyline
 90
        7
 70
     1
 43
0.0
 10
952.6503
 20
-29.8216
 10
951.8167
 20
-28.404
 10
950.1579
 20
-28.404
 10
949.3244
 20
-29.8216
 10
950.1579
 20
-31.2392
 10
951.8167
 20
-31.2392
 10
952.6503
 20
-29.8216
  0
LWPOLYLINE
  5
149
330
1F
100
AcDbEntity
  8
Layer 1
 62
     7
370
    25
100
AcDbPolyline
 90
        7
 70
     1
 43
0.0
 10
952.6503
 20
-44.5239
 10
951.8167
 20
-43.1049
 10
950.1579
 20
-43.1049
 10
949.3244
 20
-44.5239
 10
950.1579
 20
-45.9415
 10
951.8167
 20
-45.9415
 10
952.6503
 20
-44.5239
  0
LWPOLYLINE
  5
14A
330
1F
100
AcDbEntity
  8
Layer 1
 62
     7
370
    25
100
AcDbPolyline
 90
        7
 70
     1
 43
0.0
 10
952.6503
 20
-58.9415
 10
951.8167
 20
-57.5239
 10
950.1579
 20
-57.5239
 10
949.3244
 20
-58.9415
 10
950.1579
 20
-60.3605
 10
951.8167
 20
-60.3605
 10
952.6503
 20
-58.9415
  0
LWPOLYLINE
  5
14B
330
1F
100
AcDbEntity
  8
Layer 1
 62
     7
370
    25
100
AcDbPolyline
 90
        7
 70
     1
 43
0.0
 10
1094.4419
 20
-29.8216
 10
1093.6098
 20
-28.404
 10
1092.2247
 20
-28.404
 10
1091.3925
 20
-29.8216
 10
1092.2247
 20
-31.2392
 10
1093.6098
 20
-31.2392
 10
1094.4419
 20
-29.8216
  0
LWPOLYLINE
  5
14C
330
1F
100
AcDbEntity
  8
Layer 1
 62
     7
370
    25
100
AcDbPolyline
 90
        7
 70
     1
 43
0.0
 10
1094.4419
 20
-9.1787
 10
1093.6098
 20
-7.7597
 10
1092.2247
 20
-7.7597
 10
1091.3925
 20
-9.1787
 10
1092.2247
 20
-10.5963
 10
1093.6098
 20
-10.5963
 10
1094.4419
 20
-9.1787
  0
LWPOLYLINE
  5
14D
330
1F
100
AcDbEntity
  8
Layer 1
 62
     7
370
    25
100
AcDbPolyline
 90
        7
 70
     1
 43
0.0
 10
1094.4419
 20
11.181
 10
1093.6098
 20
12.5986
 10
1092.2247
 20
12.5986
 10
1091.3925
 20
11.181
 10
1092.2247
 20
9.7635
 10
1093.6098
 20
9.7635
 10
1094.4419
 20
11.181
  0
LWPOLYLINE
  5
14E
330
1F
100
AcDbEntity
  8
Layer 1
 62
     7
370
    25
100
AcDbPolyline
 90
        7
 70
     1
 43
0.0
 10
616.5284
 20
-248.3828
 10
615.6962
 20
-246.981
 10
614.0514
 20
-246.981
 10
613.2234
 20
-248.3828
 10
614.0514
 20
-249.8019
 10
615.6962
 20
-249.8019
 10
616.5284
 20
-248.3828
  0
LWPOLYLINE
  5
14F
330
1F
100
AcDbEntity
  8
Layer 1
 62
     7
370
    25
100
AcDbPolyline
 90
        7
 70
     1
 43
0.0
 10
636.4363
 20
-190.1431
 10
635.6027
 20
-188.7241
 10
633.9426
 20
-188.7241
 10
633.1104
 20
-190.1431
 10
633.9426
 20
-191.5607
 10
635.6027
 20
-191.5607
 10
636.4363
 20
-190.1431
  0
LWPOLYLINE
  5
150
330
1F
100
AcDbEntity
  8
Layer 1
 62
     7
370
    25
100
AcDbPolyline
 90
        7
 70
     1
 43
0.0
 10
636.4363
 20
-204.8454
 10
635.6027
 20
-203.4264
 10
633.9426
 20
-203.4264
 10
633.1104
 20
-204.8454
 10
633.9426
 20
-206.263
 10
635.6027
 20
-206.263
 10
636.4363
 20
-204.8454
  0
LWPOLYLINE
  5
151
330
1F
100
AcDbEntity
  8
Layer 1
 62
     7
370
    25
100
AcDbPolyline
 90
        7
 70
     1
 43
0.0
 10
636.4363
 20
-219.263
 10
635.6027
 20
-217.8454
 10
633.9426
 20
-217.8454
 10
633.1104
 20
-219.263
 10
633.9426
 20
-220.682
 10
635.6027
 20
-220.682
 10
636.4363
 20
-219.263
  0
LWPOLYLINE
  5
152
330
1F
100
AcDbEntity
  8
Layer 1
 62
     7
370
    25
100
AcDbPolyline
 90
        7
 70
     1
 43
0.0
 10
598.5599
 20
-274.1168
 10
597.7473
 20
-272.6992
 10
596.0816
 20
-272.6992
 10
595.53
 20
-274.1168
 10
596.0816
 20
-275.5344
 10
597.7473
 20
-275.5344
 10
598.5599
 20
-274.1168
  0
LWPOLYLINE
  5
153
330
1F
100
AcDbEntity
  8
Layer 1
 62
     7
370
    25
100
AcDbPolyline
 90
        7
 70
     1
 43
0.0
 10
860.0544
 20
-0.1339
 10
859.2223
 20
1.2837
 10
857.5621
 20
1.2837
 10
856.7299
 20
-0.1339
 10
857.5621
 20
-1.5515
 10
859.2223
 20
-1.5515
 10
860.0544
 20
-0.1339
  0
LWPOLYLINE
  5
154
330
1F
100
AcDbEntity
  8
Layer 1
 62
     7
370
    25
100
AcDbPolyline
 90
        7
 70
     1
 43
0.0
 10
865.3002
 20
-117.4658
 10
864.468
 20
-116.064
 10
862.8079
 20
-116.064
 10
861.9757
 20
-117.4658
 10
862.8079
 20
-118.8848
 10
864.468
 20
-118.8848
 10
865.3002
 20
-117.4658
  0
LWPOLYLINE
  5
155
330
1F
100
AcDbEntity
  8
Layer 1
 62
     7
370
    25
100
AcDbPolyline
 90
        7
 70
     1
 43
0.0
 10
636.4363
 20
-175.7241
 10
635.6027
 20
-174.3065
 10
633.9426
 20
-174.3065
 10
633.1104
 20
-175.7241
 10
633.9426
 20
-177.1417
 10
635.6027
 20
-177.1417
 10
636.4363
 20
-175.7241
  0
LWPOLYLINE
  5
156
330
1F
100
AcDbEntity
  8
Layer 1
 62
     7
370
    25
100
AcDbPolyline
 90
        7
 70
     1
 43
0.0
 10
636.4363
 20
-161.0233
 10
635.6027
 20
-159.6043
 10
633.9426
 20
-159.6043
 10
633.1104
 20
-161.0233
 10
633.9426
 20
-162.4252
 10
635.6027
 20
-162.4252
 10
636.4363
 20
-161.0233
  0
LWPOLYLINE
  5
157
330
1F
100
AcDbEntity
  8
Layer 1
 62
     7
370
    25
100
AcDbPolyline
 90
        7
 70
     1
 43
0.0
 10
636.4363
 20
-146.6043
 10
635.6027
 20
-145.1867
 10
633.9426
 20
-145.1867
 10
633.1104
 20
-146.6043
 10
633.9426
 20
-148.0076
 10
635.6027
 20
-148.0076
 10
636.4363
 20
-146.6043
  0
LWPOLYLINE
  5
158
330
1F
100
AcDbEntity
  8
Layer 1
 62
     7
370
    25
100
AcDbPolyline
 90
        7
 70
     1
 43
0.0
 10
641.6806
 20
-263.653
 10
640.8485
 20
-262.2497
 10
639.2023
 20
-262.2497
 10
638.3757
 20
-263.653
 10
639.2023
 20
-265.0706
 10
640.8485
 20
-265.0706
 10
641.6806
 20
-263.653
  0
LWPOLYLINE
  5
159
330
1F
100
AcDbEntity
  8
Layer 1
 62
     7
370
    25
100
AcDbPolyline
 90
        7
 70
     1
 43
0.0
 10
505.9641
 20
-204.8454
 10
505.4126
 20
-203.4264
 10
503.7678
 20
-203.4264
 10
502.9356
 20
-204.8454
 10
503.7678
 20
-206.263
 10
505.4126
 20
-206.263
 10
505.9641
 20
-204.8454
  0
LWPOLYLINE
  5
15A
330
1F
100
AcDbEntity
  8
Layer 1
 62
     7
370
    25
100
AcDbPolyline
 90
        7
 70
     1
 43
0.0
 10
505.9641
 20
-219.263
 10
505.4126
 20
-217.8454
 10
503.7678
 20
-217.8454
 10
502.9356
 20
-219.263
 10
503.7678
 20
-220.682
 10
505.4126
 20
-220.682
 10
505.9641
 20
-219.263
  0
LWPOLYLINE
  5
15B
330
1F
100
AcDbEntity
  8
Layer 1
 62
     7
370
    25
100
AcDbPolyline
 90
        7
 70
     1
 43
0.0
 10
505.9641
 20
-233.9653
 10
505.4126
 20
-232.5477
 10
503.7678
 20
-232.5477
 10
502.9356
 20
-233.9653
 10
503.7678
 20
-235.3828
 10
505.4126
 20
-235.3828
 10
505.9641
 20
-233.9653
  0
LWPOLYLINE
  5
15C
330
1F
100
AcDbEntity
  8
Layer 1
 62
     7
370
    25
100
AcDbPolyline
 90
        7
 70
     1
 43
0.0
 10
505.9641
 20
-248.3828
 10
505.4126
 20
-246.981
 10
503.7678
 20
-246.981
 10
502.9356
 20
-248.3828
 10
503.7678
 20
-249.8019
 10
505.4126
 20
-249.8019
 10
505.9641
 20
-248.3828
  0
LWPOLYLINE
  5
15D
330
1F
100
AcDbEntity
  8
Layer 1
 62
     7
370
    25
100
AcDbPolyline
 90
        7
 70
     1
 43
0.0
 10
458.7062
 20
-131.902
 10
457.8741
 20
-130.4844
 10
456.2139
 20
-130.4844
 10
455.6582
 20
-131.902
 10
456.2139
 20
-133.3053
 10
457.8741
 20
-133.3053
 10
458.7062
 20
-131.902
  0
LWPOLYLINE
  5
15E
330
1F
100
AcDbEntity
  8
Layer 1
 62
     7
370
    25
100
AcDbPolyline
 90
        7
 70
     1
 43
0.0
 10
458.7062
 20
-152.2431
 10
457.8741
 20
-150.8413
 10
456.2139
 20
-150.8413
 10
455.6582
 20
-152.2431
 10
456.2139
 20
-153.6622
 10
457.8741
 20
-153.6622
 10
458.7062
 20
-152.2431
  0
LWPOLYLINE
  5
15F
330
1F
100
AcDbEntity
  8
Layer 1
 62
     7
370
    25
100
AcDbPolyline
 90
        7
 70
     1
 43
0.0
 10
458.7062
 20
-172.8875
 10
457.8741
 20
-171.4842
 10
456.2139
 20
-171.4842
 10
455.6582
 20
-172.8875
 10
456.2139
 20
-174.3051
 10
457.8741
 20
-174.3051
 10
458.7062
 20
-172.8875
  0
LWPOLYLINE
  5
160
330
1F
100
AcDbEntity
  8
Layer 1
 62
     7
370
    25
100
AcDbPolyline
 90
        7
 70
     1
 43
0.0
 10
458.7062
 20
-193.2472
 10
457.8741
 20
-191.844
 10
456.2139
 20
-191.844
 10
455.6582
 20
-193.2472
 10
456.2139
 20
-194.6648
 10
457.8741
 20
-194.6648
 10
458.7062
 20
-193.2472
  0
LWPOLYLINE
  5
161
330
1F
100
AcDbEntity
  8
Layer 1
 62
     7
370
    25
100
AcDbPolyline
 90
        7
 70
     1
 43
0.0
 10
458.7062
 20
-213.6055
 10
457.8741
 20
-212.2037
 10
456.2139
 20
-212.2037
 10
455.6582
 20
-213.6055
 10
456.2139
 20
-215.0245
 10
457.8741
 20
-215.0245
 10
458.7062
 20
-213.6055
  0
LWPOLYLINE
  5
162
330
1F
100
AcDbEntity
  8
Layer 1
 62
     7
370
    25
100
AcDbPolyline
 90
        7
 70
     1
 43
0.0
 10
458.7062
 20
-234.2485
 10
457.8741
 20
-232.5491
 10
456.2139
 20
-232.5491
 10
455.6582
 20
-234.2485
 10
456.2139
 20
-235.6675
 10
457.8741
 20
-235.6675
 10
458.7062
 20
-234.2485
  0
LWPOLYLINE
  5
163
330
1F
100
AcDbEntity
  8
Layer 1
 62
     7
370
    25
100
AcDbPolyline
 90
        7
 70
     1
 43
0.0
 10
458.7062
 20
-254.6082
 10
457.8741
 20
-253.1906
 10
456.2139
 20
-253.1906
 10
455.6582
 20
-254.6082
 10
456.2139
 20
-256.0258
 10
457.8741
 20
-256.0258
 10
458.7062
 20
-254.6082
  0
LWPOLYLINE
  5
164
330
1F
100
AcDbEntity
  8
Layer 1
 62
     7
370
    25
100
AcDbPolyline
 90
        7
 70
     1
 43
0.0
 10
458.7062
 20
-274.9679
 10
457.8741
 20
-273.5503
 10
456.2139
 20
-273.5503
 10
455.6582
 20
-274.9679
 10
456.2139
 20
-276.3855
 10
457.8741
 20
-276.3855
 10
458.7062
 20
-274.9679
  0
LWPOLYLINE
  5
165
330
1F
100
AcDbEntity
  8
Layer 1
 62
     7
370
    25
100
AcDbPolyline
 90
        7
 70
     1
 43
0.0
 10
549.0862
 20
-263.653
 10
548.2526
 20
-262.2497
 10
546.6078
 20
-262.2497
 10
545.7813
 20
-263.653
 10
546.6078
 20
-265.0706
 10
548.2526
 20
-265.0706
 10
549.0862
 20
-263.653
  0
LWPOLYLINE
  5
166
330
1F
100
AcDbEntity
  8
Layer 1
 62
     7
370
    25
100
AcDbPolyline
 90
        7
 70
     1
 43
0.0
 10
554.3473
 20
-279.2064
 10
553.5151
 20
-277.7888
 10
551.855
 20
-277.7888
 10
551.0228
 20
-279.2064
 10
551.855
 20
-280.9072
 10
553.5151
 20
-280.9072
 10
554.3473
 20
-279.2064
  0
LWPOLYLINE
  5
167
330
1F
100
AcDbEntity
  8
Layer 1
 62
     7
370
    25
100
AcDbPolyline
 90
        7
 70
     1
 43
0.0
 10
505.9641
 20
-146.6043
 10
505.4126
 20
-145.1867
 10
503.7678
 20
-145.1867
 10
502.9356
 20
-146.6043
 10
503.7678
 20
-148.0076
 10
505.4126
 20
-148.0076
 10
505.9641
 20
-146.6043
  0
LWPOLYLINE
  5
168
330
1F
100
AcDbEntity
  8
Layer 1
 62
     7
370
    25
100
AcDbPolyline
 90
        7
 70
     1
 43
0.0
 10
505.9641
 20
-161.0233
 10
505.4126
 20
-159.6043
 10
503.7678
 20
-159.6043
 10
502.9356
 20
-161.0233
 10
503.7678
 20
-162.4252
 10
505.4126
 20
-162.4252
 10
505.9641
 20
-161.0233
  0
LWPOLYLINE
  5
169
330
1F
100
AcDbEntity
  8
Layer 1
 62
     7
370
    25
100
AcDbPolyline
 90
        7
 70
     1
 43
0.0
 10
505.9641
 20
-175.7241
 10
505.4126
 20
-174.3065
 10
503.7678
 20
-174.3065
 10
502.9356
 20
-175.7241
 10
503.7678
 20
-177.1417
 10
505.4126
 20
-177.1417
 10
505.9641
 20
-175.7241
  0
LWPOLYLINE
  5
16A
330
1F
100
AcDbEntity
  8
Layer 1
 62
     7
370
    25
100
AcDbPolyline
 90
        7
 70
     1
 43
0.0
 10
505.9641
 20
-190.1431
 10
505.4126
 20
-188.7241
 10
503.7678
 20
-188.7241
 10
502.9356
 20
-190.1431
 10
503.7678
 20
-191.5607
 10
505.4126
 20
-191.5607
 10
505.9641
 20
-190.1431
  0
LWPOLYLINE
  5
16B
330
1F
100
AcDbEntity
  8
Layer 1
 62
     7
370
    25
100
AcDbPolyline
 90
        7
 70
     1
 43
0.0
 10
1042.7524
 20
-29.8216
 10
1041.9202
 20
-28.404
 10
1040.5351
 20
-28.404
 10
1039.7085
 20
-29.8216
 10
1040.5351
 20
-31.2392
 10
1041.9202
 20
-31.2392
 10
1042.7524
 20
-29.8216
  0
LWPOLYLINE
  5
16C
330
1F
100
AcDbEntity
  8
Layer 1
 62
     7
370
    25
100
AcDbPolyline
 90
        7
 70
     1
 43
0.0
 10
1042.7524
 20
-50.1813
 10
1041.9202
 20
-48.7623
 10
1040.5351
 20
-48.7623
 10
1039.7085
 20
-50.1813
 10
1040.5351
 20
-51.5989
 10
1041.9202
 20
-51.5989
 10
1042.7524
 20
-50.1813
  0
LWPOLYLINE
  5
16D
330
1F
100
AcDbEntity
  8
Layer 1
 62
     7
370
    25
100
AcDbPolyline
 90
        7
 70
     1
 43
0.0
 10
1042.7524
 20
-70.5396
 10
1041.9202
 20
-69.1221
 10
1040.5351
 20
-69.1221
 10
1039.7085
 20
-70.5396
 10
1040.5351
 20
-71.9587
 10
1041.9202
 20
-71.9587
 10
1042.7524
 20
-70.5396
  0
LWPOLYLINE
  5
16E
330
1F
100
AcDbEntity
  8
Layer 1
 62
     7
370
    25
100
AcDbPolyline
 90
        7
 70
     1
 43
0.0
 10
1042.7524
 20
-91.184
 10
1041.9202
 20
-89.4832
 10
1040.5351
 20
-89.4832
 10
1039.7085
 20
-91.184
 10
1040.5351
 20
-92.5859
 10
1041.9202
 20
-92.5859
 10
1042.7524
 20
-91.184
  0
LWPOLYLINE
  5
16F
330
1F
100
AcDbEntity
  8
Layer 1
 62
     7
370
    25
100
AcDbPolyline
 90
        7
 70
     1
 43
0.0
 10
1042.7524
 20
-111.5423
 10
1041.9202
 20
-110.1247
 10
1040.5351
 20
-110.1247
 10
1039.7085
 20
-111.5423
 10
1040.5351
 20
-112.9456
 10
1041.9202
 20
-112.9456
 10
1042.7524
 20
-111.5423
  0
LWPOLYLINE
  5
170
330
1F
100
AcDbEntity
  8
Layer 1
 62
     7
370
    25
100
AcDbPolyline
 90
        7
 70
     1
 43
0.0
 10
1042.7524
 20
-131.902
 10
1041.9202
 20
-130.4844
 10
1040.5351
 20
-130.4844
 10
1039.7085
 20
-131.902
 10
1040.5351
 20
-133.3053
 10
1041.9202
 20
-133.3053
 10
1042.7524
 20
-131.902
  0
LWPOLYLINE
  5
171
330
1F
100
AcDbEntity
  8
Layer 1
 62
     7
370
    25
100
AcDbPolyline
 90
        7
 70
     1
 43
0.0
 10
995.4945
 20
-88.0628
 10
994.661
 20
-86.6595
 10
993.0008
 20
-86.6595
 10
992.1686
 20
-88.0628
 10
993.0008
 20
-89.4803
 10
994.661
 20
-89.4803
 10
995.4945
 20
-88.0628
  0
LWPOLYLINE
  5
172
330
1F
100
AcDbEntity
  8
Layer 1
 62
     7
370
    25
100
AcDbPolyline
 90
        7
 70
     1
 43
0.0
 10
995.4945
 20
-73.6437
 10
994.661
 20
-72.2261
 10
993.0008
 20
-72.2261
 10
992.1686
 20
-73.6437
 10
993.0008
 20
-75.0613
 10
994.661
 20
-75.0613
 10
995.4945
 20
-73.6437
  0
LWPOLYLINE
  5
173
330
1F
100
AcDbEntity
  8
Layer 1
 62
     7
370
    25
100
AcDbPolyline
 90
        7
 70
     1
 43
0.0
 10
995.4945
 20
-58.9415
 10
994.661
 20
-57.5239
 10
993.0008
 20
-57.5239
 10
992.1686
 20
-58.9415
 10
993.0008
 20
-60.3605
 10
994.661
 20
-60.3605
 10
995.4945
 20
-58.9415
  0
LWPOLYLINE
  5
174
330
1F
100
AcDbEntity
  8
Layer 1
 62
     7
370
    25
100
AcDbPolyline
 90
        7
 70
     1
 43
0.0
 10
995.4945
 20
-44.5239
 10
994.661
 20
-43.1049
 10
993.0008
 20
-43.1049
 10
992.1686
 20
-44.5239
 10
993.0008
 20
-45.9415
 10
994.661
 20
-45.9415
 10
995.4945
 20
-44.5239
  0
LWPOLYLINE
  5
175
330
1F
100
AcDbEntity
  8
Layer 1
 62
     7
370
    25
100
AcDbPolyline
 90
        7
 70
     1
 43
0.0
 10
995.4945
 20
-29.8216
 10
994.661
 20
-28.404
 10
993.0008
 20
-28.404
 10
992.1686
 20
-29.8216
 10
993.0008
 20
-31.2392
 10
994.661
 20
-31.2392
 10
995.4945
 20
-29.8216
  0
LWPOLYLINE
  5
176
330
1F
100
AcDbEntity
  8
Layer 1
 62
     7
370
    25
100
AcDbPolyline
 90
        7
 70
     1
 43
0.0
 10
995.4945
 20
-15.4026
 10
994.661
 20
-13.985
 10
993.0008
 20
-13.985
 10
992.1686
 20
-15.4026
 10
993.0008
 20
-16.8216
 10
994.661
 20
-16.8216
 10
995.4945
 20
-15.4026
  0
LWPOLYLINE
  5
177
330
1F
100
AcDbEntity
  8
Layer 1
 62
     7
370
    25
100
AcDbPolyline
 90
        7
 70
     1
 43
0.0
 10
1154.9782
 20
-9.1787
 10
1154.1447
 20
-7.7597
 10
1152.4859
 20
-7.7597
 10
1151.6523
 20
-9.1787
 10
1152.4859
 20
-10.5963
 10
1154.1447
 20
-10.5963
 10
1154.9782
 20
-9.1787
  0
LWPOLYLINE
  5
178
330
1F
100
AcDbEntity
  8
Layer 1
 62
     7
370
    25
100
AcDbPolyline
 90
        7
 70
     1
 43
0.0
 10
1154.9782
 20
-29.8216
 10
1154.1447
 20
-28.404
 10
1152.4859
 20
-28.404
 10
1151.6523
 20
-29.8216
 10
1152.4859
 20
-31.2392
 10
1154.1447
 20
-31.2392
 10
1154.9782
 20
-29.8216
  0
LWPOLYLINE
  5
179
330
1F
100
AcDbEntity
  8
Layer 1
 62
     7
370
    25
100
AcDbPolyline
 90
        7
 70
     1
 43
0.0
 10
1154.9782
 20
-50.1813
 10
1154.1447
 20
-48.7623
 10
1152.4859
 20
-48.7623
 10
1151.6523
 20
-50.1813
 10
1152.4859
 20
-51.5989
 10
1154.1447
 20
-51.5989
 10
1154.9782
 20
-50.1813
  0
LWPOLYLINE
  5
17A
330
1F
100
AcDbEntity
  8
Layer 1
 62
     7
370
    25
100
AcDbPolyline
 90
        7
 70
     1
 43
0.0
 10
1154.9782
 20
-70.5396
 10
1154.1447
 20
-69.1221
 10
1152.4859
 20
-69.1221
 10
1151.6523
 20
-70.5396
 10
1152.4859
 20
-71.9587
 10
1154.1447
 20
-71.9587
 10
1154.9782
 20
-70.5396
  0
LWPOLYLINE
  5
17B
330
1F
100
AcDbEntity
  8
Layer 1
 62
     7
370
    25
100
AcDbPolyline
 90
        7
 70
     1
 43
0.0
 10
1154.9782
 20
-91.184
 10
1154.1447
 20
-89.4832
 10
1152.4859
 20
-89.4832
 10
1151.6523
 20
-91.184
 10
1152.4859
 20
-92.5859
 10
1154.1447
 20
-92.5859
 10
1154.9782
 20
-91.184
  0
LWPOLYLINE
  5
17C
330
1F
100
AcDbEntity
  8
Layer 1
 62
     7
370
    25
100
AcDbPolyline
 90
        7
 70
     1
 43
0.0
 10
1154.9782
 20
-111.5423
 10
1154.1447
 20
-110.1247
 10
1152.4859
 20
-110.1247
 10
1151.6523
 20
-111.5423
 10
1152.4859
 20
-112.9456
 10
1154.1447
 20
-112.9456
 10
1154.9782
 20
-111.5423
  0
LWPOLYLINE
  5
17D
330
1F
100
AcDbEntity
  8
Layer 1
 62
     7
370
    25
100
AcDbPolyline
 90
        7
 70
     1
 43
0.0
 10
1154.9782
 20
-131.902
 10
1154.1447
 20
-130.4844
 10
1152.4859
 20
-130.4844
 10
1151.6523
 20
-131.902
 10
1152.4859
 20
-133.3053
 10
1154.1447
 20
-133.3053
 10
1154.9782
 20
-131.902
  0
LWPOLYLINE
  5
17E
330
1F
100
AcDbEntity
  8
Layer 1
 62
     7
370
    25
100
AcDbPolyline
 90
        7
 70
     1
 43
0.0
 10
1042.7524
 20
-9.1787
 10
1041.9202
 20
-7.7597
 10
1040.5351
 20
-7.7597
 10
1039.7085
 20
-9.1787
 10
1040.5351
 20
-10.5963
 10
1041.9202
 20
-10.5963
 10
1042.7524
 20
-9.1787
  0
LWPOLYLINE
  5
17F
330
1F
100
AcDbEntity
  8
Layer 1
 62
     7
370
    25
100
AcDbPolyline
 90
        7
 70
     1
 43
0.0
 10
1042.7524
 20
11.181
 10
1041.9202
 20
12.5986
 10
1040.5351
 20
12.5986
 10
1039.7085
 20
11.181
 10
1040.5351
 20
9.7635
 10
1041.9202
 20
9.7635
 10
1042.7524
 20
11.181
  0
LWPOLYLINE
  5
180
330
1F
100
AcDbEntity
  8
Layer 1
 62
     7
370
    25
100
AcDbPolyline
 90
        7
 70
     1
 43
0.0
 10
885.2081
 20
-15.4026
 10
884.3745
 20
-13.985
 10
882.7157
 20
-13.985
 10
881.8822
 20
-15.4026
 10
882.7157
 20
-16.8216
 10
884.3745
 20
-16.8216
 10
885.2081
 20
-15.4026
  0
LWPOLYLINE
  5
181
330
1F
100
AcDbEntity
  8
Layer 1
 62
     7
370
    25
100
AcDbPolyline
 90
        7
 70
     1
 43
0.0
 10
865.3002
 20
-44.5239
 10
864.468
 20
-43.1049
 10
862.8079
 20
-43.1049
 10
861.9757
 20
-44.5239
 10
862.8079
 20
-45.9415
 10
864.468
 20
-45.9415
 10
865.3002
 20
-44.5239
  0
LWPOLYLINE
  5
182
330
1F
100
AcDbEntity
  8
Layer 1
 62
     7
370
    25
100
AcDbPolyline
 90
        7
 70
     1
 43
0.0
 10
865.3002
 20
-58.9415
 10
864.468
 20
-57.5239
 10
862.8079
 20
-57.5239
 10
861.9757
 20
-58.9415
 10
862.8079
 20
-60.3605
 10
864.468
 20
-60.3605
 10
865.3002
 20
-58.9415
  0
LWPOLYLINE
  5
183
330
1F
100
AcDbEntity
  8
Layer 1
 62
     7
370
    25
100
AcDbPolyline
 90
        7
 70
     1
 43
0.0
 10
865.3002
 20
-73.6437
 10
864.468
 20
-72.2261
 10
862.8079
 20
-72.2261
 10
861.9757
 20
-73.6437
 10
862.8079
 20
-75.0613
 10
864.468
 20
-75.0613
 10
865.3002
 20
-73.6437
  0
LWPOLYLINE
  5
184
330
1F
100
AcDbEntity
  8
Layer 1
 62
     7
370
    25
100
AcDbPolyline
 90
        7
 70
     1
 43
0.0
 10
865.3002
 20
-88.0628
 10
864.468
 20
-86.6595
 10
862.8079
 20
-86.6595
 10
861.9757
 20
-88.0628
 10
862.8079
 20
-89.4803
 10
864.468
 20
-89.4803
 10
865.3002
 20
-88.0628
  0
LWPOLYLINE
  5
185
330
1F
100
AcDbEntity
  8
Layer 1
 62
     7
370
    25
100
AcDbPolyline
 90
        7
 70
     1
 43
0.0
 10
865.3002
 20
-102.7636
 10
864.468
 20
-101.3617
 10
862.8079
 20
-101.3617
 10
861.9757
 20
-102.7636
 10
862.8079
 20
-104.1826
 10
864.468
 20
-104.1826
 10
865.3002
 20
-102.7636
  0
LWPOLYLINE
  5
186
330
1F
100
AcDbEntity
  8
Layer 1
 62
     7
370
    25
100
AcDbPolyline
 90
        7
 70
     1
 43
0.0
 10
902.8987
 20
10.0467
 10
902.0665
 20
11.4643
 10
900.6814
 20
11.4643
 10
899.8493
 20
10.0467
 10
900.6814
 20
8.6277
 10
902.0665
 20
8.6277
 10
902.8987
 20
10.0467
  0
LWPOLYLINE
  5
187
330
1F
100
AcDbEntity
  8
Layer 1
 62
     7
370
    25
100
AcDbPolyline
 90
        7
 70
     1
 43
0.0
 10
952.6503
 20
-0.1339
 10
951.8167
 20
1.2837
 10
950.1579
 20
1.2837
 10
949.3244
 20
-0.1339
 10
950.1579
 20
-1.5515
 10
951.8167
 20
-1.5515
 10
952.6503
 20
-0.1339
  0
LWPOLYLINE
  5
188
330
1F
100
AcDbEntity
  8
Layer 1
 62
     7
370
    25
100
AcDbPolyline
 90
        7
 70
     1
 43
0.0
 10
995.4945
 20
-117.4658
 10
994.661
 20
-116.064
 10
993.0008
 20
-116.064
 10
992.1686
 20
-117.4658
 10
993.0008
 20
-118.8848
 10
994.661
 20
-118.8848
 10
995.4945
 20
-117.4658
  0
LWPOLYLINE
  5
189
330
1F
100
AcDbEntity
  8
Layer 1
 62
     7
370
    25
100
AcDbPolyline
 90
        7
 70
     1
 43
0.0
 10
995.4945
 20
-102.7636
 10
994.661
 20
-101.3617
 10
993.0008
 20
-101.3617
 10
992.1686
 20
-102.7636
 10
993.0008
 20
-104.1826
 10
994.661
 20
-104.1826
 10
995.4945
 20
-102.7636
  0
LWPOLYLINE
  5
18A
330
1F
100
AcDbEntity
  8
Layer 1
 62
     7
370
    25
100
AcDbPolyline
 90
        7
 70
     1
 43
0.0
 10
947.3877
 20
15.4195
 10
946.5556
 20
16.8385
 10
944.9094
 20
16.8385
 10
944.0828
 20
15.4195
 10
944.9094
 20
14.0019
 10
946.5556
 20
14.0019
 10
947.3877
 20
15.4195
  0
LWPOLYLINE
  5
18B
330
1F
100
AcDbEntity
  8
Layer 1
 62
     7
370
    25
100
AcDbPolyline
 90
        7
 70
     1
 43
0.0
 10
611.2826
 20
-146.6043
 10
610.4505
 20
-145.1867
 10
608.7903
 20
-145.1867
 10
607.9581
 20
-146.6043
 10
608.7903
 20
-148.0076
 10
610.4505
 20
-148.0076
 10
611.2826
 20
-146.6043
  0
LWPOLYLINE
  5
18C
330
1F
100
AcDbEntity
  8
Layer 1
 62
     7
370
    25
100
AcDbPolyline
 90
        7
 70
     1
 43
0.0
 10
611.2826
 20
-161.0233
 10
610.4505
 20
-159.6043
 10
608.7903
 20
-159.6043
 10
607.9581
 20
-161.0233
 10
608.7903
 20
-162.4252
 10
610.4505
 20
-162.4252
 10
611.2826
 20
-161.0233
  0
LWPOLYLINE
  5
18D
330
1F
100
AcDbEntity
  8
Layer 1
 62
     7
370
    25
100
AcDbPolyline
 90
        7
 70
     1
 43
0.0
 10
611.2826
 20
-175.7241
 10
610.4505
 20
-174.3065
 10
608.7903
 20
-174.3065
 10
607.9581
 20
-175.7241
 10
608.7903
 20
-177.1417
 10
610.4505
 20
-177.1417
 10
611.2826
 20
-175.7241
  0
LWPOLYLINE
  5
18E
330
1F
100
AcDbEntity
  8
Layer 1
 62
     7
370
    25
100
AcDbPolyline
 90
        7
 70
     1
 43
0.0
 10
611.2826
 20
-190.1431
 10
610.4505
 20
-188.7241
 10
608.7903
 20
-188.7241
 10
607.9581
 20
-190.1431
 10
608.7903
 20
-191.5607
 10
610.4505
 20
-191.5607
 10
611.2826
 20
-190.1431
  0
LWPOLYLINE
  5
18F
330
1F
100
AcDbEntity
  8
Layer 1
 62
     7
370
    25
100
AcDbPolyline
 90
        7
 70
     1
 43
0.0
 10
589.177
 20
-263.653
 10
588.3449
 20
-262.2497
 10
586.6847
 20
-262.2497
 10
585.8525
 20
-263.653
 10
586.6847
 20
-265.0706
 10
588.3449
 20
-265.0706
 10
589.177
 20
-263.653
  0
LWPOLYLINE
  5
190
330
1F
100
AcDbEntity
  8
Layer 1
 62
     7
370
    25
100
AcDbPolyline
 90
        7
 70
     1
 43
0.0
 10
611.2826
 20
-204.8454
 10
610.4505
 20
-203.4264
 10
608.7903
 20
-203.4264
 10
607.9581
 20
-204.8454
 10
608.7903
 20
-206.263
 10
610.4505
 20
-206.263
 10
611.2826
 20
-204.8454
  0
LWPOLYLINE
  5
191
330
1F
100
AcDbEntity
  8
Layer 1
 62
     7
370
    25
100
AcDbPolyline
 90
        7
 70
     1
 43
0.0
 10
611.2826
 20
-219.263
 10
610.4505
 20
-217.8454
 10
608.7903
 20
-217.8454
 10
607.9581
 20
-219.263
 10
608.7903
 20
-220.682
 10
610.4505
 20
-220.682
 10
611.2826
 20
-219.263
  0
LWPOLYLINE
  5
192
330
1F
100
AcDbEntity
  8
Layer 1
 62
     7
370
    25
100
AcDbPolyline
 90
        7
 70
     1
 43
0.0
 10
611.2826
 20
-233.9653
 10
610.4505
 20
-232.5477
 10
608.7903
 20
-232.5477
 10
607.9581
 20
-233.9653
 10
608.7903
 20
-235.3828
 10
610.4505
 20
-235.3828
 10
611.2826
 20
-233.9653
  0
LWPOLYLINE
  5
193
330
1F
100
AcDbEntity
  8
Layer 1
 62
     7
370
    25
100
AcDbPolyline
 90
        7
 70
     1
 43
0.0
 10
641.6806
 20
-279.2064
 10
640.8485
 20
-277.7888
 10
639.2023
 20
-277.7888
 10
638.3757
 20
-279.2064
 10
639.2023
 20
-280.9072
 10
640.8485
 20
-280.9072
 10
641.6806
 20
-279.2064
  0
LWPOLYLINE
  5
194
330
1F
100
AcDbEntity
  8
Layer 1
 62
     7
370
    25
100
AcDbPolyline
 90
        7
 70
     1
 43
0.0
 10
860.0544
 20
15.4195
 10
859.2223
 20
16.8385
 10
857.5621
 20
16.8385
 10
856.7299
 20
15.4195
 10
857.5621
 20
14.0019
 10
859.2223
 20
14.0019
 10
860.0544
 20
15.4195
  0
LWPOLYLINE
  5
195
330
1F
100
AcDbEntity
  8
Layer 1
 62
     7
370
    25
100
AcDbPolyline
 90
        7
 70
     1
 43
0.0
 10
862.53
 20
-29.8216
 10
861.6978
 20
-28.404
 10
860.3337
 20
-28.404
 10
859.5015
 20
-29.8216
 10
860.3337
 20
-31.2392
 10
861.6978
 20
-31.2392
 10
862.53
 20
-29.8216
  0
LWPOLYLINE
  5
196
330
1F
100
AcDbEntity
  8
Layer 1
 62
     7
370
    25
100
AcDbPolyline
 90
        7
 70
     1
 43
0.0
 10
638.9286
 20
-233.9653
 10
638.095
 20
-232.5477
 10
636.7113
 20
-232.5477
 10
635.8792
 20
-233.9653
 10
636.7113
 20
-235.3828
 10
638.095
 20
-235.3828
 10
638.9286
 20
-233.9653
  0
LWPOLYLINE
  5
197
330
1F
100
AcDbEntity
  8
Layer 1
 62
     7
370
    25
100
AcDbPolyline
 90
        7
 70
     1
 43
0.0
 10
624.8194
 20
-259.1313
 10
623.9872
 20
-257.7123
 10
622.3424
 20
-257.7123
 10
621.5144
 20
-259.1313
 10
622.3424
 20
-260.5489
 10
623.9872
 20
-260.5489
 10
624.8194
 20
-259.1313
  0
LWPOLYLINE
  5
198
330
1F
100
AcDbEntity
  8
Layer 1
 62
     7
370
    25
100
AcDbPolyline
 90
        7
 70
     1
 43
0.0
 10
616.5284
 20
-279.2064
 10
615.6962
 20
-277.7888
 10
614.0514
 20
-277.7888
 10
613.2234
 20
-279.2064
 10
614.0514
 20
-280.9072
 10
615.6962
 20
-280.9072
 10
616.5284
 20
-279.2064
  0
LWPOLYLINE
  5
199
330
1F
100
AcDbEntity
  8
Layer 1
 62
     7
370
    25
100
AcDbPolyline
 90
        7
 70
     1
 43
0.0
 10
890.4524
 20
-29.8216
 10
889.6203
 20
-28.404
 10
887.9601
 20
-28.404
 10
887.1279
 20
-29.8216
 10
887.9601
 20
-31.2392
 10
889.6203
 20
-31.2392
 10
890.4524
 20
-29.8216
  0
LWPOLYLINE
  5
19A
330
1F
100
AcDbEntity
  8
Layer 1
 62
     7
370
    25
100
AcDbPolyline
 90
        7
 70
     1
 43
0.0
 10
890.4524
 20
-44.5239
 10
889.6203
 20
-43.1049
 10
887.9601
 20
-43.1049
 10
887.1279
 20
-44.5239
 10
887.9601
 20
-45.9415
 10
889.6203
 20
-45.9415
 10
890.4524
 20
-44.5239
  0
LWPOLYLINE
  5
19B
330
1F
100
AcDbEntity
  8
Layer 1
 62
     7
370
    25
100
AcDbPolyline
 90
        7
 70
     1
 43
0.0
 10
890.4524
 20
-58.9415
 10
889.6203
 20
-57.5239
 10
887.9601
 20
-57.5239
 10
887.1279
 20
-58.9415
 10
887.9601
 20
-60.3605
 10
889.6203
 20
-60.3605
 10
890.4524
 20
-58.9415
  0
LWPOLYLINE
  5
19C
330
1F
100
AcDbEntity
  8
Layer 1
 62
     7
370
    25
100
AcDbPolyline
 90
        7
 70
     1
 43
0.0
 10
890.4524
 20
-73.6437
 10
889.6203
 20
-72.2261
 10
887.9601
 20
-72.2261
 10
887.1279
 20
-73.6437
 10
887.9601
 20
-75.0613
 10
889.6203
 20
-75.0613
 10
890.4524
 20
-73.6437
  0
LWPOLYLINE
  5
19D
330
1F
100
AcDbEntity
  8
Layer 1
 62
     7
370
    25
100
AcDbPolyline
 90
        7
 70
     1
 43
0.0
 10
890.4524
 20
-88.0628
 10
889.6203
 20
-86.6595
 10
887.9601
 20
-86.6595
 10
887.1279
 20
-88.0628
 10
887.9601
 20
-89.4803
 10
889.6203
 20
-89.4803
 10
890.4524
 20
-88.0628
  0
LWPOLYLINE
  5
19E
330
1F
100
AcDbEntity
  8
Layer 1
 62
     7
370
    25
100
AcDbPolyline
 90
        7
 70
     1
 43
0.0
 10
890.4524
 20
-102.7636
 10
889.6203
 20
-101.3617
 10
887.9601
 20
-101.3617
 10
887.1279
 20
-102.7636
 10
887.9601
 20
-104.1826
 10
889.6203
 20
-104.1826
 10
890.4524
 20
-102.7636
  0
LWPOLYLINE
  5
19F
330
1F
100
AcDbEntity
  8
Layer 1
 62
     7
370
    25
100
AcDbPolyline
 90
        7
 70
     1
 43
0.0
 10
890.4524
 20
-117.4658
 10
889.6203
 20
-116.064
 10
887.9601
 20
-116.064
 10
887.1279
 20
-117.4658
 10
887.9601
 20
-118.8848
 10
889.6203
 20
-118.8848
 10
890.4524
 20
-117.4658
  0
LWPOLYLINE
  5
1A0
330
1F
100
AcDbEntity
  8
Layer 1
 62
     7
370
    25
100
AcDbPolyline
 90
        7
 70
     1
 43
0.0
 10
876.9157
 20
-4.6556
 10
876.0835
 20
-3.238
 10
874.4233
 20
-3.238
 10
873.5912
 20
-4.6556
 10
874.4233
 20
-6.0732
 10
876.0835
 20
-6.0732
 10
876.9157
 20
-4.6556
  0
LWPOLYLINE
  5
1A1
330
1F
100
AcDbEntity
  8
Layer 1
 62
     7
370
    25
100
AcDbPolyline
 90
        7
 70
     1
 43
0.0
 10
885.2081
 20
15.4195
 10
884.3745
 20
16.8385
 10
882.7157
 20
16.8385
 10
881.8822
 20
15.4195
 10
882.7157
 20
14.0019
 10
884.3745
 20
14.0019
 10
885.2081
 20
15.4195
  0
LWPOLYLINE
  5
1A2
330
1F
100
AcDbEntity
  8
Layer 1
 62
     7
370
    25
100
AcDbPolyline
 90
        7
 70
     1
 43
0.0
 10
917.8205
 20
-102.7636
 10
916.9884
 20
-101.3617
 10
915.3282
 20
-101.3617
 10
914.496
 20
-102.7636
 10
915.3282
 20
-104.1826
 10
916.9884
 20
-104.1826
 10
917.8205
 20
-102.7636
  0
LWPOLYLINE
  5
1A3
330
1F
100
AcDbEntity
  8
Layer 1
 62
     7
370
    25
100
AcDbPolyline
 90
        7
 70
     1
 43
0.0
 10
917.8205
 20
-88.0628
 10
916.9884
 20
-86.6595
 10
915.3282
 20
-86.6595
 10
914.496
 20
-88.0628
 10
915.3282
 20
-89.4803
 10
916.9884
 20
-89.4803
 10
917.8205
 20
-88.0628
  0
LWPOLYLINE
  5
1A4
330
1F
100
AcDbEntity
  8
Layer 1
 62
     7
370
    25
100
AcDbPolyline
 90
        7
 70
     1
 43
0.0
 10
917.8205
 20
-73.6437
 10
916.9884
 20
-72.2261
 10
915.3282
 20
-72.2261
 10
914.496
 20
-73.6437
 10
915.3282
 20
-75.0613
 10
916.9884
 20
-75.0613
 10
917.8205
 20
-73.6437
  0
LWPOLYLINE
  5
1A5
330
1F
100
AcDbEntity
  8
Layer 1
 62
     7
370
    25
100
AcDbPolyline
 90
        7
 70
     1
 43
0.0
 10
917.8205
 20
-58.9415
 10
916.9884
 20
-57.5239
 10
915.3282
 20
-57.5239
 10
914.496
 20
-58.9415
 10
915.3282
 20
-60.3605
 10
916.9884
 20
-60.3605
 10
917.8205
 20
-58.9415
  0
LWPOLYLINE
  5
1A6
330
1F
100
AcDbEntity
  8
Layer 1
 62
     7
370
    25
100
AcDbPolyline
 90
        7
 70
     1
 43
0.0
 10
917.8205
 20
-15.4026
 10
916.9884
 20
-13.985
 10
915.3282
 20
-13.985
 10
914.496
 20
-15.4026
 10
915.3282
 20
-16.8216
 10
916.9884
 20
-16.8216
 10
917.8205
 20
-15.4026
  0
LWPOLYLINE
  5
1A7
330
1F
100
AcDbEntity
  8
Layer 1
 62
     7
370
    25
100
AcDbPolyline
 90
        7
 70
     1
 43
0.0
 10
917.8205
 20
-29.8216
 10
916.9884
 20
-28.404
 10
915.3282
 20
-28.404
 10
914.496
 20
-29.8216
 10
915.3282
 20
-31.2392
 10
916.9884
 20
-31.2392
 10
917.8205
 20
-29.8216
  0
LWPOLYLINE
  5
1A8
330
1F
100
AcDbEntity
  8
Layer 1
 62
     7
370
    25
100
AcDbPolyline
 90
        7
 70
     1
 43
0.0
 10
917.8205
 20
-44.5239
 10
916.9884
 20
-43.1049
 10
915.3282
 20
-43.1049
 10
914.496
 20
-44.5239
 10
915.3282
 20
-45.9415
 10
916.9884
 20
-45.9415
 10
917.8205
 20
-44.5239
  0
LWPOLYLINE
  5
1A9
330
1F
100
AcDbEntity
  8
Layer 1
 62
     7
370
    25
100
AcDbPolyline
 90
        7
 70
     1
 43
0.0
 10
912.558
 20
-0.1339
 10
911.7454
 20
1.2837
 10
910.0811
 20
1.2837
 10
909.2531
 20
-0.1339
 10
910.0811
 20
-1.5515
 10
911.7454
 20
-1.5515
 10
912.558
 20
-0.1339
  0
LWPOLYLINE
  5
1AA
330
1F
100
AcDbEntity
  8
Layer 1
 62
     7
370
    25
100
AcDbPolyline
 90
        7
 70
     1
 43
0.0
 10
917.8205
 20
-131.902
 10
916.9884
 20
-130.4844
 10
915.3282
 20
-130.4844
 10
914.496
 20
-131.902
 10
915.3282
 20
-133.3053
 10
916.9884
 20
-133.3053
 10
917.8205
 20
-131.902
  0
LWPOLYLINE
  5
1AB
330
1F
100
AcDbEntity
  8
Layer 1
 62
     7
370
    25
100
AcDbPolyline
 90
        7
 70
     1
 43
0.0
 10
917.8205
 20
-117.4658
 10
916.9884
 20
-116.064
 10
915.3282
 20
-116.064
 10
914.496
 20
-117.4658
 10
915.3282
 20
-118.8848
 10
916.9884
 20
-118.8848
 10
917.8205
 20
-117.4658
  0
LWPOLYLINE
  5
1AC
330
1F
100
AcDbEntity
  8
Layer 1
 62
     7
370
    25
100
AcDbPolyline
 90
        7
 70
     1
 43
0.0
 10
407.0167
 20
-172.8875
 10
406.1845
 20
-171.4842
 10
404.5243
 20
-171.4842
 10
403.9672
 20
-172.8875
 10
404.5243
 20
-174.3051
 10
406.1845
 20
-174.3051
 10
407.0167
 20
-172.8875
  0
LWPOLYLINE
  5
1AD
330
1F
100
AcDbEntity
  8
Layer 1
 62
     7
370
    25
100
AcDbPolyline
 90
        7
 70
     1
 43
0.0
 10
407.0167
 20
-193.2472
 10
406.1845
 20
-191.844
 10
404.5243
 20
-191.844
 10
403.9672
 20
-193.2472
 10
404.5243
 20
-194.6648
 10
406.1845
 20
-194.6648
 10
407.0167
 20
-193.2472
  0
LWPOLYLINE
  5
1AE
330
1F
100
AcDbEntity
  8
Layer 1
 62
     7
370
    25
100
AcDbPolyline
 90
        7
 70
     1
 43
0.0
 10
407.0167
 20
-213.6055
 10
406.1845
 20
-212.2037
 10
404.5243
 20
-212.2037
 10
403.9672
 20
-213.6055
 10
404.5243
 20
-215.0245
 10
406.1845
 20
-215.0245
 10
407.0167
 20
-213.6055
  0
LWPOLYLINE
  5
1AF
330
1F
100
AcDbEntity
  8
Layer 1
 62
     7
370
    25
100
AcDbPolyline
 90
        7
 70
     1
 43
0.0
 10
407.0167
 20
-234.2485
 10
406.1845
 20
-232.5491
 10
404.5243
 20
-232.5491
 10
403.9672
 20
-234.2485
 10
404.5243
 20
-235.6675
 10
406.1845
 20
-235.6675
 10
407.0167
 20
-234.2485
  0
LWPOLYLINE
  5
1B0
330
1F
100
AcDbEntity
  8
Layer 1
 62
     7
370
    25
100
AcDbPolyline
 90
        7
 70
     1
 43
0.0
 10
407.0167
 20
-254.6082
 10
406.1845
 20
-253.1906
 10
404.5243
 20
-253.1906
 10
403.9672
 20
-254.6082
 10
404.5243
 20
-256.0258
 10
406.1845
 20
-256.0258
 10
407.0167
 20
-254.6082
  0
LWPOLYLINE
  5
1B1
330
1F
100
AcDbEntity
  8
Layer 1
 62
     7
370
    25
100
AcDbPolyline
 90
        7
 70
     1
 43
0.0
 10
407.0167
 20
-274.9679
 10
406.1845
 20
-273.5503
 10
404.5243
 20
-273.5503
 10
403.9672
 20
-274.9679
 10
404.5243
 20
-276.3855
 10
406.1845
 20
-276.3855
 10
407.0167
 20
-274.9679
  0
LWPOLYLINE
  5
1B2
330
1F
100
AcDbEntity
  8
Layer 1
 62
     7
370
    25
100
AcDbPolyline
 90
        7
 70
     1
 43
0.0
 10
407.0167
 20
-131.902
 10
406.1845
 20
-130.4844
 10
404.5243
 20
-130.4844
 10
403.9672
 20
-131.902
 10
404.5243
 20
-133.3053
 10
406.1845
 20
-133.3053
 10
407.0167
 20
-131.902
  0
LWPOLYLINE
  5
1B3
330
1F
100
AcDbEntity
  8
Layer 1
 62
     7
370
    25
100
AcDbPolyline
 90
        7
 70
     1
 43
0.0
 10
407.0167
 20
-152.2431
 10
406.1845
 20
-150.8413
 10
404.5243
 20
-150.8413
 10
403.9672
 20
-152.2431
 10
404.5243
 20
-153.6622
 10
406.1845
 20
-153.6622
 10
407.0167
 20
-152.2431
  0
LWPOLYLINE
  5
1B4
330
1F
100
AcDbEntity
  8
Layer 1
 62
     7
370
    25
100
AcDbPolyline
 90
        7
 70
     1
 43
0.0
 10
346.7582
 20
-131.902
 10
345.9261
 20
-130.4844
 10
344.2659
 20
-130.4844
 10
343.4533
 20
-131.902
 10
344.2659
 20
-133.3053
 10
345.9261
 20
-133.3053
 10
346.7582
 20
-131.902
  0
LWPOLYLINE
  5
1B5
330
1F
100
AcDbEntity
  8
Layer 1
 62
     7
370
    25
100
AcDbPolyline
 90
        7
 70
     1
 43
0.0
 10
346.7582
 20
-234.2485
 10
345.9261
 20
-232.5491
 10
344.2659
 20
-232.5491
 10
343.4533
 20
-234.2485
 10
344.2659
 20
-235.6675
 10
345.9261
 20
-235.6675
 10
346.7582
 20
-234.2485
  0
LWPOLYLINE
  5
1B6
330
1F
100
AcDbEntity
  8
Layer 1
 62
     7
370
    25
100
AcDbPolyline
 90
        7
 70
     1
 43
0.0
 10
346.7582
 20
-254.6082
 10
345.9261
 20
-253.1906
 10
344.2659
 20
-253.1906
 10
343.4533
 20
-254.6082
 10
344.2659
 20
-256.0258
 10
345.9261
 20
-256.0258
 10
346.7582
 20
-254.6082
  0
LWPOLYLINE
  5
1B7
330
1F
100
AcDbEntity
  8
Layer 1
 62
     7
370
    25
100
AcDbPolyline
 90
        7
 70
     1
 43
0.0
 10
346.7582
 20
-274.9679
 10
345.9261
 20
-273.5503
 10
344.2659
 20
-273.5503
 10
343.4533
 20
-274.9679
 10
344.2659
 20
-276.3855
 10
345.9261
 20
-276.3855
 10
346.7582
 20
-274.9679
  0
LWPOLYLINE
  5
1B8
330
1F
100
AcDbEntity
  8
Layer 1
 62
     7
370
    25
100
AcDbPolyline
 90
        7
 70
     1
 43
0.0
 10
346.7582
 20
-213.6055
 10
345.9261
 20
-212.2037
 10
344.2659
 20
-212.2037
 10
343.4533
 20
-213.6055
 10
344.2659
 20
-215.0245
 10
345.9261
 20
-215.0245
 10
346.7582
 20
-213.6055
  0
LWPOLYLINE
  5
1B9
330
1F
100
AcDbEntity
  8
Layer 1
 62
     7
370
    25
100
AcDbPolyline
 90
        7
 70
     1
 43
0.0
 10
346.7582
 20
-193.2472
 10
345.9261
 20
-191.844
 10
344.2659
 20
-191.844
 10
343.4533
 20
-193.2472
 10
344.2659
 20
-194.6648
 10
345.9261
 20
-194.6648
 10
346.7582
 20
-193.2472
  0
LWPOLYLINE
  5
1BA
330
1F
100
AcDbEntity
  8
Layer 1
 62
     7
370
    25
100
AcDbPolyline
 90
        7
 70
     1
 43
0.0
 10
346.7582
 20
-172.8875
 10
345.9261
 20
-171.4842
 10
344.2659
 20
-171.4842
 10
343.4533
 20
-172.8875
 10
344.2659
 20
-174.3051
 10
345.9261
 20
-174.3051
 10
346.7582
 20
-172.8875
  0
LWPOLYLINE
  5
1BB
330
1F
100
AcDbEntity
  8
Layer 1
 62
     7
370
    25
100
AcDbPolyline
 90
        7
 70
     1
 43
0.0
 10
346.7582
 20
-152.2431
 10
345.9261
 20
-150.8413
 10
344.2659
 20
-150.8413
 10
343.4533
 20
-152.2431
 10
344.2659
 20
-153.6622
 10
345.9261
 20
-153.6622
 10
346.7582
 20
-152.2431
  0
LWPOLYLINE
  5
1BC
330
1F
100
AcDbEntity
  8
Layer 1
 62
     7
370
    25
100
AcDbPolyline
 90
        7
 70
     1
 43
0.0
 10
583.9145
 20
-233.9653
 10
583.0824
 20
-232.5477
 10
581.4222
 20
-232.5477
 10
580.6096
 20
-233.9653
 10
581.4222
 20
-235.3828
 10
583.0824
 20
-235.3828
 10
583.9145
 20
-233.9653
  0
LWPOLYLINE
  5
1BD
330
1F
100
AcDbEntity
  8
Layer 1
 62
     7
370
    25
100
AcDbPolyline
 90
        7
 70
     1
 43
0.0
 10
583.9145
 20
-248.3828
 10
583.0824
 20
-246.981
 10
581.4222
 20
-246.981
 10
580.6096
 20
-248.3828
 10
581.4222
 20
-249.8019
 10
583.0824
 20
-249.8019
 10
583.9145
 20
-248.3828
  0
LWPOLYLINE
  5
1BE
330
1F
100
AcDbEntity
  8
Layer 1
 62
     7
370
    25
100
AcDbPolyline
 90
        7
 70
     1
 43
0.0
 10
549.0862
 20
-146.6043
 10
548.2526
 20
-145.1867
 10
546.6078
 20
-145.1867
 10
545.7813
 20
-146.6043
 10
546.6078
 20
-148.0076
 10
548.2526
 20
-148.0076
 10
549.0862
 20
-146.6043
  0
LWPOLYLINE
  5
1BF
330
1F
100
AcDbEntity
  8
Layer 1
 62
     7
370
    25
100
AcDbPolyline
 90
        7
 70
     1
 43
0.0
 10
583.9145
 20
-219.263
 10
583.0824
 20
-217.8454
 10
581.4222
 20
-217.8454
 10
580.6096
 20
-219.263
 10
581.4222
 20
-220.682
 10
583.0824
 20
-220.682
 10
583.9145
 20
-219.263
  0
LWPOLYLINE
  5
1C0
330
1F
100
AcDbEntity
  8
Layer 1
 62
     7
370
    25
100
AcDbPolyline
 90
        7
 70
     1
 43
0.0
 10
583.9145
 20
-204.8454
 10
583.0824
 20
-203.4264
 10
581.4222
 20
-203.4264
 10
580.6096
 20
-204.8454
 10
581.4222
 20
-206.263
 10
583.0824
 20
-206.263
 10
583.9145
 20
-204.8454
  0
LWPOLYLINE
  5
1C1
330
1F
100
AcDbEntity
  8
Layer 1
 62
     7
370
    25
100
AcDbPolyline
 90
        7
 70
     1
 43
0.0
 10
583.9145
 20
-190.1431
 10
583.0824
 20
-188.7241
 10
581.4222
 20
-188.7241
 10
580.6096
 20
-190.1431
 10
581.4222
 20
-191.5607
 10
583.0824
 20
-191.5607
 10
583.9145
 20
-190.1431
  0
LWPOLYLINE
  5
1C2
330
1F
100
AcDbEntity
  8
Layer 1
 62
     7
370
    25
100
AcDbPolyline
 90
        7
 70
     1
 43
0.0
 10
583.9145
 20
-175.7241
 10
583.0824
 20
-174.3065
 10
581.4222
 20
-174.3065
 10
580.6096
 20
-175.7241
 10
581.4222
 20
-177.1417
 10
583.0824
 20
-177.1417
 10
583.9145
 20
-175.7241
  0
LWPOLYLINE
  5
1C3
330
1F
100
AcDbEntity
  8
Layer 1
 62
     7
370
    25
100
AcDbPolyline
 90
        7
 70
     1
 43
0.0
 10
583.9145
 20
-161.0233
 10
583.0824
 20
-159.6043
 10
581.4222
 20
-159.6043
 10
580.6096
 20
-161.0233
 10
581.4222
 20
-162.4252
 10
583.0824
 20
-162.4252
 10
583.9145
 20
-161.0233
  0
LWPOLYLINE
  5
1C4
330
1F
100
AcDbEntity
  8
Layer 1
 62
     7
370
    25
100
AcDbPolyline
 90
        7
 70
     1
 43
0.0
 10
583.9145
 20
-146.6043
 10
583.0824
 20
-145.1867
 10
581.4222
 20
-145.1867
 10
580.6096
 20
-146.6043
 10
581.4222
 20
-148.0076
 10
583.0824
 20
-148.0076
 10
583.9145
 20
-146.6043
  0
LWPOLYLINE
  5
1C5
330
1F
100
AcDbEntity
  8
Layer 1
 62
     7
370
    25
100
AcDbPolyline
 90
        7
 70
     1
 43
0.0
 10
583.9145
 20
-131.902
 10
583.0824
 20
-130.4844
 10
581.4222
 20
-130.4844
 10
580.6096
 20
-131.902
 10
581.4222
 20
-133.3053
 10
583.0824
 20
-133.3053
 10
583.9145
 20
-131.902
  0
LWPOLYLINE
  5
1C6
330
1F
100
AcDbEntity
  8
Layer 1
 62
     7
370
    25
100
AcDbPolyline
 90
        7
 70
     1
 43
0.0
 10
508.7343
 20
-279.2064
 10
507.9021
 20
-277.7888
 10
506.2419
 20
-277.7888
 10
505.4098
 20
-279.2064
 10
506.2419
 20
-280.9072
 10
507.9021
 20
-280.9072
 10
508.7343
 20
-279.2064
  0
LWPOLYLINE
  5
1C7
330
1F
100
AcDbEntity
  8
Layer 1
 62
     7
370
    25
100
AcDbPolyline
 90
        7
 70
     1
 43
0.0
 10
505.9641
 20
-263.653
 10
505.4126
 20
-262.2497
 10
503.7678
 20
-262.2497
 10
502.9356
 20
-263.653
 10
503.7678
 20
-265.0706
 10
505.4126
 20
-265.0706
 10
505.9641
 20
-263.653
  0
LWPOLYLINE
  5
1C8
330
1F
100
AcDbEntity
  8
Layer 1
 62
     7
370
    25
100
AcDbPolyline
 90
        7
 70
     1
 43
0.0
 10
549.0862
 20
-161.0233
 10
548.2526
 20
-159.6043
 10
546.6078
 20
-159.6043
 10
545.7813
 20
-161.0233
 10
546.6078
 20
-162.4252
 10
548.2526
 20
-162.4252
 10
549.0862
 20
-161.0233
  0
LWPOLYLINE
  5
1C9
330
1F
100
AcDbEntity
  8
Layer 1
 62
     7
370
    25
100
AcDbPolyline
 90
        7
 70
     1
 43
0.0
 10
549.0862
 20
-175.7241
 10
548.2526
 20
-174.3065
 10
546.6078
 20
-174.3065
 10
545.7813
 20
-175.7241
 10
546.6078
 20
-177.1417
 10
548.2526
 20
-177.1417
 10
549.0862
 20
-175.7241
  0
LWPOLYLINE
  5
1CA
330
1F
100
AcDbEntity
  8
Layer 1
 62
     7
370
    25
100
AcDbPolyline
 90
        7
 70
     1
 43
0.0
 10
549.0862
 20
-190.1431
 10
548.2526
 20
-188.7241
 10
546.6078
 20
-188.7241
 10
545.7813
 20
-190.1431
 10
546.6078
 20
-191.5607
 10
548.2526
 20
-191.5607
 10
549.0862
 20
-190.1431
  0
LWPOLYLINE
  5
1CB
330
1F
100
AcDbEntity
  8
Layer 1
 62
     7
370
    25
100
AcDbPolyline
 90
        7
 70
     1
 43
0.0
 10
549.0862
 20
-204.8454
 10
548.2526
 20
-203.4264
 10
546.6078
 20
-203.4264
 10
545.7813
 20
-204.8454
 10
546.6078
 20
-206.263
 10
548.2526
 20
-206.263
 10
549.0862
 20
-204.8454
  0
LWPOLYLINE
  5
1CC
330
1F
100
AcDbEntity
  8
Layer 1
 62
     7
370
    25
100
AcDbPolyline
 90
        7
 70
     1
 43
0.0
 10
549.0862
 20
-248.3828
 10
548.2526
 20
-246.981
 10
546.6078
 20
-246.981
 10
545.7813
 20
-248.3828
 10
546.6078
 20
-249.8019
 10
548.2526
 20
-249.8019
 10
549.0862
 20
-248.3828
  0
LWPOLYLINE
  5
1CD
330
1F
100
AcDbEntity
  8
Layer 1
 62
     7
370
    25
100
AcDbPolyline
 90
        7
 70
     1
 43
0.0
 10
549.0862
 20
-233.9653
 10
548.2526
 20
-232.5477
 10
546.6078
 20
-232.5477
 10
545.7813
 20
-233.9653
 10
546.6078
 20
-235.3828
 10
548.2526
 20
-235.3828
 10
549.0862
 20
-233.9653
  0
LWPOLYLINE
  5
1CE
330
1F
100
AcDbEntity
  8
Layer 1
 62
     7
370
    25
100
AcDbPolyline
 90
        7
 70
     1
 43
0.0
 10
549.0862
 20
-219.263
 10
548.2526
 20
-217.8454
 10
546.6078
 20
-217.8454
 10
545.7813
 20
-219.263
 10
546.6078
 20
-220.682
 10
548.2526
 20
-220.682
 10
549.0862
 20
-219.263
  0
LWPOLYLINE
  5
1CF
330
1F
100
AcDbEntity
  8
Layer 1
 62
     7
370
    25
100
AcDbPolyline
 90
        7
 70
     1
 43
0.0
 10
807.8119
 20
15.4195
 10
806.9784
 20
16.8385
 10
805.3196
 20
16.8385
 10
804.486
 20
15.4195
 10
805.3196
 20
14.0019
 10
806.9784
 20
14.0019
 10
807.8119
 20
15.4195
  0
LWPOLYLINE
  5
1D0
330
1F
100
AcDbEntity
  8
Layer 1
 62
     7
370
    25
100
AcDbPolyline
 90
        7
 70
     1
 43
0.0
 10
693.9245
 20
15.4195
 10
693.0924
 20
16.8385
 10
691.4462
 20
16.8385
 10
690.6196
 20
15.4195
 10
691.4462
 20
14.0019
 10
693.0924
 20
14.0019
 10
693.9245
 20
15.4195
  0
LWPOLYLINE
  5
1D1
330
1F
100
AcDbEntity
  8
Layer 1
 62
     7
370
    25
100
AcDbPolyline
 90
        7
 70
     1
 43
0.0
 10
708.0323
 20
-73.6437
 10
707.2002
 20
-72.2261
 10
705.54
 20
-72.2261
 10
704.9885
 20
-73.6437
 10
705.54
 20
-75.0613
 10
707.2002
 20
-75.0613
 10
708.0323
 20
-73.6437
  0
LWPOLYLINE
  5
1D2
330
1F
100
AcDbEntity
  8
Layer 1
 62
     7
370
    25
100
AcDbPolyline
 90
        7
 70
     1
 43
0.0
 10
708.0323
 20
-58.9415
 10
707.2002
 20
-57.5239
 10
705.54
 20
-57.5239
 10
704.9885
 20
-58.9415
 10
705.54
 20
-60.3605
 10
707.2002
 20
-60.3605
 10
708.0323
 20
-58.9415
  0
LWPOLYLINE
  5
1D3
330
1F
100
AcDbEntity
  8
Layer 1
 62
     7
370
    25
100
AcDbPolyline
 90
        7
 70
     1
 43
0.0
 10
708.0323
 20
-44.5239
 10
707.2002
 20
-43.1049
 10
705.54
 20
-43.1049
 10
704.9885
 20
-44.5239
 10
705.54
 20
-45.9415
 10
707.2002
 20
-45.9415
 10
708.0323
 20
-44.5239
  0
LWPOLYLINE
  5
1D4
330
1F
100
AcDbEntity
  8
Layer 1
 62
     7
370
    25
100
AcDbPolyline
 90
        7
 70
     1
 43
0.0
 10
708.0323
 20
-29.8216
 10
707.2002
 20
-28.404
 10
705.54
 20
-28.404
 10
704.9885
 20
-29.8216
 10
705.54
 20
-31.2392
 10
707.2002
 20
-31.2392
 10
708.0323
 20
-29.8216
  0
LWPOLYLINE
  5
1D5
330
1F
100
AcDbEntity
  8
Layer 1
 62
     7
370
    25
100
AcDbPolyline
 90
        7
 70
     1
 43
0.0
 10
693.9245
 20
-0.1339
 10
693.0924
 20
1.2837
 10
691.4462
 20
1.2837
 10
690.6196
 20
-0.1339
 10
691.4462
 20
-1.5515
 10
693.0924
 20
-1.5515
 10
693.9245
 20
-0.1339
  0
LWPOLYLINE
  5
1D6
330
1F
100
AcDbEntity
  8
Layer 1
 62
     7
370
    25
100
AcDbPolyline
 90
        7
 70
     1
 43
0.0
 10
693.9245
 20
-29.8216
 10
693.0924
 20
-28.404
 10
691.4462
 20
-28.404
 10
690.6196
 20
-29.8216
 10
691.4462
 20
-31.2392
 10
693.0924
 20
-31.2392
 10
693.9245
 20
-29.8216
  0
LWPOLYLINE
  5
1D7
330
1F
100
AcDbEntity
  8
Layer 1
 62
     7
370
    25
100
AcDbPolyline
 90
        7
 70
     1
 43
0.0
 10
693.9245
 20
-44.5239
 10
693.0924
 20
-43.1049
 10
691.4462
 20
-43.1049
 10
690.6196
 20
-44.5239
 10
691.4462
 20
-45.9415
 10
693.0924
 20
-45.9415
 10
693.9245
 20
-44.5239
  0
LWPOLYLINE
  5
1D8
330
1F
100
AcDbEntity
  8
Layer 1
 62
     7
370
    25
100
AcDbPolyline
 90
        7
 70
     1
 43
0.0
 10
693.9245
 20
-58.9415
 10
693.0924
 20
-57.5239
 10
691.4462
 20
-57.5239
 10
690.6196
 20
-58.9415
 10
691.4462
 20
-60.3605
 10
693.0924
 20
-60.3605
 10
693.9245
 20
-58.9415
  0
LWPOLYLINE
  5
1D9
330
1F
100
AcDbEntity
  8
Layer 1
 62
     7
370
    25
100
AcDbPolyline
 90
        7
 70
     1
 43
0.0
 10
693.9245
 20
-73.6437
 10
693.0924
 20
-72.2261
 10
691.4462
 20
-72.2261
 10
690.6196
 20
-73.6437
 10
691.4462
 20
-75.0613
 10
693.0924
 20
-75.0613
 10
693.9245
 20
-73.6437
  0
LWPOLYLINE
  5
1DA
330
1F
100
AcDbEntity
  8
Layer 1
 62
     7
370
    25
100
AcDbPolyline
 90
        7
 70
     1
 43
0.0
 10
779.3352
 20
-73.6437
 10
778.503
 20
-72.2261
 10
776.8429
 20
-72.2261
 10
776.0302
 20
-73.6437
 10
776.8429
 20
-75.0613
 10
778.503
 20
-75.0613
 10
779.3352
 20
-73.6437
  0
LWPOLYLINE
  5
1DB
330
1F
100
AcDbEntity
  8
Layer 1
 62
     7
370
    25
100
AcDbPolyline
 90
        7
 70
     1
 43
0.0
 10
779.3352
 20
-58.9415
 10
778.503
 20
-57.5239
 10
776.8429
 20
-57.5239
 10
776.0302
 20
-58.9415
 10
776.8429
 20
-60.3605
 10
778.503
 20
-60.3605
 10
779.3352
 20
-58.9415
  0
LWPOLYLINE
  5
1DC
330
1F
100
AcDbEntity
  8
Layer 1
 62
     7
370
    25
100
AcDbPolyline
 90
        7
 70
     1
 43
0.0
 10
779.3352
 20
-44.5239
 10
778.503
 20
-43.1049
 10
776.8429
 20
-43.1049
 10
776.0302
 20
-44.5239
 10
776.8429
 20
-45.9415
 10
778.503
 20
-45.9415
 10
779.3352
 20
-44.5239
  0
LWPOLYLINE
  5
1DD
330
1F
100
AcDbEntity
  8
Layer 1
 62
     7
370
    25
100
AcDbPolyline
 90
        7
 70
     1
 43
0.0
 10
779.3352
 20
15.4195
 10
778.503
 20
16.8385
 10
776.8429
 20
16.8385
 10
776.0302
 20
15.4195
 10
776.8429
 20
14.0019
 10
778.503
 20
14.0019
 10
779.3352
 20
15.4195
  0
LWPOLYLINE
  5
1DE
330
1F
100
AcDbEntity
  8
Layer 1
 62
     7
370
    25
100
AcDbPolyline
 90
        7
 70
     1
 43
0.0
 10
779.3352
 20
-0.1339
 10
778.503
 20
1.2837
 10
776.8429
 20
1.2837
 10
776.0302
 20
-0.1339
 10
776.8429
 20
-1.5515
 10
778.503
 20
-1.5515
 10
779.3352
 20
-0.1339
  0
LWPOLYLINE
  5
1DF
330
1F
100
AcDbEntity
  8
Layer 1
 62
     7
370
    25
100
AcDbPolyline
 90
        7
 70
     1
 43
0.0
 10
779.3352
 20
-29.8216
 10
778.503
 20
-28.404
 10
776.8429
 20
-28.404
 10
776.0302
 20
-29.8216
 10
776.8429
 20
-31.2392
 10
778.503
 20
-31.2392
 10
779.3352
 20
-29.8216
  0
LWPOLYLINE
  5
1E0
330
1F
100
AcDbEntity
  8
Layer 1
 62
     7
370
    25
100
AcDbPolyline
 90
        7
 70
     1
 43
0.0
 10
764.9677
 20
-73.6437
 10
764.1355
 20
-72.2261
 10
762.7504
 20
-72.2261
 10
761.9182
 20
-73.6437
 10
762.7504
 20
-75.0613
 10
764.1355
 20
-75.0613
 10
764.9677
 20
-73.6437
  0
LWPOLYLINE
  5
1E1
330
1F
100
AcDbEntity
  8
Layer 1
 62
     7
370
    25
100
AcDbPolyline
 90
        7
 70
     1
 43
0.0
 10
764.9677
 20
-58.9415
 10
764.1355
 20
-57.5239
 10
762.7504
 20
-57.5239
 10
761.9182
 20
-58.9415
 10
762.7504
 20
-60.3605
 10
764.1355
 20
-60.3605
 10
764.9677
 20
-58.9415
  0
LWPOLYLINE
  5
1E2
330
1F
100
AcDbEntity
  8
Layer 1
 62
     7
370
    25
100
AcDbPolyline
 90
        7
 70
     1
 43
0.0
 10
764.9677
 20
-44.5239
 10
764.1355
 20
-43.1049
 10
762.7504
 20
-43.1049
 10
761.9182
 20
-44.5239
 10
762.7504
 20
-45.9415
 10
764.1355
 20
-45.9415
 10
764.9677
 20
-44.5239
  0
LWPOLYLINE
  5
1E3
330
1F
100
AcDbEntity
  8
Layer 1
 62
     7
370
    25
100
AcDbPolyline
 90
        7
 70
     1
 43
0.0
 10
764.9677
 20
-29.8216
 10
764.1355
 20
-28.404
 10
762.7504
 20
-28.404
 10
761.9182
 20
-29.8216
 10
762.7504
 20
-31.2392
 10
764.1355
 20
-31.2392
 10
764.9677
 20
-29.8216
  0
LWPOLYLINE
  5
1E4
330
1F
100
AcDbEntity
  8
Layer 1
 62
     7
370
    25
100
AcDbPolyline
 90
        7
 70
     1
 43
0.0
 10
764.9677
 20
-0.1339
 10
764.1355
 20
1.2837
 10
762.7504
 20
1.2837
 10
761.9182
 20
-0.1339
 10
762.7504
 20
-1.5515
 10
764.1355
 20
-1.5515
 10
764.9677
 20
-0.1339
  0
LWPOLYLINE
  5
1E5
330
1F
100
AcDbEntity
  8
Layer 1
 62
     7
370
    25
100
AcDbPolyline
 90
        7
 70
     1
 43
0.0
 10
764.9677
 20
15.4195
 10
764.1355
 20
16.8385
 10
762.7504
 20
16.8385
 10
761.9182
 20
15.4195
 10
762.7504
 20
14.0019
 10
764.1355
 20
14.0019
 10
764.9677
 20
15.4195
  0
LWPOLYLINE
  5
1E6
330
1F
100
AcDbEntity
  8
Layer 1
 62
     7
370
    25
100
AcDbPolyline
 90
        7
 70
     1
 43
0.0
 10
793.4263
 20
-73.6437
 10
792.6136
 20
-72.2261
 10
791.2285
 20
-72.2261
 10
790.3964
 20
-73.6437
 10
791.2285
 20
-75.0613
 10
792.6136
 20
-75.0613
 10
793.4263
 20
-73.6437
  0
LWPOLYLINE
  5
1E7
330
1F
100
AcDbEntity
  8
Layer 1
 62
     7
370
    25
100
AcDbPolyline
 90
        7
 70
     1
 43
0.0
 10
793.4263
 20
-58.9415
 10
792.6136
 20
-57.5239
 10
791.2285
 20
-57.5239
 10
790.3964
 20
-58.9415
 10
791.2285
 20
-60.3605
 10
792.6136
 20
-60.3605
 10
793.4263
 20
-58.9415
  0
LWPOLYLINE
  5
1E8
330
1F
100
AcDbEntity
  8
Layer 1
 62
     7
370
    25
100
AcDbPolyline
 90
        7
 70
     1
 43
0.0
 10
793.4263
 20
-44.5239
 10
792.6136
 20
-43.1049
 10
791.2285
 20
-43.1049
 10
790.3964
 20
-44.5239
 10
791.2285
 20
-45.9415
 10
792.6136
 20
-45.9415
 10
793.4263
 20
-44.5239
  0
LWPOLYLINE
  5
1E9
330
1F
100
AcDbEntity
  8
Layer 1
 62
     7
370
    25
100
AcDbPolyline
 90
        7
 70
     1
 43
0.0
 10
793.4263
 20
-29.8216
 10
792.6136
 20
-28.404
 10
791.2285
 20
-28.404
 10
790.3964
 20
-29.8216
 10
791.2285
 20
-31.2392
 10
792.6136
 20
-31.2392
 10
793.4263
 20
-29.8216
  0
LWPOLYLINE
  5
1EA
330
1F
100
AcDbEntity
  8
Layer 1
 62
     7
370
    25
100
AcDbPolyline
 90
        7
 70
     1
 43
0.0
 10
793.4263
 20
-0.1339
 10
792.6136
 20
1.2837
 10
791.2285
 20
1.2837
 10
790.3964
 20
-0.1339
 10
791.2285
 20
-1.5515
 10
792.6136
 20
-1.5515
 10
793.4263
 20
-0.1339
  0
LWPOLYLINE
  5
1EB
330
1F
100
AcDbEntity
  8
Layer 1
 62
     7
370
    25
100
AcDbPolyline
 90
        7
 70
     1
 43
0.0
 10
793.4263
 20
15.4195
 10
792.6136
 20
16.8385
 10
791.2285
 20
16.8385
 10
790.3964
 20
15.4195
 10
791.2285
 20
14.0019
 10
792.6136
 20
14.0019
 10
793.4263
 20
15.4195
  0
LWPOLYLINE
  5
1EC
330
1F
100
AcDbEntity
  8
Layer 1
 62
     7
370
    25
100
AcDbPolyline
 90
        7
 70
     1
 43
0.0
 10
807.8119
 20
-73.6437
 10
806.9784
 20
-72.2261
 10
805.3196
 20
-72.2261
 10
804.486
 20
-73.6437
 10
805.3196
 20
-75.0613
 10
806.9784
 20
-75.0613
 10
807.8119
 20
-73.6437
  0
LWPOLYLINE
  5
1ED
330
1F
100
AcDbEntity
  8
Layer 1
 62
     7
370
    25
100
AcDbPolyline
 90
        7
 70
     1
 43
0.0
 10
807.8119
 20
-58.9415
 10
806.9784
 20
-57.5239
 10
805.3196
 20
-57.5239
 10
804.486
 20
-58.9415
 10
805.3196
 20
-60.3605
 10
806.9784
 20
-60.3605
 10
807.8119
 20
-58.9415
  0
LWPOLYLINE
  5
1EE
330
1F
100
AcDbEntity
  8
Layer 1
 62
     7
370
    25
100
AcDbPolyline
 90
        7
 70
     1
 43
0.0
 10
807.8119
 20
-44.5239
 10
806.9784
 20
-43.1049
 10
805.3196
 20
-43.1049
 10
804.486
 20
-44.5239
 10
805.3196
 20
-45.9415
 10
806.9784
 20
-45.9415
 10
807.8119
 20
-44.5239
  0
LWPOLYLINE
  5
1EF
330
1F
100
AcDbEntity
  8
Layer 1
 62
     7
370
    25
100
AcDbPolyline
 90
        7
 70
     1
 43
0.0
 10
807.8119
 20
-29.8216
 10
806.9784
 20
-28.404
 10
805.3196
 20
-28.404
 10
804.486
 20
-29.8216
 10
805.3196
 20
-31.2392
 10
806.9784
 20
-31.2392
 10
807.8119
 20
-29.8216
  0
LWPOLYLINE
  5
1F0
330
1F
100
AcDbEntity
  8
Layer 1
 62
     7
370
    25
100
AcDbPolyline
 90
        7
 70
     1
 43
0.0
 10
807.8119
 20
-0.1339
 10
806.9784
 20
1.2837
 10
805.3196
 20
1.2837
 10
804.486
 20
-0.1339
 10
805.3196
 20
-1.5515
 10
806.9784
 20
-1.5515
 10
807.8119
 20
-0.1339
  0
LWPOLYLINE
  5
1F1
330
1F
100
AcDbEntity
  8
Layer 1
 62
     7
370
    25
100
AcDbPolyline
 90
        7
 70
     1
 43
0.0
 10
722.3999
 20
15.4195
 10
721.5677
 20
16.8385
 10
719.9075
 20
16.8385
 10
719.0754
 20
15.4195
 10
719.9075
 20
14.0019
 10
721.5677
 20
14.0019
 10
722.3999
 20
15.4195
  0
LWPOLYLINE
  5
1F2
330
1F
100
AcDbEntity
  8
Layer 1
 62
     7
370
    25
100
AcDbPolyline
 90
        7
 70
     1
 43
0.0
 10
722.3999
 20
-0.1339
 10
721.5677
 20
1.2837
 10
719.9075
 20
1.2837
 10
719.0754
 20
-0.1339
 10
719.9075
 20
-1.5515
 10
721.5677
 20
-1.5515
 10
722.3999
 20
-0.1339
  0
LWPOLYLINE
  5
1F3
330
1F
100
AcDbEntity
  8
Layer 1
 62
     7
370
    25
100
AcDbPolyline
 90
        7
 70
     1
 43
0.0
 10
722.3999
 20
-29.8216
 10
721.5677
 20
-28.404
 10
719.9075
 20
-28.404
 10
719.0754
 20
-29.8216
 10
719.9075
 20
-31.2392
 10
721.5677
 20
-31.2392
 10
722.3999
 20
-29.8216
  0
LWPOLYLINE
  5
1F4
330
1F
100
AcDbEntity
  8
Layer 1
 62
     7
370
    25
100
AcDbPolyline
 90
        7
 70
     1
 43
0.0
 10
736.4909
 20
-73.6437
 10
735.6588
 20
-72.2261
 10
734.2751
 20
-72.2261
 10
733.4624
 20
-73.6437
 10
734.2751
 20
-75.0613
 10
735.6588
 20
-75.0613
 10
736.4909
 20
-73.6437
  0
LWPOLYLINE
  5
1F5
330
1F
100
AcDbEntity
  8
Layer 1
 62
     7
370
    25
100
AcDbPolyline
 90
        7
 70
     1
 43
0.0
 10
736.4909
 20
-58.9415
 10
735.6588
 20
-57.5239
 10
734.2751
 20
-57.5239
 10
733.4624
 20
-58.9415
 10
734.2751
 20
-60.3605
 10
735.6588
 20
-60.3605
 10
736.4909
 20
-58.9415
  0
LWPOLYLINE
  5
1F6
330
1F
100
AcDbEntity
  8
Layer 1
 62
     7
370
    25
100
AcDbPolyline
 90
        7
 70
     1
 43
0.0
 10
708.0323
 20
-0.1339
 10
707.2002
 20
1.2837
 10
705.54
 20
1.2837
 10
704.9885
 20
-0.1339
 10
705.54
 20
-1.5515
 10
707.2002
 20
-1.5515
 10
708.0323
 20
-0.1339
  0
LWPOLYLINE
  5
1F7
330
1F
100
AcDbEntity
  8
Layer 1
 62
     7
370
    25
100
AcDbPolyline
 90
        7
 70
     1
 43
0.0
 10
708.0323
 20
15.4195
 10
707.2002
 20
16.8385
 10
705.54
 20
16.8385
 10
704.9885
 20
15.4195
 10
705.54
 20
14.0019
 10
707.2002
 20
14.0019
 10
708.0323
 20
15.4195
  0
LWPOLYLINE
  5
1F8
330
1F
100
AcDbEntity
  8
Layer 1
 62
     7
370
    25
100
AcDbPolyline
 90
        7
 70
     1
 43
0.0
 10
722.3999
 20
-73.6437
 10
721.5677
 20
-72.2261
 10
719.9075
 20
-72.2261
 10
719.0754
 20
-73.6437
 10
719.9075
 20
-75.0613
 10
721.5677
 20
-75.0613
 10
722.3999
 20
-73.6437
  0
LWPOLYLINE
  5
1F9
330
1F
100
AcDbEntity
  8
Layer 1
 62
     7
370
    25
100
AcDbPolyline
 90
        7
 70
     1
 43
0.0
 10
722.3999
 20
-58.9415
 10
721.5677
 20
-57.5239
 10
719.9075
 20
-57.5239
 10
719.0754
 20
-58.9415
 10
719.9075
 20
-60.3605
 10
721.5677
 20
-60.3605
 10
722.3999
 20
-58.9415
  0
LWPOLYLINE
  5
1FA
330
1F
100
AcDbEntity
  8
Layer 1
 62
     7
370
    25
100
AcDbPolyline
 90
        7
 70
     1
 43
0.0
 10
722.3999
 20
-44.5239
 10
721.5677
 20
-43.1049
 10
719.9075
 20
-43.1049
 10
719.0754
 20
-44.5239
 10
719.9075
 20
-45.9415
 10
721.5677
 20
-45.9415
 10
722.3999
 20
-44.5239
  0
LWPOLYLINE
  5
1FB
330
1F
100
AcDbEntity
  8
Layer 1
 62
     7
370
    25
100
AcDbPolyline
 90
        7
 70
     1
 43
0.0
 10
750.8766
 20
-58.9415
 10
750.0444
 20
-57.5239
 10
748.3843
 20
-57.5239
 10
747.5521
 20
-58.9415
 10
748.3843
 20
-60.3605
 10
750.0444
 20
-60.3605
 10
750.8766
 20
-58.9415
  0
LWPOLYLINE
  5
1FC
330
1F
100
AcDbEntity
  8
Layer 1
 62
     7
370
    25
100
AcDbPolyline
 90
        7
 70
     1
 43
0.0
 10
750.8766
 20
-44.5239
 10
750.0444
 20
-43.1049
 10
748.3843
 20
-43.1049
 10
747.5521
 20
-44.5239
 10
748.3843
 20
-45.9415
 10
750.0444
 20
-45.9415
 10
750.8766
 20
-44.5239
  0
LWPOLYLINE
  5
1FD
330
1F
100
AcDbEntity
  8
Layer 1
 62
     7
370
    25
100
AcDbPolyline
 90
        7
 70
     1
 43
0.0
 10
750.8766
 20
-29.8216
 10
750.0444
 20
-28.404
 10
748.3843
 20
-28.404
 10
747.5521
 20
-29.8216
 10
748.3843
 20
-31.2392
 10
750.0444
 20
-31.2392
 10
750.8766
 20
-29.8216
  0
LWPOLYLINE
  5
1FE
330
1F
100
AcDbEntity
  8
Layer 1
 62
     7
370
    25
100
AcDbPolyline
 90
        7
 70
     1
 43
0.0
 10
750.8766
 20
-0.1339
 10
750.0444
 20
1.2837
 10
748.3843
 20
1.2837
 10
747.5521
 20
-0.1339
 10
748.3843
 20
-1.5515
 10
750.0444
 20
-1.5515
 10
750.8766
 20
-0.1339
  0
LWPOLYLINE
  5
1FF
330
1F
100
AcDbEntity
  8
Layer 1
 62
     7
370
    25
100
AcDbPolyline
 90
        7
 70
     1
 43
0.0
 10
750.8766
 20
15.4195
 10
750.0444
 20
16.8385
 10
748.3843
 20
16.8385
 10
747.5521
 20
15.4195
 10
748.3843
 20
14.0019
 10
750.0444
 20
14.0019
 10
750.8766
 20
15.4195
  0
LWPOLYLINE
  5
200
330
1F
100
AcDbEntity
  8
Layer 1
 62
     7
370
    25
100
AcDbPolyline
 90
        7
 70
     1
 43
0.0
 10
750.8766
 20
-73.6437
 10
750.0444
 20
-72.2261
 10
748.3843
 20
-72.2261
 10
747.5521
 20
-73.6437
 10
748.3843
 20
-75.0613
 10
750.0444
 20
-75.0613
 10
750.8766
 20
-73.6437
  0
LWPOLYLINE
  5
201
330
1F
100
AcDbEntity
  8
Layer 1
 62
     7
370
    25
100
AcDbPolyline
 90
        7
 70
     1
 43
0.0
 10
736.4909
 20
15.4195
 10
735.6588
 20
16.8385
 10
734.2751
 20
16.8385
 10
733.4624
 20
15.4195
 10
734.2751
 20
14.0019
 10
735.6588
 20
14.0019
 10
736.4909
 20
15.4195
  0
LWPOLYLINE
  5
202
330
1F
100
AcDbEntity
  8
Layer 1
 62
     7
370
    25
100
AcDbPolyline
 90
        7
 70
     1
 43
0.0
 10
736.4909
 20
-0.1339
 10
735.6588
 20
1.2837
 10
734.2751
 20
1.2837
 10
733.4624
 20
-0.1339
 10
734.2751
 20
-1.5515
 10
735.6588
 20
-1.5515
 10
736.4909
 20
-0.1339
  0
LWPOLYLINE
  5
203
330
1F
100
AcDbEntity
  8
Layer 1
 62
     7
370
    25
100
AcDbPolyline
 90
        7
 70
     1
 43
0.0
 10
736.4909
 20
-29.8216
 10
735.6588
 20
-28.404
 10
734.2751
 20
-28.404
 10
733.4624
 20
-29.8216
 10
734.2751
 20
-31.2392
 10
735.6588
 20
-31.2392
 10
736.4909
 20
-29.8216
  0
LWPOLYLINE
  5
204
330
1F
100
AcDbEntity
  8
Layer 1
 62
     7
370
    25
100
AcDbPolyline
 90
        7
 70
     1
 43
0.0
 10
736.4909
 20
-44.5239
 10
735.6588
 20
-43.1049
 10
734.2751
 20
-43.1049
 10
733.4624
 20
-44.5239
 10
734.2751
 20
-45.9415
 10
735.6588
 20
-45.9415
 10
736.4909
 20
-44.5239
  0
LWPOLYLINE
  5
205
330
1F
100
AcDbEntity
  8
Layer 1
 62
     7
370
    25
100
AcDbPolyline
 90
        3
 70
     0
 43
0.0
 10
439.3527
 20
106.1864
 10
432.7232
 20
106.7514
 10
426.3688
 20
107.8872
  0
LWPOLYLINE
  5
206
330
1F
100
AcDbEntity
  8
Layer 1
 62
     7
370
    25
100
AcDbPolyline
 90
        3
 70
     0
 43
0.0
 10
426.3702
 20
107.8886
 10
416.4149
 20
112.1271
 10
407.5682
 20
119.1864
  0
LWPOLYLINE
  5
207
330
1F
100
AcDbEntity
  8
Layer 1
 62
     7
370
    25
100
AcDbPolyline
 90
        4
 70
     0
 43
0.0
 10
407.571
 20
119.185
 10
400.108
 20
125.695
 10
391.2613
 20
131.0692
 10
382.1395
 20
134.7383
  0
LWPOLYLINE
  5
208
330
1F
100
AcDbEntity
  8
Layer 1
 62
     7
370
    25
100
AcDbPolyline
 90
        5
 70
     0
 43
0.0
 10
382.1409
 20
134.7383
 10
380.7572
 20
135.5923
 10
380.4821
 20
137.0099
 10
381.3087
 20
138.4275
 10
382.4173
 20
138.9782
  0
LWPOLYLINE
  5
209
330
1F
100
AcDbEntity
  8
Layer 1
 62
     7
370
    25
100
AcDbPolyline
 90
        9
 70
     0
 43
0.0
 10
382.4187
 20
138.9768
 10
474.1838
 20
144.9161
 10
565.6696
 20
149.1559
 10
657.45
 20
151.7093
 10
749.2151
 20
152.5619
 10
840.9815
 20
151.7093
 10
932.7424
 20
149.1559
 10
1024.2324
 20
144.9161
 10
1115.7363
 20
138.9768
  0
LWPOLYLINE
  5
20A
330
1F
100
AcDbEntity
  8
Layer 1
 62
     7
370
    25
100
AcDbPolyline
 90
        4
 70
     0
 43
0.0
 10
1115.7335
 20
138.9768
 10
1117.3797
 20
138.1443
 10
1117.6548
 20
136.1559
 10
1116.2711
 20
134.7383
  0
LWPOLYLINE
  5
20B
330
1F
100
AcDbEntity
  8
Layer 1
 62
     7
370
    25
100
AcDbPolyline
 90
        4
 70
     0
 43
0.0
 10
1116.2711
 20
134.7383
 10
1106.8868
 20
131.0706
 10
1098.3207
 20
125.6964
 10
1090.8396
 20
119.1864
  0
LWPOLYLINE
  5
20C
330
1F
100
AcDbEntity
  8
Layer 1
 62
     7
370
    25
100
AcDbPolyline
 90
        3
 70
     0
 43
0.0
 10
1090.841
 20
119.185
 10
1081.9943
 20
112.1257
 10
1072.0599
 20
107.8872
  0
LWPOLYLINE
  5
20D
330
1F
100
AcDbEntity
  8
Layer 1
 62
     7
370
    25
100
AcDbPolyline
 90
        3
 70
     0
 43
0.0
 10
1072.0599
 20
107.8886
 10
1065.6901
 20
106.7528
 10
1059.0607
 20
106.1878
  0
LWPOLYLINE
  5
20E
330
1F
100
AcDbEntity
  8
Layer 1
 62
     7
370
    25
100
AcDbPolyline
 90
        2
 70
     0
 43
0.0
 10
1059.0579
 20
106.1864
 10
439.3513
 20
106.1864
  0
LWPOLYLINE
  5
20F
330
1F
100
AcDbEntity
  8
Layer 1
 62
     7
370
    25
100
AcDbPolyline
 90
        3
 70
     0
 43
0.0
 10
1059.0579
 20
-369.9718
 10
1065.6887
 20
-370.5383
 10
1072.0571
 20
-371.6727
  0
LWPOLYLINE
  5
210
330
1F
100
AcDbEntity
  8
Layer 1
 62
     7
370
    25
100
AcDbPolyline
 90
        3
 70
     0
 43
0.0
 10
1072.0599
 20
-371.6741
 10
1081.9943
 20
-376.1958
 10
1090.841
 20
-382.9733
  0
LWPOLYLINE
  5
211
330
1F
100
AcDbEntity
  8
Layer 1
 62
     7
370
    25
100
AcDbPolyline
 90
        4
 70
     0
 43
0.0
 10
1090.841
 20
-382.9718
 10
1098.318
 20
-389.4819
 10
1106.8896
 20
-394.8561
 10
1116.2725
 20
-398.5252
  0
LWPOLYLINE
  5
212
330
1F
100
AcDbEntity
  8
Layer 1
 62
     7
370
    25
100
AcDbPolyline
 90
        4
 70
     0
 43
0.0
 10
1116.2711
 20
-398.5252
 10
1117.6548
 20
-399.9428
 10
1117.3783
 20
-401.9311
 10
1115.7335
 20
-403.0469
  0
LWPOLYLINE
  5
213
330
1F
100
AcDbEntity
  8
Layer 1
 62
     7
370
    25
100
AcDbPolyline
 90
        9
 70
     0
 43
0.0
 10
1115.7335
 20
-403.0483
 10
1024.2296
 20
-408.7044
 10
932.7438
 20
-412.9442
 10
840.9787
 20
-415.4976
 10
749.2123
 20
-416.3502
 10
657.4514
 20
-415.4976
 10
565.671
 20
-412.9442
 10
474.181
 20
-408.7044
 10
382.416
 20
-403.0483
  0
LWPOLYLINE
  5
214
330
1F
100
AcDbEntity
  8
Layer 1
 62
     7
370
    25
100
AcDbPolyline
 90
        5
 70
     0
 43
0.0
 10
382.4187
 20
-403.0483
 10
381.3101
 20
-402.2144
 10
380.4779
 20
-401.08
 10
380.7586
 20
-399.3792
 10
382.1423
 20
-398.5267
  0
LWPOLYLINE
  5
215
330
1F
100
AcDbEntity
  8
Layer 1
 62
     7
370
    25
100
AcDbPolyline
 90
        4
 70
     0
 43
0.0
 10
382.1409
 20
-398.5252
 10
391.2641
 20
-394.8561
 10
400.1108
 20
-389.4819
 10
407.5724
 20
-382.9718
  0
LWPOLYLINE
  5
216
330
1F
100
AcDbEntity
  8
Layer 1
 62
     7
370
    25
100
AcDbPolyline
 90
        3
 70
     0
 43
0.0
 10
407.571
 20
-382.9718
 10
416.4177
 20
-376.1958
 10
426.3716
 20
-371.6741
  0
LWPOLYLINE
  5
217
330
1F
100
AcDbEntity
  8
Layer 1
 62
     7
370
    25
100
AcDbPolyline
 90
        3
 70
     0
 43
0.0
 10
426.3702
 20
-371.6741
 10
432.7246
 20
-370.5397
 10
439.3541
 20
-369.9747
  0
LWPOLYLINE
  5
218
330
1F
100
AcDbEntity
  8
Layer 1
 62
     7
370
    25
100
AcDbPolyline
 90
        2
 70
     0
 43
0.0
 10
439.3527
 20
-369.9718
 10
1059.0607
 20
-369.9718
  0
LWPOLYLINE
  5
219
330
1F
100
AcDbEntity
  8
Layer 1
 62
     7
370
    25
100
AcDbPolyline
 90
       10
 70
     1
 43
0.0
 10
752.2435
 20
77.9162
 10
751.4114
 20
75.9279
 10
749.7666
 20
74.7921
 10
747.5549
 20
75.3629
 10
746.4463
 20
77.0637
 10
746.4463
 20
79.032
 10
747.5549
 20
80.7371
 10
749.7666
 20
81.0203
 10
751.4114
 20
79.8845
 10
752.2435
 20
77.9162
  0
LWPOLYLINE
  5
21A
330
1F
100
AcDbEntity
  8
Layer 1
 62
     7
370
    25
100
AcDbPolyline
 90
       10
 70
     1
 43
0.0
 10
752.2435
 20
-341.7031
 10
751.4114
 20
-343.6914
 10
749.7666
 20
-344.8272
 10
747.5549
 20
-344.2565
 10
746.4463
 20
-342.5557
 10
746.4463
 20
-340.5888
 10
747.5549
 20
-338.8822
 10
749.7666
 20
-338.6004
 10
751.4114
 20
-339.7348
 10
752.2435
 20
-341.7031
  0
LWPOLYLINE
  5
21B
330
1F
100
AcDbEntity
  8
Layer 1
 62
     7
370
    25
100
AcDbPolyline
 90
       20
 70
     1
 43
0.0
 10
808.9192
 20
-131.902
 10
808.087
 20
-127.9311
 10
806.4268
 20
-124.2577
 10
803.3774
 20
-121.4411
 10
799.7974
 20
-119.736
 10
795.6393
 20
-119.4527
 10
791.7829
 20
-120.5885
 10
788.4584
 20
-122.8386
 10
785.966
 20
-125.9628
 10
784.5963
 20
-129.9137
 10
784.5963
 20
-133.8703
 10
785.966
 20
-137.827
 10
788.4584
 20
-140.9454
 10
791.7829
 20
-143.2012
 10
795.6393
 20
-144.337
 10
799.7974
 20
-144.0495
 10
803.3774
 20
-142.3487
 10
806.4268
 20
-139.5278
 10
808.087
 20
-135.8587
 10
808.9192
 20
-131.902
  0
LWPOLYLINE
  5
21C
330
1F
100
AcDbEntity
  8
Layer 1
 62
     7
370
    25
100
AcDbPolyline
 90
       10
 70
     1
 43
0.0
 10
305.8534
 20
77.9162
 10
305.0198
 20
79.8845
 10
303.0846
 20
81.0203
 10
301.1633
 20
80.7371
 10
299.7741
 20
79.032
 10
299.7741
 20
77.0637
 10
301.1633
 20
75.3629
 10
303.0846
 20
74.7921
 10
305.0198
 20
75.9279
 10
305.8534
 20
77.9162
  0
LWPOLYLINE
  5
21D
330
1F
100
AcDbEntity
  8
Layer 1
 62
     7
370
    25
100
AcDbPolyline
 90
       10
 70
     1
 43
0.0
 10
305.8534
 20
-341.7031
 10
305.0198
 20
-339.7348
 10
303.0846
 20
-338.6004
 10
301.1633
 20
-338.8822
 10
299.7741
 20
-340.5888
 10
299.7741
 20
-342.5557
 10
301.1633
 20
-344.2565
 10
303.0846
 20
-344.8272
 10
305.0198
 20
-343.6914
 10
305.8534
 20
-341.7031
  0
LWPOLYLINE
  5
21E
330
1F
100
AcDbEntity
  8
Layer 1
 62
     7
370
    25
100
AcDbPolyline
 90
       10
 70
     1
 43
0.0
 10
1198.6519
 20
77.9162
 10
1198.1003
 20
79.8845
 10
1196.1595
 20
81.0203
 10
1194.2187
 20
80.7371
 10
1192.835
 20
79.032
 10
1192.835
 20
77.0637
 10
1194.2187
 20
75.3629
 10
1196.1595
 20
74.7921
 10
1198.1003
 20
75.9279
 10
1198.6519
 20
77.9162
  0
LWPOLYLINE
  5
21F
330
1F
100
AcDbEntity
  8
Layer 1
 62
   250
370
    25
100
AcDbPolyline
 90
       10
 70
     0
 43
0.0
 10
339.0202
 20
-491.5608
 10
429.9544
 20
-498.0508
 10
521.1833
 20
-502.8758
 10
612.3913
 20
-506.2617
 10
703.6006
 20
-507.685
 10
794.81
 20
-507.685
 10
886.0388
 20
-506.2617
 10
977.2482
 20
-502.8758
 10
1068.4575
 20
-498.0508
 10
1159.3904
 20
-491.5608
  0
LWPOLYLINE
  5
220
330
1F
100
AcDbEntity
  8
Layer 1
 62
   250
370
    25
100
AcDbPolyline
 90
       11
 70
     0
 43
0.0
 10
274.9011
 20
-420.8704
 10
275.7346
 20
-431.3314
 10
277.931
 20
-441.5148
 10
281.807
 20
-451.4107
 10
286.7777
 20
-460.7373
 10
293.4071
 20
-468.9324
 10
300.8841
 20
-476.2892
 10
309.4557
 20
-482.2342
 10
318.8344
 20
-486.7559
 10
328.7884
 20
-489.86
 10
339.0202
 20
-491.5594
  0
LWPOLYLINE
  5
221
330
1F
100
AcDbEntity
  8
Layer 1
 62
     7
370
    25
100
AcDbPolyline
 90
        3
 70
     0
 43
0.0
 10
426.3702
 20
-371.6741
 10
432.7246
 20
-370.5397
 10
439.3541
 20
-369.9747
  0
LWPOLYLINE
  5
222
330
1F
100
AcDbEntity
  8
Layer 1
 62
     7
370
    25
100
AcDbPolyline
 90
        3
 70
     0
 43
0.0
 10
407.571
 20
-382.9718
 10
416.4177
 20
-376.1958
 10
426.3716
 20
-371.6741
  0
LWPOLYLINE
  5
223
330
1F
100
AcDbEntity
  8
Layer 1
 62
     7
370
    25
100
AcDbPolyline
 90
       25
 70
     0
 43
0.0
 10
382.1409
 20
-398.5252
 10
383.801
 20
-397.9602
 10
385.7418
 20
-397.4095
 10
387.388
 20
-396.8401
 10
389.0468
 20
-395.9862
 10
389.6039
 20
-395.7044
 10
389.8804
 20
-395.4211
 10
390.4319
 20
-395.4211
 10
390.9876
 20
-395.1393
 10
391.8212
 20
-394.8561
 10
392.6477
 20
-394.2868
 10
394.3135
 20
-393.4328
 10
395.9527
 20
-392.3185
 10
396.2333
 20
-392.0352
 10
396.5098
 20
-392.0352
 10
397.0613
 20
-391.7477
 10
397.342
 20
-391.4659
 10
398.17
 20
-390.8994
 10
399.0021
 20
-390.3301
 10
400.6623
 20
-389.1943
 10
402.0516
 20
-388.0643
 10
403.4157
 20
-386.9442
 10
404.7994
 20
-385.5252
 10
406.1845
 20
-384.3909
 10
407.5724
 20
-382.9718
  0
LWPOLYLINE
  5
224
330
1F
100
AcDbEntity
  8
Layer 1
 62
     7
370
    25
100
AcDbPolyline
 90
       28
 70
     0
 43
0.0
 10
382.4187
 20
-403.0483
 10
382.4187
 20
-403.0483
 10
382.1423
 20
-402.7651
 10
381.8672
 20
-402.7651
 10
381.5866
 20
-402.7651
 10
381.5866
 20
-402.4976
 10
381.3101
 20
-402.4976
 10
381.3101
 20
-402.2144
 10
381.0337
 20
-402.2144
 10
381.0337
 20
-401.9326
 10
380.7586
 20
-401.9326
 10
380.7586
 20
-401.6451
 10
380.4779
 20
-401.3618
 10
380.4779
 20
-401.08
 10
380.4779
 20
-400.7968
 10
380.4779
 20
-400.5093
 10
380.4779
 20
-400.2275
 10
380.7586
 20
-399.9442
 10
380.7586
 20
-399.661
 10
380.7586
 20
-399.3792
 10
381.0337
 20
-399.3792
 10
381.0337
 20
-399.0917
 10
381.3101
 20
-399.0917
 10
381.3101
 20
-398.8085
 10
381.5866
 20
-398.8085
 10
381.8672
 20
-398.8085
 10
381.8672
 20
-398.5267
 10
382.1423
 20
-398.5267
  0
LWPOLYLINE
  5
225
330
1F
100
AcDbEntity
  8
Layer 1
 62
     7
370
    25
100
AcDbPolyline
 90
        9
 70
     0
 43
0.0
 10
1115.7335
 20
-403.0483
 10
1024.2296
 20
-408.7044
 10
932.7438
 20
-412.9442
 10
840.9787
 20
-415.4976
 10
749.2123
 20
-416.3502
 10
657.4514
 20
-415.4976
 10
565.671
 20
-412.9442
 10
474.181
 20
-408.7044
 10
382.416
 20
-403.0483
  0
LWPOLYLINE
  5
226
330
1F
100
AcDbEntity
  8
Layer 1
 62
     7
370
    25
100
AcDbPolyline
 90
        4
 70
     0
 43
0.0
 10
1116.2711
 20
-398.5252
 10
1117.6548
 20
-399.9428
 10
1117.3783
 20
-401.9311
 10
1115.7335
 20
-403.0469
  0
LWPOLYLINE
  5
227
330
1F
100
AcDbEntity
  8
Layer 1
 62
     7
370
    25
100
AcDbPolyline
 90
        4
 70
     0
 43
0.0
 10
1090.841
 20
-382.9718
 10
1098.318
 20
-389.4819
 10
1106.8896
 20
-394.8561
 10
1116.2725
 20
-398.5252
  0
LWPOLYLINE
  5
228
330
1F
100
AcDbEntity
  8
Layer 1
 62
     7
370
    25
100
AcDbPolyline
 90
        3
 70
     0
 43
0.0
 10
1072.0599
 20
-371.6741
 10
1081.9943
 20
-376.1958
 10
1090.841
 20
-382.9733
  0
LWPOLYLINE
  5
229
330
1F
100
AcDbEntity
  8
Layer 1
 62
     7
370
    25
100
AcDbPolyline
 90
        3
 70
     0
 43
0.0
 10
1059.0579
 20
-369.9718
 10
1065.6887
 20
-370.5383
 10
1072.0571
 20
-371.6727
  0
LWPOLYLINE
  5
22A
330
1F
100
AcDbEntity
  8
Layer 1
 62
     7
370
    25
100
AcDbPolyline
 90
        2
 70
     0
 43
0.0
 10
439.3527
 20
-369.9718
 10
1059.0607
 20
-369.9718
  0
LWPOLYLINE
  5
22B
330
1F
100
AcDbEntity
  8
Layer 1
 62
     7
370
    25
100
AcDbPolyline
 90
        2
 70
     0
 43
0.0
 10
679.5556
 20
134.7383
 10
818.8745
 20
134.7383
  0
LWPOLYLINE
  5
22C
330
1F
100
AcDbEntity
  8
Layer 1
 62
     7
370
    25
100
AcDbPolyline
 90
        2
 70
     0
 43
0.0
 10
818.8731
 20
134.7383
 10
818.8731
 20
132.2007
  0
LWPOLYLINE
  5
22D
330
1F
100
AcDbEntity
  8
Layer 1
 62
     7
370
    25
100
AcDbPolyline
 90
        3
 70
     0
 43
0.0
 10
816.1029
 20
129.3655
 10
816.9351
 20
129.6473
 10
817.4866
 20
129.9306
  0
LWPOLYLINE
  5
22E
330
1F
100
AcDbEntity
  8
Layer 1
 62
     7
370
    25
100
AcDbPolyline
 90
        3
 70
     0
 43
0.0
 10
818.3188
 20
130.7846
 10
818.5953
 20
131.3496
 10
818.8703
 20
132.2021
  0
LWPOLYLINE
  5
22F
330
1F
100
AcDbEntity
  8
Layer 1
 62
     7
370
    25
100
AcDbPolyline
 90
        2
 70
     0
 43
0.0
 10
816.1029
 20
129.3655
 10
682.3258
 20
129.3655
  0
LWPOLYLINE
  5
230
330
1F
100
AcDbEntity
  8
Layer 1
 62
     7
370
    25
100
AcDbPolyline
 90
        3
 70
     0
 43
0.0
 10
679.5556
 20
132.2036
 10
679.8321
 20
131.3496
 10
680.1085
 20
130.5028
  0
LWPOLYLINE
  5
231
330
1F
100
AcDbEntity
  8
Layer 1
 62
     7
370
    25
100
AcDbPolyline
 90
        3
 70
     0
 43
0.0
 10
680.9407
 20
129.932
 10
681.4936
 20
129.6502
 10
682.3258
 20
129.367
  0
LWPOLYLINE
  5
232
330
1F
100
AcDbEntity
  8
Layer 1
 62
     7
370
    25
100
AcDbPolyline
 90
        2
 70
     0
 43
0.0
 10
679.5556
 20
132.2036
 10
679.5556
 20
134.7412
  0
LWPOLYLINE
  5
233
330
1F
100
AcDbEntity
  8
Layer 1
 62
     7
370
    25
100
AcDbPolyline
 90
        3
 70
     0
 43
0.0
 10
439.3527
 20
106.1864
 10
432.7232
 20
106.7514
 10
426.3688
 20
107.8872
  0
LWPOLYLINE
  5
234
330
1F
100
AcDbEntity
  8
Layer 1
 62
     7
370
    25
100
AcDbPolyline
 90
        3
 70
     0
 43
0.0
 10
426.3702
 20
107.8886
 10
416.4149
 20
112.1271
 10
407.5682
 20
119.1864
  0
LWPOLYLINE
  5
235
330
1F
100
AcDbEntity
  8
Layer 1
 62
     7
370
    25
100
AcDbPolyline
 90
       27
 70
     0
 43
0.0
 10
407.571
 20
119.185
 10
406.1859
 20
120.604
 10
404.8022
 20
121.7383
 10
403.4185
 20
123.1573
 10
402.0488
 20
124.2774
 10
401.4917
 20
124.5592
 10
401.2166
 20
124.8424
 10
400.9401
 20
125.1257
 10
400.3886
 20
125.4132
 10
399.8315
 20
125.9782
 10
398.9993
 20
126.5432
 10
397.3392
 20
127.679
 10
395.6804
 20
128.5158
 10
395.6804
 20
128.7991
 10
395.3984
 20
128.7991
 10
395.1233
 20
129.0809
 10
394.8469
 20
129.0809
 10
394.5858
 20
129.3641
 10
394.0342
 20
129.6459
 10
393.2021
 20
129.9349
 10
392.3699
 20
130.4999
 10
390.7097
 20
131.3524
 10
389.0496
 20
132.205
 10
387.3852
 20
132.77
 10
385.7404
 20
133.6026
 10
383.8038
 20
134.1733
 10
382.1395
 20
134.7383
  0
LWPOLYLINE
  5
236
330
1F
100
AcDbEntity
  8
Layer 1
 62
     7
370
    25
100
AcDbPolyline
 90
       28
 70
     0
 43
0.0
 10
382.1409
 20
134.7383
 10
381.8658
 20
134.7383
 10
381.5894
 20
135.0216
 10
381.3087
 20
135.0216
 10
381.3087
 20
135.3034
 10
381.0337
 20
135.3034
 10
381.0337
 20
135.5923
 10
380.7572
 20
135.5923
 10
380.7572
 20
135.8741
 10
380.7572
 20
136.1574
 10
380.4821
 20
136.1574
 10
380.4821
 20
136.4392
 10
380.4821
 20
136.7267
 10
380.4821
 20
137.0099
 10
380.4821
 20
137.2917
 10
380.4821
 20
137.5749
 10
380.7572
 20
137.5749
 10
380.7572
 20
137.8625
 10
380.7572
 20
138.1457
 10
381.0337
 20
138.1457
 10
381.0337
 20
138.4275
 10
381.3087
 20
138.4275
 10
381.3087
 20
138.695
 10
381.5894
 20
138.695
 10
381.5894
 20
138.9782
 10
381.8658
 20
138.9782
 10
382.1409
 20
138.9782
 10
382.4173
 20
138.9782
  0
LWPOLYLINE
  5
237
330
1F
100
AcDbEntity
  8
Layer 1
 62
     7
370
    25
100
AcDbPolyline
 90
        9
 70
     0
 43
0.0
 10
382.4187
 20
138.9768
 10
474.1838
 20
144.9161
 10
565.6696
 20
149.1559
 10
657.45
 20
151.7093
 10
749.2151
 20
152.5619
 10
840.9815
 20
151.7093
 10
932.7424
 20
149.1559
 10
1024.2324
 20
144.9161
 10
1115.7363
 20
138.9768
  0
LWPOLYLINE
  5
238
330
1F
100
AcDbEntity
  8
Layer 1
 62
     7
370
    25
100
AcDbPolyline
 90
        4
 70
     0
 43
0.0
 10
1115.7335
 20
138.9768
 10
1117.3797
 20
138.1443
 10
1117.6548
 20
136.1559
 10
1116.2711
 20
134.7383
  0
LWPOLYLINE
  5
239
330
1F
100
AcDbEntity
  8
Layer 1
 62
     7
370
    25
100
AcDbPolyline
 90
        4
 70
     0
 43
0.0
 10
1116.2711
 20
134.7383
 10
1106.8868
 20
131.0706
 10
1098.3207
 20
125.6964
 10
1090.8396
 20
119.1864
  0
LWPOLYLINE
  5
23A
330
1F
100
AcDbEntity
  8
Layer 1
 62
     7
370
    25
100
AcDbPolyline
 90
        3
 70
     0
 43
0.0
 10
1090.841
 20
119.185
 10
1081.9943
 20
112.1257
 10
1072.0599
 20
107.8872
  0
LWPOLYLINE
  5
23B
330
1F
100
AcDbEntity
  8
Layer 1
 62
     7
370
    25
100
AcDbPolyline
 90
        3
 70
     0
 43
0.0
 10
1072.0599
 20
107.8886
 10
1065.6901
 20
106.7528
 10
1059.0607
 20
106.1878
  0
LWPOLYLINE
  5
23C
330
1F
100
AcDbEntity
  8
Layer 1
 62
     7
370
    25
100
AcDbPolyline
 90
        2
 70
     0
 43
0.0
 10
1059.0579
 20
106.1864
 10
439.3513
 20
106.1864
  0
LWPOLYLINE
  5
23D
330
1F
100
AcDbEntity
  8
Layer 1
 62
   251
100
AcDbPolyline
 90
       17
 70
     1
 43
0.0
 10
682.1917
 20
129.4113
 10
680.1085
 20
130.5013
 10
679.5961
 20
132.0848
 10
679.557
 20
134.149
 10
679.557
 20
134.7398
 10
760.7663
 20
134.7398
 10
787.7588
 20
134.7398
 10
806.9407
 20
134.9973
 10
817.3233
 20
134.7398
 10
818.6092
 20
134.7398
 10
818.8745
 20
133.5739
 10
818.5939
 20
131.3539
 10
817.9446
 20
130.5156
 10
816.1015
 20
129.3655
 10
813.1066
 20
129.0923
 10
810.5905
 20
129.0923
 10
682.1917
 20
129.4113
  0
LWPOLYLINE
  5
23E
330
1F
100
AcDbEntity
  8
Layer 1
 62
   250
100
AcDbPolyline
 90
        9
 70
     1
 43
0.0
 10
1306.7789
 20
210.1814
 10
1374.3168
 20
210.1814
 10
1374.3168
 20
202.801
 10
1344.1505
 20
202.801
 10
1344.1505
 20
80.0836
 10
1336.9465
 20
80.0836
 10
1336.9465
 20
202.801
 10
1306.7789
 20
202.801
 10
1306.7789
 20
210.1814
  0
LWPOLYLINE
  5
23F
330
1F
100
AcDbEntity
  8
Layer 1
 62
   250
100
AcDbPolyline
 90
       65
 70
     1
 43
0.0
 10
1345.8703
 20
-50.084
 10
1345.8312
 20
-51.0118
 10
1345.7138
 20
-51.9035
 10
1345.5182
 20
-52.7592
 10
1345.2443
 20
-53.5787
 10
1344.8922
 20
-54.3622
 10
1344.4619
 20
-55.1095
 10
1343.9533
 20
-55.8206
 10
1343.3664
 20
-56.4956
 10
1342.7304
 20
-57.1041
 10
1342.058
 20
-57.6315
 10
1341.3492
 20
-58.0778
 10
1340.6041
 20
-58.4429
 10
1339.8226
 20
-58.7269
 10
1339.0048
 20
-58.9297
 10
1338.1507
 20
-59.0514
 10
1337.2603
 20
-59.092
 10
1336.3785
 20
-59.0519
 10
1335.5261
 20
-58.9317
 10
1334.7033
 20
-58.7313
 10
1333.91
 20
-58.4507
 10
1333.1463
 20
-58.09
 10
1332.4121
 20
-57.6491
 10
1331.7075
 20
-57.128
 10
1331.0325
 20
-56.5268
 10
1330.4171
 20
-55.8684
 10
1329.8838
 20
-55.1679
 10
1329.4325
 20
-54.4255
 10
1329.0633
 20
-53.6411
 10
1328.7761
 20
-52.8147
 10
1328.571
 20
-51.9464
 10
1328.4479
 20
-51.0361
 10
1328.4069
 20
-50.084
 10
1328.4479
 20
-49.1314
 10
1328.571
 20
-48.2208
 10
1328.7761
 20
-47.3523
 10
1329.0633
 20
-46.5257
 10
1329.4325
 20
-45.7412
 10
1329.8838
 20
-44.9987
 10
1330.4171
 20
-44.2982
 10
1331.0325
 20
-43.6398
 10
1331.7075
 20
-43.0387
 10
1332.4121
 20
-42.5178
 10
1333.1463
 20
-42.0771
 10
1333.91
 20
-41.7167
 10
1334.7033
 20
-41.4364
 10
1335.5261
 20
-41.2362
 10
1336.3785
 20
-41.1161
 10
1337.2603
 20
-41.0761
 10
1338.1507
 20
-41.1166
 10
1339.0048
 20
-41.2381
 10
1339.8226
 20
-41.4408
 10
1340.6041
 20
-41.7245
 10
1341.3492
 20
-42.0893
 10
1342.058
 20
-42.5353
 10
1342.7304
 20
-43.0625
 10
1343.3664
 20
-43.671
 10
1343.9533
 20
-44.346
 10
1344.4619
 20
-45.0571
 10
1344.8922
 20
-45.8045
 10
1345.2443
 20
-46.588
 10
1345.5182
 20
-47.4078
 10
1345.7138
 20
-48.2637
 10
1345.8312
 20
-49.1557
 10
1345.8703
 20
-50.084
  0
LWPOLYLINE
  5
240
330
1F
100
AcDbEntity
  8
Layer 1
 62
   250
100
AcDbPolyline
 90
       65
 70
     1
 43
0.0
 10
1362.7223
 20
-50.084
 10
1362.6918
 20
-50.832
 10
1362.6003
 20
-51.5517
 10
1362.4477
 20
-52.2431
 10
1362.2342
 20
-52.9063
 10
1361.9595
 20
-53.5411
 10
1361.6238
 20
-54.1475
 10
1361.2269
 20
-54.7256
 10
1360.769
 20
-55.2753
 10
1360.2543
 20
-55.7884
 10
1359.71
 20
-56.2331
 10
1359.1361
 20
-56.6094
 10
1358.5327
 20
-56.9174
 10
1357.8997
 20
-57.1569
 10
1357.2372
 20
-57.3281
 10
1356.5451
 20
-57.4308
 10
1355.8236
 20
-57.465
 10
1355.1173
 20
-57.4308
 10
1354.4341
 20
-57.3281
 10
1353.7738
 20
-57.1569
 10
1353.1366
 20
-56.9174
 10
1352.5222
 20
-56.6094
 10
1351.9306
 20
-56.2331
 10
1351.3618
 20
-55.7884
 10
1350.8158
 20
-55.2753
 10
1350.3293
 20
-54.729
 10
1349.9078
 20
-54.1533
 10
1349.5511
 20
-53.5483
 10
1349.2594
 20
-52.914
 10
1349.0325
 20
-52.2504
 10
1348.8704
 20
-51.5575
 10
1348.7732
 20
-50.8354
 10
1348.7408
 20
-50.084
 10
1348.7732
 20
-49.3321
 10
1348.8704
 20
-48.6097
 10
1349.0325
 20
-47.9165
 10
1349.2594
 20
-47.2528
 10
1349.5511
 20
-46.6183
 10
1349.9078
 20
-46.0133
 10
1350.3293
 20
-45.4376
 10
1350.8158
 20
-44.8913
 10
1351.3618
 20
-44.3782
 10
1351.9306
 20
-43.9335
 10
1352.5222
 20
-43.5572
 10
1353.1366
 20
-43.2492
 10
1353.7738
 20
-43.0097
 10
1354.4341
 20
-42.8385
 10
1355.1173
 20
-42.7358
 10
1355.8236
 20
-42.7016
 10
1356.5451
 20
-42.7358
 10
1357.2372
 20
-42.8385
 10
1357.8997
 20
-43.0097
 10
1358.5327
 20
-43.2492
 10
1359.1361
 20
-43.5572
 10
1359.71
 20
-43.9335
 10
1360.2543
 20
-44.3782
 10
1360.769
 20
-44.8913
 10
1361.2269
 20
-45.441
 10
1361.6238
 20
-46.0192
 10
1361.9595
 20
-46.6257
 10
1362.2342
 20
-47.2606
 10
1362.4477
 20
-47.9238
 10
1362.6003
 20
-48.6155
 10
1362.6918
 20
-49.3356
 10
1362.7223
 20
-50.084
  0
LWPOLYLINE
  5
241
330
1F
100
AcDbEntity
  8
Layer 1
 62
   250
100
AcDbPolyline
 90
      121
 70
     1
 43
0.0
 10
1324.1337
 20
-50.084
 10
1324.1866
 20
-51.5171
 10
1324.3454
 20
-52.8927
 10
1324.61
 20
-54.2107
 10
1324.9805
 20
-55.4711
 10
1325.4569
 20
-56.6738
 10
1326.0391
 20
-57.8187
 10
1326.7274
 20
-58.9059
 10
1327.5215
 20
-59.9352
 10
1327.9368
 20
-60.3995
 10
1328.373
 20
-60.8382
 10
1328.8301
 20
-61.2514
 10
1329.3081
 20
-61.6392
 10
1329.8071
 20
-62.0016
 10
1330.327
 20
-62.3386
 10
1330.8678
 20
-62.6503
 10
1331.4295
 20
-62.9368
 10
1332.0127
 20
-63.1936
 10
1332.6168
 20
-63.4161
 10
1333.2418
 20
-63.6044
 10
1333.8878
 20
-63.7585
 10
1334.5546
 20
-63.8783
 10
1335.2424
 20
-63.9639
 10
1335.9511
 20
-64.0153
 10
1336.6807
 20
-64.0324
 10
1337.4203
 20
-64.0035
 10
1338.1579
 20
-63.9169
 10
1338.8936
 20
-63.7726
 10
1339.6273
 20
-63.5705
 10
1340.3591
 20
-63.3108
 10
1341.089
 20
-62.9934
 10
1341.8171
 20
-62.6184
 10
1342.5434
 20
-62.1857
 10
1343.2516
 20
-61.7003
 10
1343.9265
 20
-61.1648
 10
1344.5681
 20
-60.5792
 10
1345.1763
 20
-59.9437
 10
1345.751
 20
-59.2582
 10
1346.2923
 20
-58.5228
 10
1346.8001
 20
-57.7375
 10
1347.2744
 20
-56.9024
 10
1348.3081
 20
-58.0897
 10
1349.3637
 20
-59.1188
 10
1350.4414
 20
-59.9896
 10
1351.541
 20
-60.7021
 10
1352.6627
 20
-61.2563
 10
1353.8063
 20
-61.6522
 10
1354.972
 20
-61.8897
 10
1356.1597
 20
-61.9689
 10
1357.3307
 20
-61.9146
 10
1358.4473
 20
-61.7518
 10
1359.5096
 20
-61.4805
 10
1360.5175
 20
-61.1007
 10
1361.4709
 20
-60.6124
 10
1362.37
 20
-60.0156
 10
1363.2146
 20
-59.3104
 10
1364.0047
 20
-58.4967
 10
1364.6919
 20
-57.6366
 10
1365.2874
 20
-56.7217
 10
1365.7912
 20
-55.7522
 10
1366.2034
 20
-54.7279
 10
1366.5239
 20
-53.649
 10
1366.7529
 20
-52.5154
 10
1366.8902
 20
-51.327
 10
1366.936
 20
-50.084
 10
1366.8902
 20
-48.8405
 10
1366.7529
 20
-47.6518
 10
1366.5239
 20
-46.5179
 10
1366.2034
 20
-45.4388
 10
1365.7912
 20
-44.4145
 10
1365.2874
 20
-43.4449
 10
1364.6919
 20
-42.53
 10
1364.0047
 20
-41.6699
 10
1363.215
 20
-40.8562
 10
1362.3719
 20
-40.151
 10
1361.4752
 20
-39.5542
 10
1360.5251
 20
-39.0659
 10
1359.5215
 20
-38.6861
 10
1358.4645
 20
-38.4148
 10
1357.3541
 20
-38.252
 10
1356.1902
 20
-38.1977
 10
1354.9954
 20
-38.2769
 10
1353.8235
 20
-38.5144
 10
1352.6746
 20
-38.9103
 10
1351.5487
 20
-39.4645
 10
1350.4457
 20
-40.177
 10
1349.3656
 20
-41.0478
 10
1348.3085
 20
-42.0769
 10
1347.2744
 20
-43.2643
 10
1346.8001
 20
-42.4291
 10
1346.2923
 20
-41.6438
 10
1345.751
 20
-40.9083
 10
1345.1763
 20
-40.2227
 10
1344.5681
 20
-39.587
 10
1343.9265
 20
-39.0012
 10
1343.2516
 20
-38.4653
 10
1342.5434
 20
-37.9794
 10
1341.8157
 20
-37.5468
 10
1341.0833
 20
-37.1719
 10
1340.3462
 20
-36.8548
 10
1339.6045
 20
-36.5953
 10
1338.8579
 20
-36.3936
 10
1338.1066
 20
-36.2495
 10
1337.3504
 20
-36.163
 10
1336.5894
 20
-36.1342
 10
1335.2254
 20
-36.1982
 10
1333.9273
 20
-36.3903
 10
1332.6952
 20
-36.7104
 10
1331.5289
 20
-37.1585
 10
1330.4285
 20
-37.7347
 10
1329.3938
 20
-38.4389
 10
1328.4248
 20
-39.2711
 10
1327.5215
 20
-40.2314
 10
1326.7274
 20
-41.2612
 10
1326.0391
 20
-42.3485
 10
1325.4569
 20
-43.4936
 10
1324.9805
 20
-44.6963
 10
1324.61
 20
-45.9566
 10
1324.3454
 20
-47.2747
 10
1324.1866
 20
-48.6505
 10
1324.1337
 20
-50.084
  0
LWPOLYLINE
  5
242
330
1F
100
AcDbEntity
  8
Layer 1
 62
   250
100
AcDbPolyline
 90
      136
 70
     1
 43
0.0
 10
1350.8767
 20
-77.7314
 10
1361.9906
 20
-80.6083
 10
1361.9906
 20
-95.9966
 10
1366.2651
 20
-95.9966
 10
1366.2651
 20
-77.2934
 10
1347.641
 20
-72.4139
 10
1345.5646
 20
-77.1687
 10
1346.0226
 20
-77.8582
 10
1346.4196
 20
-78.5819
 10
1346.7555
 20
-79.3398
 10
1347.0304
 20
-80.1318
 10
1347.2443
 20
-80.9581
 10
1347.3971
 20
-81.8186
 10
1347.4887
 20
-82.7134
 10
1347.5193
 20
-83.6426
 10
1347.4745
 20
-84.5772
 10
1347.34
 20
-85.4805
 10
1347.1158
 20
-86.3525
 10
1346.8019
 20
-87.1932
 10
1346.3982
 20
-88.0025
 10
1345.9049
 20
-88.7806
 10
1345.3217
 20
-89.5273
 10
1344.6488
 20
-90.2427
 10
1343.8987
 20
-90.917
 10
1343.1208
 20
-91.5014
 10
1342.3153
 20
-91.9959
 10
1341.482
 20
-92.4005
 10
1340.621
 20
-92.7151
 10
1339.7323
 20
-92.9399
 10
1338.8159
 20
-93.0747
 10
1337.8718
 20
-93.1197
 10
1336.8954
 20
-93.0738
 10
1335.958
 20
-92.936
 10
1335.0598
 20
-92.7064
 10
1334.2007
 20
-92.3849
 10
1333.3808
 20
-91.9715
 10
1332.5999
 20
-91.4663
 10
1331.8582
 20
-90.8693
 10
1331.1556
 20
-90.1804
 10
1330.8431
 20
-89.83
 10
1330.5468
 20
-89.4668
 10
1330.2666
 20
-89.0909
 10
1330.0027
 20
-88.7022
 10
1329.7551
 20
-88.3009
 10
1329.5236
 20
-87.887
 10
1329.3085
 20
-87.4605
 10
1329.1096
 20
-87.0214
 10
1328.9308
 20
-86.5628
 10
1328.7757
 20
-86.0789
 10
1328.6445
 20
-85.5696
 10
1328.5371
 20
-85.0349
 10
1328.4535
 20
-84.4749
 10
1328.3938
 20
-83.8894
 10
1328.358
 20
-83.2785
 10
1328.346
 20
-82.6421
 10
1328.3727
 20
-81.9935
 10
1328.4528
 20
-81.3459
 10
1328.5863
 20
-80.6992
 10
1328.7733
 20
-80.0535
 10
1329.0137
 20
-79.4088
 10
1329.3076
 20
-78.765
 10
1329.6549
 20
-78.1223
 10
1330.0558
 20
-77.4805
 10
1330.4996
 20
-76.8631
 10
1330.9758
 20
-76.2925
 10
1331.4843
 20
-75.7688
 10
1332.0252
 20
-75.2918
 10
1332.5985
 20
-74.8617
 10
1333.2042
 20
-74.4784
 10
1333.8424
 20
-74.1419
 10
1334.513
 20
-73.8524
 10
1333.1698
 20
-69.5993
 10
1332.1648
 20
-70.017
 10
1331.2103
 20
-70.5042
 10
1330.3064
 20
-71.0608
 10
1329.453
 20
-71.6869
 10
1328.6502
 20
-72.3824
 10
1327.8979
 20
-73.1473
 10
1327.1961
 20
-73.9817
 10
1326.5449
 20
-74.8856
 10
1325.9509
 20
-75.8461
 10
1325.4361
 20
-76.8281
 10
1325.0005
 20
-77.8318
 10
1324.6442
 20
-78.857
 10
1324.367
 20
-79.9038
 10
1324.169
 20
-80.9721
 10
1324.0502
 20
-82.062
 10
1324.0106
 20
-83.1735
 10
1324.076
 20
-84.6544
 10
1324.2722
 20
-86.0786
 10
1324.5991
 20
-87.4461
 10
1325.0568
 20
-88.7569
 10
1325.6451
 20
-90.011
 10
1326.3641
 20
-91.2084
 10
1327.2137
 20
-92.349
 10
1328.1939
 20
-93.4329
 10
1329.258
 20
-94.4151
 10
1330.3747
 20
-95.2663
 10
1331.5439
 20
-95.9866
 10
1332.7657
 20
-96.576
 10
1334.0399
 20
-97.0344
 10
1335.3666
 20
-97.3618
 10
1336.7458
 20
-97.5582
 10
1338.1775
 20
-97.6237
 10
1339.6011
 20
-97.5592
 10
1340.9647
 20
-97.3657
 10
1342.2684
 20
-97.0431
 10
1343.512
 20
-96.5916
 10
1344.6957
 20
-96.011
 10
1345.8192
 20
-95.3014
 10
1346.8826
 20
-94.4629
 10
1347.8859
 20
-93.4953
 10
1348.3316
 20
-93.0007
 10
1348.7536
 20
-92.4865
 10
1349.1519
 20
-91.9529
 10
1349.5264
 20
-91.3997
 10
1349.877
 20
-90.827
 10
1350.2038
 20
-90.2347
 10
1350.5066
 20
-89.6228
 10
1350.7854
 20
-88.9913
 10
1351.036
 20
-88.3471
 10
1351.2532
 20
-87.6972
 10
1351.437
 20
-87.0417
 10
1351.5874
 20
-86.3807
 10
1351.7043
 20
-85.7143
 10
1351.7879
 20
-85.0427
 10
1351.838
 20
-84.3659
 10
1351.8547
 20
-83.6842
 10
1351.8394
 20
-82.9893
 10
1351.7936
 20
-82.2806
 10
1351.7172
 20
-81.558
 10
1351.6102
 20
-80.8214
 10
1351.4727
 20
-80.0705
 10
1351.3046
 20
-79.3053
 10
1351.1059
 20
-78.5257
 10
1350.8767
 20
-77.7314
  0
LWPOLYLINE
  5
243
330
1F
100
AcDbEntity
  8
Layer 1
 62
   250
100
AcDbPolyline
 90
      129
 70
     1
 43
0.0
 10
1361.4414
 20
-121.8626
 10
1360.9623
 20
-122.5852
 10
1360.4185
 20
-123.2588
 10
1359.8097
 20
-123.8834
 10
1359.1362
 20
-124.4592
 10
1358.3977
 20
-124.9859
 10
1357.5944
 20
-125.4638
 10
1356.7262
 20
-125.8929
 10
1355.7931
 20
-126.273
 10
1354.555
 20
-126.6983
 10
1353.2988
 20
-127.0669
 10
1352.0245
 20
-127.3787
 10
1350.7321
 20
-127.6338
 10
1349.4217
 20
-127.8321
 10
1348.0932
 20
-127.9738
 10
1346.7466
 20
-128.0588
 10
1345.382
 20
-128.0871
 10
1345.0543
 20
-128.0842
 10
1344.7123
 20
-128.0754
 10
1344.356
 20
-128.0608
 10
1343.9853
 20
-128.0403
 10
1343.6004
 20
-128.014
 10
1343.2011
 20
-127.9818
 10
1342.7874
 20
-127.9438
 10
1342.3594
 20
-127.9
 10
1340.7181
 20
-127.683
 10
1339.1673
 20
-127.3996
 10
1337.7072
 20
-127.0496
 10
1336.3377
 20
-126.6332
 10
1335.0588
 20
-126.1503
 10
1333.8705
 20
-125.601
 10
1332.7728
 20
-124.9853
 10
1331.7657
 20
-124.3031
 10
1331.0072
 20
-123.6803
 10
1330.3499
 20
-123.0244
 10
1329.7937
 20
-122.3353
 10
1329.3388
 20
-121.613
 10
1328.9849
 20
-120.8575
 10
1328.7322
 20
-120.0688
 10
1328.5805
 20
-119.2469
 10
1328.53
 20
-118.3918
 10
1328.5801
 20
-117.4372
 10
1328.7303
 20
-116.5286
 10
1328.9806
 20
-115.6659
 10
1329.3311
 20
-114.8492
 10
1329.7818
 20
-114.0785
 10
1330.3327
 20
-113.3538
 10
1330.9838
 20
-112.6752
 10
1331.7352
 20
-112.0426
 10
1332.0996
 20
-111.7746
 10
1332.4755
 20
-111.5184
 10
1332.8629
 20
-111.2741
 10
1333.2618
 20
-111.0415
 10
1333.672
 20
-110.8206
 10
1334.0937
 20
-110.6115
 10
1334.5266
 20
-110.4142
 10
1334.9709
 20
-110.2285
 10
1335.4228
 20
-110.0541
 10
1335.8775
 20
-109.8904
 10
1336.3351
 20
-109.7374
 10
1336.7956
 20
-109.5951
 10
1337.2589
 20
-109.4635
 10
1337.725
 20
-109.3426
 10
1338.194
 20
-109.2324
 10
1338.6659
 20
-109.133
 10
1339.1372
 20
-109.0428
 10
1339.6046
 20
-108.9593
 10
1340.0681
 20
-108.8826
 10
1340.5278
 20
-108.8127
 10
1340.9837
 20
-108.7496
 10
1341.4358
 20
-108.6933
 10
1341.8842
 20
-108.6439
 10
1342.3289
 20
-108.6015
 10
1342.7803
 20
-108.565
 10
1343.2487
 20
-108.5333
 10
1343.734
 20
-108.5065
 10
1344.236
 20
-108.4846
 10
1344.7547
 20
-108.4676
 10
1345.2899
 20
-108.4554
 10
1345.8415
 20
-108.4481
 10
1346.4094
 20
-108.4457
 10
1347.0031
 20
-108.4564
 10
1347.6311
 20
-108.4886
 10
1348.2936
 20
-108.5422
 10
1348.9908
 20
-108.6173
 10
1349.7227
 20
-108.714
 10
1350.4896
 20
-108.8321
 10
1351.2915
 20
-108.9718
 10
1352.1286
 20
-109.133
 10
1352.5938
 20
-109.232
 10
1353.0581
 20
-109.3407
 10
1353.5214
 20
-109.4591
 10
1353.9837
 20
-109.5873
 10
1354.4451
 20
-109.7252
 10
1354.9056
 20
-109.8729
 10
1355.3651
 20
-110.0303
 10
1355.8236
 20
-110.1974
 10
1356.2759
 20
-110.3757
 10
1356.7167
 20
-110.5668
 10
1357.1459
 20
-110.7705
 10
1357.5637
 20
-110.987
 10
1357.9699
 20
-111.2161
 10
1358.3648
 20
-111.4581
 10
1358.7481
 20
-111.7128
 10
1359.1201
 20
-111.9803
 10
1359.4773
 20
-112.2605
 10
1359.8164
 20
-112.5545
 10
1360.1375
 20
-112.8622
 10
1360.4405
 20
-113.1836
 10
1360.7254
 20
-113.5188
 10
1360.9923
 20
-113.8676
 10
1361.2411
 20
-114.2301
 10
1361.4718
 20
-114.6063
 10
1361.6792
 20
-114.9986
 10
1361.859
 20
-115.4083
 10
1362.0111
 20
-115.8355
 10
1362.1357
 20
-116.2801
 10
1362.2326
 20
-116.7423
 10
1362.3018
 20
-117.2221
 10
1362.3433
 20
-117.7195
 10
1362.3572
 20
-118.2345
 10
1362.3429
 20
-118.75
 10
1362.2999
 20
-119.2477
 10
1362.2283
 20
-119.7276
 10
1362.1281
 20
-120.1899
 10
1361.9992
 20
-120.6345
 10
1361.8418
 20
-121.0614
 10
1361.6559
 20
-121.4708
 10
1361.4414
 20
-121.8626
  0
LWPOLYLINE
  5
244
330
1F
100
AcDbEntity
  8
Layer 1
 62
   250
100
AcDbPolyline
 90
       65
 70
     1
 43
0.0
 10
1324.1946
 20
-118.4542
 10
1324.3076
 20
-120.2804
 10
1324.6467
 20
-121.9903
 10
1325.2119
 20
-123.5839
 10
1326.0031
 20
-125.0611
 10
1327.0205
 20
-126.4221
 10
1328.264
 20
-127.6669
 10
1329.7337
 20
-128.7953
 10
1331.4295
 20
-129.8076
 10
1332.9094
 20
-130.5189
 10
1334.4713
 20
-131.1353
 10
1336.1153
 20
-131.6569
 10
1337.8412
 20
-132.0835
 10
1339.6491
 20
-132.4153
 10
1341.539
 20
-132.6523
 10
1343.5108
 20
-132.7945
 10
1345.5646
 20
-132.8419
 10
1347.6188
 20
-132.7945
 10
1349.591
 20
-132.6523
 10
1351.4812
 20
-132.4153
 10
1353.2893
 20
-132.0835
 10
1355.0153
 20
-131.6569
 10
1356.6593
 20
-131.1353
 10
1358.2212
 20
-130.5189
 10
1359.7011
 20
-129.8076
 10
1361.3969
 20
-128.7953
 10
1362.8666
 20
-127.6669
 10
1364.1101
 20
-126.4221
 10
1365.1275
 20
-125.0611
 10
1365.9187
 20
-123.5839
 10
1366.4839
 20
-121.9903
 10
1366.823
 20
-120.2804
 10
1366.936
 20
-118.4542
 10
1366.823
 20
-116.6279
 10
1366.4839
 20
-114.9179
 10
1365.9187
 20
-113.3241
 10
1365.1275
 20
-111.8467
 10
1364.1101
 20
-110.4856
 10
1362.8666
 20
-109.2409
 10
1361.3969
 20
-108.1126
 10
1359.7011
 20
-107.1007
 10
1358.2212
 20
-106.3894
 10
1356.6593
 20
-105.773
 10
1355.0153
 20
-105.2514
 10
1353.2893
 20
-104.8248
 10
1351.4812
 20
-104.493
 10
1349.591
 20
-104.256
 10
1347.6188
 20
-104.1138
 10
1345.5646
 20
-104.0664
 10
1343.5108
 20
-104.1138
 10
1341.539
 20
-104.256
 10
1339.6491
 20
-104.493
 10
1337.8412
 20
-104.8248
 10
1336.1153
 20
-105.2514
 10
1334.4713
 20
-105.773
 10
1332.9094
 20
-106.3894
 10
1331.4295
 20
-107.1007
 10
1329.7337
 20
-108.1126
 10
1328.264
 20
-109.2409
 10
1327.0205
 20
-110.4856
 10
1326.0031
 20
-111.8467
 10
1325.2119
 20
-113.3241
 10
1324.6467
 20
-114.9179
 10
1324.3076
 20
-116.6279
 10
1324.1946
 20
-118.4542
  0
LWPOLYLINE
  5
245
330
1F
100
AcDbEntity
  8
Layer 1
 62
   250
100
AcDbPolyline
 90
      169
 70
     1
 43
0.0
 10
1324.8655
 20
-175.5658
 10
1324.8655
 20
-179.9451
 10
1341.6581
 20
-179.9451
 10
1342.7725
 20
-179.9094
 10
1343.8345
 20
-179.8023
 10
1344.8442
 20
-179.6239
 10
1345.8015
 20
-179.3741
 10
1346.7063
 20
-179.053
 10
1347.5587
 20
-178.6606
 10
1348.3586
 20
-178.1969
 10
1349.106
 20
-177.6619
 10
1349.4636
 20
-177.3632
 10
1349.8029
 20
-177.0459
 10
1350.124
 20
-176.7101
 10
1350.4269
 20
-176.3558
 10
1350.7117
 20
-175.9828
 10
1350.9784
 20
-175.5913
 10
1351.227
 20
-175.1811
 10
1351.4577
 20
-174.7523
 10
1351.6651
 20
-174.2971
 10
1351.8449
 20
-173.8065
 10
1351.997
 20
-173.2807
 10
1352.1216
 20
-172.7197
 10
1352.2185
 20
-172.1234
 10
1352.2877
 20
-171.492
 10
1352.3292
 20
-170.8254
 10
1352.3431
 20
-170.1237
 10
1352.3193
 20
-169.4157
 10
1352.2477
 20
-168.73
 10
1352.1285
 20
-168.0669
 10
1351.9615
 20
-167.4261
 10
1351.7467
 20
-166.8079
 10
1351.4842
 20
-166.2121
 10
1351.1739
 20
-165.6389
 10
1350.8158
 20
-165.0882
 10
1350.4591
 20
-164.6102
 10
1350.076
 20
-164.1536
 10
1349.6666
 20
-163.7185
 10
1349.2313
 20
-163.305
 10
1348.7701
 20
-162.913
 10
1348.2833
 20
-162.5427
 10
1347.7712
 20
-162.1939
 10
1347.2338
 20
-161.8669
 10
1347.4839
 20
-161.7426
 10
1347.7299
 20
-161.6125
 10
1347.9715
 20
-161.4765
 10
1348.2085
 20
-161.3347
 10
1348.4406
 20
-161.187
 10
1348.6678
 20
-161.0335
 10
1348.8896
 20
-160.8742
 10
1349.106
 20
-160.709
 10
1349.4636
 20
-160.4102
 10
1349.8029
 20
-160.093
 10
1350.124
 20
-159.7572
 10
1350.4269
 20
-159.403
 10
1350.7117
 20
-159.0302
 10
1350.9784
 20
-158.6389
 10
1351.227
 20
-158.2291
 10
1351.4577
 20
-157.8008
 10
1351.6651
 20
-157.3451
 10
1351.8449
 20
-156.8542
 10
1351.997
 20
-156.3281
 10
1352.1216
 20
-155.7669
 10
1352.2185
 20
-155.1705
 10
1352.2877
 20
-154.539
 10
1352.3292
 20
-153.8724
 10
1352.3431
 20
-153.1707
 10
1352.3193
 20
-152.4627
 10
1352.2477
 20
-151.777
 10
1352.1285
 20
-151.1139
 10
1351.9615
 20
-150.4731
 10
1351.7467
 20
-149.8549
 10
1351.4842
 20
-149.2591
 10
1351.1739
 20
-148.6859
 10
1350.8158
 20
-148.1352
 10
1350.4762
 20
-147.6796
 10
1350.1136
 20
-147.2437
 10
1349.7279
 20
-146.8273
 10
1349.319
 20
-146.4305
 10
1348.8867
 20
-146.0532
 10
1348.4309
 20
-145.6955
 10
1347.9515
 20
-145.3573
 10
1347.4483
 20
-145.0386
 10
1351.7316
 20
-145.0386
 10
1351.7316
 20
-140.6593
 10
1324.8655
 20
-140.6593
 10
1324.8655
 20
-145.0386
 10
1338.6151
 20
-145.0386
 10
1339.4161
 20
-145.1405
 10
1340.1858
 20
-145.2735
 10
1340.9245
 20
-145.4378
 10
1341.6323
 20
-145.6333
 10
1342.3096
 20
-145.8601
 10
1342.9566
 20
-146.1181
 10
1343.5735
 20
-146.4073
 10
1344.1605
 20
-146.7279
 10
1344.5786
 20
-146.9887
 10
1344.9775
 20
-147.271
 10
1345.3573
 20
-147.5749
 10
1345.718
 20
-147.9003
 10
1346.0596
 20
-148.2473
 10
1346.3822
 20
-148.6159
 10
1346.6856
 20
-149.0061
 10
1346.9701
 20
-149.4178
 10
1347.2274
 20
-149.8438
 10
1347.4505
 20
-150.2776
 10
1347.6392
 20
-150.7194
 10
1347.7937
 20
-151.169
 10
1347.9139
 20
-151.6265
 10
1347.9998
 20
-152.0919
 10
1348.0513
 20
-152.565
 10
1348.0685
 20
-153.046
 10
1348.0595
 20
-153.5152
 10
1348.0323
 20
-153.9531
 10
1347.9871
 20
-154.3597
 10
1347.9238
 20
-154.735
 10
1347.8423
 20
-155.0789
 10
1347.7427
 20
-155.3916
 10
1347.6249
 20
-155.6729
 10
1347.4889
 20
-155.9229
 10
1347.0336
 20
-156.5534
 10
1346.5002
 20
-157.0997
 10
1345.8886
 20
-157.5621
 10
1345.1989
 20
-157.9403
 10
1344.431
 20
-158.2345
 10
1343.5849
 20
-158.4447
 10
1342.6606
 20
-158.5708
 10
1341.6581
 20
-158.6128
 10
1324.8655
 20
-158.6128
 10
1324.8655
 20
-162.9921
 10
1341.6581
 20
-162.9921
 10
1342.6854
 20
-162.9609
 10
1343.0746
 20
-163.1229
 10
1343.4496
 20
-163.297
 10
1343.8112
 20
-163.4831
 10
1344.1605
 20
-163.6809
 10
1344.5786
 20
-163.9417
 10
1344.9775
 20
-164.224
 10
1345.3573
 20
-164.5279
 10
1345.718
 20
-164.8533
 10
1346.0596
 20
-165.2003
 10
1346.3822
 20
-165.5689
 10
1346.6856
 20
-165.9591
 10
1346.9701
 20
-166.3708
 10
1347.2274
 20
-166.7968
 10
1347.4505
 20
-167.2306
 10
1347.6392
 20
-167.6724
 10
1347.7937
 20
-168.122
 10
1347.9139
 20
-168.5795
 10
1347.9998
 20
-169.0449
 10
1348.0513
 20
-169.518
 10
1348.0685
 20
-169.999
 10
1348.0595
 20
-170.4678
 10
1348.0323
 20
-170.9055
 10
1347.9871
 20
-171.312
 10
1347.9238
 20
-171.6874
 10
1347.8423
 20
-172.0315
 10
1347.7427
 20
-172.3443
 10
1347.6249
 20
-172.6258
 10
1347.4889
 20
-172.8759
 10
1347.0336
 20
-173.5064
 10
1346.5002
 20
-174.0527
 10
1345.8886
 20
-174.5151
 10
1345.1989
 20
-174.8933
 10
1344.431
 20
-175.1875
 10
1343.5849
 20
-175.3977
 10
1342.6606
 20
-175.5238
 10
1341.6581
 20
-175.5658
 10
1324.8655
 20
-175.5658
  0
LWPOLYLINE
  5
246
330
1F
100
AcDbEntity
  8
Layer 1
 62
   250
100
AcDbPolyline
 90
      169
 70
     1
 43
0.0
 10
1324.8655
 20
-223.294
 10
1324.8655
 20
-227.6732
 10
1341.6581
 20
-227.6732
 10
1342.7725
 20
-227.6375
 10
1343.8345
 20
-227.5304
 10
1344.8442
 20
-227.352
 10
1345.8015
 20
-227.1023
 10
1346.7063
 20
-226.7812
 10
1347.5587
 20
-226.3888
 10
1348.3586
 20
-225.9251
 10
1349.106
 20
-225.3901
 10
1349.4636
 20
-225.0913
 10
1349.8029
 20
-224.7741
 10
1350.124
 20
-224.4383
 10
1350.4269
 20
-224.0839
 10
1350.7117
 20
-223.711
 10
1350.9784
 20
-223.3194
 10
1351.227
 20
-222.9093
 10
1351.4577
 20
-222.4805
 10
1351.6651
 20
-222.0253
 10
1351.8449
 20
-221.5347
 10
1351.997
 20
-221.0089
 10
1352.1216
 20
-220.4478
 10
1352.2185
 20
-219.8515
 10
1352.2877
 20
-219.2201
 10
1352.3292
 20
-218.5535
 10
1352.3431
 20
-217.8518
 10
1352.3193
 20
-217.1438
 10
1352.2477
 20
-216.4582
 10
1352.1285
 20
-215.795
 10
1351.9615
 20
-215.1543
 10
1351.7467
 20
-214.5361
 10
1351.4842
 20
-213.9403
 10
1351.1739
 20
-213.3671
 10
1350.8158
 20
-212.8164
 10
1350.4591
 20
-212.3383
 10
1350.076
 20
-211.8818
 10
1349.6666
 20
-211.4467
 10
1349.2313
 20
-211.0331
 10
1348.7701
 20
-210.6411
 10
1348.2833
 20
-210.2708
 10
1347.7712
 20
-209.9221
 10
1347.2338
 20
-209.595
 10
1347.4839
 20
-209.4712
 10
1347.7299
 20
-209.3415
 10
1347.9715
 20
-209.2058
 10
1348.2085
 20
-209.0641
 10
1348.4406
 20
-208.9166
 10
1348.6678
 20
-208.7631
 10
1348.8896
 20
-208.6038
 10
1349.106
 20
-208.4386
 10
1349.4636
 20
-208.1399
 10
1349.8029
 20
-207.8226
 10
1350.124
 20
-207.4868
 10
1350.4269
 20
-207.1326
 10
1350.7117
 20
-206.7598
 10
1350.9784
 20
-206.3685
 10
1351.227
 20
-205.9587
 10
1351.4577
 20
-205.5304
 10
1351.6651
 20
-205.0747
 10
1351.8449
 20
-204.5838
 10
1351.997
 20
-204.0577
 10
1352.1216
 20
-203.4965
 10
1352.2185
 20
-202.9001
 10
1352.2877
 20
-202.2686
 10
1352.3292
 20
-201.602
 10
1352.3431
 20
-200.9003
 10
1352.3193
 20
-200.1923
 10
1352.2477
 20
-199.5067
 10
1352.1285
 20
-198.8435
 10
1351.9615
 20
-198.2028
 10
1351.7467
 20
-197.5846
 10
1351.4842
 20
-196.9888
 10
1351.1739
 20
-196.4156
 10
1350.8158
 20
-195.8649
 10
1350.4762
 20
-195.4093
 10
1350.1136
 20
-194.9733
 10
1349.7279
 20
-194.5569
 10
1349.319
 20
-194.1601
 10
1348.8867
 20
-193.7828
 10
1348.4309
 20
-193.4251
 10
1347.9515
 20
-193.0869
 10
1347.4483
 20
-192.7682
 10
1351.7316
 20
-192.7682
 10
1351.7316
 20
-188.3889
 10
1324.8655
 20
-188.3889
 10
1324.8655
 20
-192.7682
 10
1338.6151
 20
-192.7682
 10
1339.4161
 20
-192.8701
 10
1340.1858
 20
-193.0031
 10
1340.9245
 20
-193.1674
 10
1341.6323
 20
-193.3629
 10
1342.3096
 20
-193.5897
 10
1342.9566
 20
-193.8477
 10
1343.5735
 20
-194.137
 10
1344.1605
 20
-194.4576
 10
1344.5786
 20
-194.7183
 10
1344.9775
 20
-195.0006
 10
1345.3573
 20
-195.3045
 10
1345.718
 20
-195.6299
 10
1346.0596
 20
-195.977
 10
1346.3822
 20
-196.3456
 10
1346.6856
 20
-196.7357
 10
1346.9701
 20
-197.1475
 10
1347.2274
 20
-197.5734
 10
1347.4505
 20
-198.0073
 10
1347.6392
 20
-198.449
 10
1347.7937
 20
-198.8986
 10
1347.9139
 20
-199.3561
 10
1347.9998
 20
-199.8215
 10
1348.0513
 20
-200.2946
 10
1348.0685
 20
-200.7756
 10
1348.0595
 20
-201.2448
 10
1348.0323
 20
-201.6827
 10
1347.9871
 20
-202.0893
 10
1347.9238
 20
-202.4646
 10
1347.8423
 20
-202.8086
 10
1347.7427
 20
-203.1212
 10
1347.6249
 20
-203.4026
 10
1347.4889
 20
-203.6526
 10
1347.0336
 20
-204.283
 10
1346.5002
 20
-204.8294
 10
1345.8886
 20
-205.2917
 10
1345.1989
 20
-205.67
 10
1344.431
 20
-205.9642
 10
1343.5849
 20
-206.1744
 10
1342.6606
 20
-206.3005
 10
1341.6581
 20
-206.3425
 10
1324.8655
 20
-206.3425
 10
1324.8655
 20
-210.7203
 10
1341.6581
 20
-210.7203
 10
1342.6854
 20
-210.6891
 10
1343.0746
 20
-210.8511
 10
1343.4496
 20
-211.0251
 10
1343.8112
 20
-211.2112
 10
1344.1605
 20
-211.4091
 10
1344.5786
 20
-211.6698
 10
1344.9775
 20
-211.9521
 10
1345.3573
 20
-212.256
 10
1345.718
 20
-212.5814
 10
1346.0596
 20
-212.9285
 10
1346.3822
 20
-213.2971
 10
1346.6856
 20
-213.6872
 10
1346.9701
 20
-214.099
 10
1347.2274
 20
-214.5249
 10
1347.4505
 20
-214.9588
 10
1347.6392
 20
-215.4005
 10
1347.7937
 20
-215.8501
 10
1347.9139
 20
-216.3076
 10
1347.9998
 20
-216.773
 10
1348.0513
 20
-217.2461
 10
1348.0685
 20
-217.7271
 10
1348.0595
 20
-218.1959
 10
1348.0323
 20
-218.6336
 10
1347.9871
 20
-219.0402
 10
1347.9238
 20
-219.4155
 10
1347.8423
 20
-219.7597
 10
1347.7427
 20
-220.0725
 10
1347.6249
 20
-220.354
 10
1347.4889
 20
-220.6041
 10
1347.0336
 20
-221.2345
 10
1346.5002
 20
-221.7809
 10
1345.8886
 20
-222.2432
 10
1345.1989
 20
-222.6215
 10
1344.431
 20
-222.9157
 10
1343.5849
 20
-223.1259
 10
1342.6606
 20
-223.252
 10
1341.6581
 20
-223.294
 10
1324.8655
 20
-223.294
  0
LWPOLYLINE
  5
247
330
1F
100
AcDbEntity
  8
Layer 1
 62
   250
100
AcDbPolyline
 90
        7
 70
     1
 43
0.0
 10
659.9613
 20
291.5275
 10
664.2344
 20
291.5275
 10
664.2344
 20
334.5661
 10
653.9769
 20
333.4394
 10
653.9769
 20
329.6242
 10
659.9613
 20
329.6242
 10
659.9613
 20
291.5275
  0
LWPOLYLINE
  5
248
330
1F
100
AcDbEntity
  8
Layer 1
 62
   250
100
AcDbPolyline
 90
        7
 70
     1
 43
0.0
 10
677.4856
 20
291.5275
 10
681.7573
 20
291.5275
 10
681.7573
 20
334.5661
 10
671.5012
 20
333.4394
 10
671.5012
 20
329.6242
 10
677.4856
 20
329.6242
 10
677.4856
 20
291.5275
  0
LWPOLYLINE
  5
249
330
1F
100
AcDbEntity
  8
Layer 1
 62
   250
100
AcDbPolyline
 90
      129
 70
     1
 43
0.0
 10
706.3948
 20
329.124
 10
707.1001
 20
328.6332
 10
707.7576
 20
328.076
 10
708.3674
 20
327.4524
 10
708.9293
 20
326.7623
 10
709.4435
 20
326.0058
 10
709.91
 20
325.1828
 10
710.3287
 20
324.2934
 10
710.6998
 20
323.3374
 10
711.115
 20
322.0689
 10
711.4747
 20
320.7819
 10
711.7791
 20
319.4764
 10
712.028
 20
318.1524
 10
712.2216
 20
316.8099
 10
712.3599
 20
315.4488
 10
712.4429
 20
314.0693
 10
712.4705
 20
312.6712
 10
712.4676
 20
312.3355
 10
712.4591
 20
311.9851
 10
712.4448
 20
311.6201
 10
712.4248
 20
311.2404
 10
712.3992
 20
310.846
 10
712.3678
 20
310.4369
 10
712.3307
 20
310.0131
 10
712.2879
 20
309.5746
 10
712.0761
 20
307.8931
 10
711.7995
 20
306.3043
 10
711.4579
 20
304.8084
 10
711.0514
 20
303.4054
 10
710.5801
 20
302.0952
 10
710.0439
 20
300.8777
 10
709.4428
 20
299.7532
 10
708.777
 20
298.7214
 10
708.1691
 20
297.9443
 10
707.5288
 20
297.2709
 10
706.8562
 20
296.7012
 10
706.1512
 20
296.2351
 10
705.4138
 20
295.8725
 10
704.644
 20
295.6136
 10
703.8417
 20
295.4583
 10
703.007
 20
295.4065
 10
702.0753
 20
295.4578
 10
701.1884
 20
295.6117
 10
700.3463
 20
295.8681
 10
699.5492
 20
296.2273
 10
698.7969
 20
296.689
 10
698.0895
 20
297.2534
 10
697.4271
 20
297.9204
 10
696.8096
 20
298.6902
 10
696.548
 20
299.0635
 10
696.298
 20
299.4487
 10
696.0595
 20
299.8456
 10
695.8324
 20
300.2542
 10
695.6169
 20
300.6745
 10
695.4128
 20
301.1064
 10
695.2201
 20
301.55
 10
695.0389
 20
302.0051
 10
694.8686
 20
302.4681
 10
694.7088
 20
302.934
 10
694.5594
 20
303.4028
 10
694.4205
 20
303.8745
 10
694.2921
 20
304.3491
 10
694.1741
 20
304.8267
 10
694.0666
 20
305.3072
 10
693.9695
 20
305.7906
 10
693.8815
 20
306.2735
 10
693.8
 20
306.7523
 10
693.7252
 20
307.2272
 10
693.6569
 20
307.6982
 10
693.5953
 20
308.1652
 10
693.5404
 20
308.6284
 10
693.4922
 20
309.0878
 10
693.4508
 20
309.5434
 10
693.4152
 20
310.0059
 10
693.3843
 20
310.4857
 10
693.3581
 20
310.9829
 10
693.3367
 20
311.4972
 10
693.3201
 20
312.0286
 10
693.3082
 20
312.5769
 10
693.3011
 20
313.142
 10
693.2987
 20
313.7238
 10
693.3092
 20
314.332
 10
693.3406
 20
314.9754
 10
693.3929
 20
315.6542
 10
693.4662
 20
316.3684
 10
693.5605
 20
317.1183
 10
693.6758
 20
317.9039
 10
693.8121
 20
318.7255
 10
693.9695
 20
319.5831
 10
694.0661
 20
320.0597
 10
694.1722
 20
320.5353
 10
694.2878
 20
321.0099
 10
694.4129
 20
321.4836
 10
694.5475
 20
321.9563
 10
694.6917
 20
322.428
 10
694.8453
 20
322.8987
 10
695.0085
 20
323.3685
 10
695.1826
 20
323.8319
 10
695.369
 20
324.2835
 10
695.5679
 20
324.7232
 10
695.7792
 20
325.1512
 10
696.0028
 20
325.5675
 10
696.239
 20
325.972
 10
696.4876
 20
326.3647
 10
696.7487
 20
326.7458
 10
697.0222
 20
327.1117
 10
697.3092
 20
327.4592
 10
697.6096
 20
327.7881
 10
697.9233
 20
328.0985
 10
698.2505
 20
328.3905
 10
698.591
 20
328.6639
 10
698.9448
 20
328.9187
 10
699.312
 20
329.1551
 10
699.6949
 20
329.3675
 10
700.0948
 20
329.5517
 10
700.5118
 20
329.7076
 10
700.9458
 20
329.8352
 10
701.3969
 20
329.9345
 10
701.8652
 20
330.0054
 10
702.3507
 20
330.048
 10
702.8534
 20
330.0622
 10
703.3566
 20
330.0475
 10
703.8424
 20
330.0035
 10
704.3109
 20
329.9301
 10
704.7621
 20
329.8274
 10
705.1961
 20
329.6955
 10
705.6128
 20
329.5342
 10
706.0124
 20
329.3437
 10
706.3948
 20
329.124
  0
LWPOLYLINE
  5
24A
330
1F
100
AcDbEntity
  8
Layer 1
 62
   250
100
AcDbPolyline
 90
       65
 70
     1
 43
0.0
 10
703.0679
 20
290.9649
 10
704.8505
 20
291.0807
 10
706.5195
 20
291.4281
 10
708.0749
 20
292.0071
 10
709.5169
 20
292.8177
 10
710.8453
 20
293.86
 10
712.0603
 20
295.134
 10
713.1618
 20
296.6396
 10
714.1499
 20
298.377
 10
714.8442
 20
299.8931
 10
715.4459
 20
301.4933
 10
715.955
 20
303.1775
 10
716.3714
 20
304.9457
 10
716.6953
 20
306.7979
 10
716.9267
 20
308.7341
 10
717.0654
 20
310.7542
 10
717.1117
 20
312.8583
 10
717.0654
 20
314.9628
 10
716.9267
 20
316.9833
 10
716.6953
 20
318.9198
 10
716.3714
 20
320.7722
 10
715.955
 20
322.5405
 10
715.4459
 20
324.2247
 10
714.8442
 20
325.8249
 10
714.1499
 20
327.3411
 10
713.1618
 20
329.0785
 10
712.0603
 20
330.5841
 10
710.8453
 20
331.8581
 10
709.5169
 20
332.9004
 10
708.0749
 20
333.711
 10
706.5195
 20
334.29
 10
704.8505
 20
334.6374
 10
703.0679
 20
334.7532
 10
701.2853
 20
334.6374
 10
699.6161
 20
334.29
 10
698.0605
 20
333.711
 10
696.6184
 20
332.9004
 10
695.2898
 20
331.8581
 10
694.0748
 20
330.5841
 10
692.9735
 20
329.0785
 10
691.9859
 20
327.3411
 10
691.2916
 20
325.8249
 10
690.6899
 20
324.2247
 10
690.1808
 20
322.5405
 10
689.7644
 20
320.7722
 10
689.4405
 20
318.9198
 10
689.2091
 20
316.9833
 10
689.0704
 20
314.9628
 10
689.0241
 20
312.8583
 10
689.0704
 20
310.7542
 10
689.2091
 20
308.7341
 10
689.4405
 20
306.7979
 10
689.7644
 20
304.9457
 10
690.1808
 20
303.1775
 10
690.6899
 20
301.4933
 10
691.2916
 20
299.8931
 10
691.9859
 20
298.377
 10
692.9735
 20
296.6396
 10
694.0748
 20
295.134
 10
695.2898
 20
293.86
 10
696.6184
 20
292.8177
 10
698.0605
 20
292.0071
 10
699.6161
 20
291.4281
 10
701.2853
 20
291.0807
 10
703.0679
 20
290.9649
  0
LWPOLYLINE
  5
24B
330
1F
100
AcDbEntity
  8
Layer 1
 62
   250
100
AcDbPolyline
 90
      129
 70
     1
 43
0.0
 10
740.5885
 20
329.124
 10
741.2938
 20
328.6332
 10
741.9513
 20
328.076
 10
742.5611
 20
327.4524
 10
743.123
 20
326.7623
 10
743.6372
 20
326.0058
 10
744.1037
 20
325.1828
 10
744.5224
 20
324.2934
 10
744.8935
 20
323.3374
 10
745.3087
 20
322.0689
 10
745.6684
 20
320.7819
 10
745.9728
 20
319.4764
 10
746.2217
 20
318.1524
 10
746.4153
 20
316.8099
 10
746.5536
 20
315.4488
 10
746.6366
 20
314.0693
 10
746.6642
 20
312.6712
 10
746.6613
 20
312.3355
 10
746.6528
 20
311.9851
 10
746.6385
 20
311.6201
 10
746.6186
 20
311.2404
 10
746.5929
 20
310.846
 10
746.5616
 20
310.4369
 10
746.5245
 20
310.0131
 10
746.4817
 20
309.5746
 10
746.2699
 20
307.8931
 10
745.9932
 20
306.3043
 10
745.6516
 20
304.8084
 10
745.2451
 20
303.4054
 10
744.7738
 20
302.0952
 10
744.2376
 20
300.8777
 10
743.6365
 20
299.7532
 10
742.9707
 20
298.7214
 10
742.3628
 20
297.9443
 10
741.7225
 20
297.2709
 10
741.0499
 20
296.7012
 10
740.3449
 20
296.2351
 10
739.6075
 20
295.8725
 10
738.8377
 20
295.6136
 10
738.0355
 20
295.4583
 10
737.2008
 20
295.4065
 10
736.269
 20
295.4578
 10
735.3821
 20
295.6117
 10
734.5401
 20
295.8681
 10
733.7429
 20
296.2273
 10
732.9906
 20
296.689
 10
732.2832
 20
297.2534
 10
731.6208
 20
297.9204
 10
731.0033
 20
298.6902
 10
730.7417
 20
299.0635
 10
730.4917
 20
299.4487
 10
730.2532
 20
299.8456
 10
730.0262
 20
300.2542
 10
729.8106
 20
300.6745
 10
729.6065
 20
301.1064
 10
729.4138
 20
301.55
 10
729.2326
 20
302.0051
 10
729.0623
 20
302.4681
 10
728.9025
 20
302.934
 10
728.7532
 20
303.4028
 10
728.6143
 20
303.8745
 10
728.4859
 20
304.3491
 10
728.3679
 20
304.8267
 10
728.2604
 20
305.3072
 10
728.1633
 20
305.7906
 10
728.0753
 20
306.2735
 10
727.9938
 20
306.7523
 10
727.9189
 20
307.2272
 10
727.8507
 20
307.6982
 10
727.7891
 20
308.1652
 10
727.7341
 20
308.6284
 10
727.6859
 20
309.0878
 10
727.6445
 20
309.5434
 10
727.6089
 20
310.0059
 10
727.578
 20
310.4857
 10
727.5518
 20
310.9829
 10
727.5304
 20
311.4972
 10
727.5138
 20
312.0286
 10
727.5019
 20
312.5769
 10
727.4948
 20
313.142
 10
727.4924
 20
313.7238
 10
727.5029
 20
314.332
 10
727.5343
 20
314.9754
 10
727.5866
 20
315.6542
 10
727.6599
 20
316.3684
 10
727.7542
 20
317.1183
 10
727.8696
 20
317.9039
 10
728.0059
 20
318.7255
 10
728.1633
 20
319.5831
 10
728.2599
 20
320.0597
 10
728.366
 20
320.5353
 10
728.4816
 20
321.0099
 10
728.6067
 20
321.4836
 10
728.7413
 20
321.9563
 10
728.8854
 20
322.428
 10
729.0391
 20
322.8987
 10
729.2022
 20
323.3685
 10
729.3763
 20
323.8319
 10
729.5628
 20
324.2835
 10
729.7617
 20
324.7232
 10
729.9729
 20
325.1512
 10
730.1966
 20
325.5675
 10
730.4328
 20
325.972
 10
730.6814
 20
326.3647
 10
730.9425
 20
326.7458
 10
731.216
 20
327.1117
 10
731.5029
 20
327.4592
 10
731.8033
 20
327.7881
 10
732.1171
 20
328.0985
 10
732.4442
 20
328.3905
 10
732.7848
 20
328.6639
 10
733.1386
 20
328.9187
 10
733.5058
 20
329.1551
 10
733.8887
 20
329.3675
 10
734.2885
 20
329.5517
 10
734.7055
 20
329.7076
 10
735.1395
 20
329.8352
 10
735.5907
 20
329.9345
 10
736.059
 20
330.0054
 10
736.5445
 20
330.048
 10
737.0472
 20
330.0622
 10
737.5504
 20
330.0475
 10
738.0362
 20
330.0035
 10
738.5046
 20
329.9301
 10
738.9559
 20
329.8274
 10
739.3898
 20
329.6955
 10
739.8065
 20
329.5342
 10
740.2061
 20
329.3437
 10
740.5885
 20
329.124
  0
LWPOLYLINE
  5
24C
330
1F
100
AcDbEntity
  8
Layer 1
 62
   250
100
AcDbPolyline
 90
       65
 70
     1
 43
0.0
 10
737.2616
 20
290.9649
 10
739.0442
 20
291.0807
 10
740.7132
 20
291.4281
 10
742.2686
 20
292.0071
 10
743.7106
 20
292.8177
 10
745.039
 20
293.86
 10
746.254
 20
295.134
 10
747.3555
 20
296.6396
 10
748.3436
 20
298.377
 10
749.0378
 20
299.8931
 10
749.6394
 20
301.4933
 10
750.1482
 20
303.1775
 10
750.5644
 20
304.9457
 10
750.8881
 20
306.7979
 10
751.1192
 20
308.7341
 10
751.2578
 20
310.7542
 10
751.304
 20
312.8583
 10
751.2578
 20
314.9628
 10
751.1192
 20
316.9833
 10
750.8881
 20
318.9198
 10
750.5644
 20
320.7722
 10
750.1482
 20
322.5405
 10
749.6394
 20
324.2247
 10
749.0378
 20
325.8249
 10
748.3436
 20
327.3411
 10
747.3555
 20
329.0785
 10
746.254
 20
330.5841
 10
745.039
 20
331.8581
 10
743.7106
 20
332.9004
 10
742.2686
 20
333.711
 10
740.7132
 20
334.29
 10
739.0442
 20
334.6374
 10
737.2616
 20
334.7532
 10
735.479
 20
334.6374
 10
733.8098
 20
334.29
 10
732.2542
 20
333.711
 10
730.8121
 20
332.9004
 10
729.4835
 20
331.8581
 10
728.2685
 20
330.5841
 10
727.1672
 20
329.0785
 10
726.1796
 20
327.3411
 10
725.4853
 20
325.8249
 10
724.8836
 20
324.2247
 10
724.3745
 20
322.5405
 10
723.9581
 20
320.7722
 10
723.6342
 20
318.9198
 10
723.4028
 20
316.9833
 10
723.2641
 20
314.9628
 10
723.2178
 20
312.8583
 10
723.2641
 20
310.7542
 10
723.4028
 20
308.7341
 10
723.6342
 20
306.7979
 10
723.9581
 20
304.9457
 10
724.3745
 20
303.1775
 10
724.8836
 20
301.4933
 10
725.4853
 20
299.8931
 10
726.1796
 20
298.377
 10
727.1672
 20
296.6396
 10
728.2685
 20
295.134
 10
729.4835
 20
293.86
 10
730.8121
 20
292.8177
 10
732.2542
 20
292.0071
 10
733.8098
 20
291.4281
 10
735.479
 20
291.0807
 10
737.2616
 20
290.9649
  0
LWPOLYLINE
  5
24D
330
1F
100
AcDbEntity
  8
Layer 1
 62
   250
100
AcDbPolyline
 90
      173
 70
     1
 43
0.0
 10
793.0079
 20
291.6522
 10
797.2825
 20
291.6522
 10
797.2825
 20
308.8561
 10
797.2477
 20
309.9978
 10
797.1431
 20
311.0858
 10
796.969
 20
312.1203
 10
796.7252
 20
313.101
 10
796.4117
 20
314.028
 10
796.0287
 20
314.9013
 10
795.5761
 20
315.7208
 10
795.0539
 20
316.4864
 10
794.7623
 20
316.8528
 10
794.4526
 20
317.2004
 10
794.1248
 20
317.5294
 10
793.779
 20
317.8397
 10
793.4149
 20
318.1315
 10
793.0328
 20
318.4047
 10
792.6324
 20
318.6595
 10
792.2139
 20
318.8958
 10
791.7695
 20
319.1082
 10
791.2907
 20
319.2924
 10
790.7775
 20
319.4483
 10
790.2298
 20
319.5758
 10
789.6478
 20
319.6751
 10
789.0314
 20
319.746
 10
788.3807
 20
319.7886
 10
787.6958
 20
319.8028
 10
787.0047
 20
319.7784
 10
786.3355
 20
319.7051
 10
785.6882
 20
319.5829
 10
785.0628
 20
319.4118
 10
784.4594
 20
319.1918
 10
783.8779
 20
318.9229
 10
783.3183
 20
318.605
 10
782.7808
 20
318.2381
 10
782.3142
 20
317.8727
 10
781.8685
 20
317.4802
 10
781.4438
 20
317.0608
 10
781.0402
 20
316.6148
 10
780.6576
 20
316.1423
 10
780.2961
 20
315.6436
 10
779.9557
 20
315.1189
 10
779.6364
 20
314.5684
 10
779.5151
 20
314.8246
 10
779.3881
 20
315.0766
 10
779.2554
 20
315.3241
 10
779.117
 20
315.5669
 10
778.9728
 20
315.8048
 10
778.823
 20
316.0375
 10
778.6674
 20
316.2647
 10
778.5062
 20
316.4864
 10
778.2146
 20
316.8528
 10
777.9049
 20
317.2004
 10
777.5772
 20
317.5294
 10
777.2314
 20
317.8397
 10
776.8676
 20
318.1315
 10
776.4856
 20
318.4047
 10
776.0857
 20
318.6595
 10
775.6676
 20
318.8958
 10
775.2228
 20
319.1082
 10
774.7436
 20
319.2924
 10
774.2301
 20
319.4483
 10
773.6823
 20
319.5758
 10
773.1002
 20
319.6751
 10
772.4838
 20
319.746
 10
771.8331
 20
319.7886
 10
771.1482
 20
319.8028
 10
770.4571
 20
319.7784
 10
769.7878
 20
319.7051
 10
769.1405
 20
319.5829
 10
768.5151
 20
319.4118
 10
767.9117
 20
319.1918
 10
767.3302
 20
318.9229
 10
766.7706
 20
318.605
 10
766.2331
 20
318.2381
 10
765.7884
 20
317.8902
 10
765.3629
 20
317.5187
 10
764.9564
 20
317.1236
 10
764.5691
 20
316.7046
 10
764.2009
 20
316.2617
 10
763.8517
 20
315.7948
 10
763.5216
 20
315.3036
 10
763.2105
 20
314.7881
 10
763.2105
 20
319.1763
 10
758.9359
 20
319.1763
 10
758.9359
 20
291.6522
 10
763.2105
 20
291.6522
 10
763.2105
 20
305.7386
 10
763.3099
 20
306.5592
 10
763.4398
 20
307.3478
 10
763.6002
 20
308.1045
 10
763.791
 20
308.8297
 10
764.0123
 20
309.5236
 10
764.2641
 20
310.1864
 10
764.5465
 20
310.8184
 10
764.8594
 20
311.4198
 10
765.1139
 20
311.8481
 10
765.3895
 20
312.2568
 10
765.6862
 20
312.6459
 10
766.0038
 20
313.0155
 10
766.3426
 20
313.3655
 10
766.7024
 20
313.6959
 10
767.0832
 20
314.0069
 10
767.4851
 20
314.2983
 10
767.9008
 20
314.5619
 10
768.3243
 20
314.7904
 10
768.7555
 20
314.9837
 10
769.1943
 20
315.142
 10
769.6409
 20
315.2651
 10
770.0951
 20
315.3531
 10
770.5569
 20
315.4059
 10
771.0264
 20
315.4235
 10
771.4844
 20
315.4142
 10
771.9118
 20
315.3865
 10
772.3087
 20
315.3401
 10
772.675
 20
315.2753
 10
773.0108
 20
315.1918
 10
773.316
 20
315.0897
 10
773.5906
 20
314.969
 10
773.8346
 20
314.8297
 10
774.45
 20
314.3633
 10
774.9833
 20
313.8168
 10
775.4346
 20
313.1903
 10
775.8038
 20
312.4837
 10
776.091
 20
311.697
 10
776.2961
 20
310.8301
 10
776.4192
 20
309.8832
 10
776.4602
 20
308.8561
 10
776.4602
 20
291.6522
 10
780.7348
 20
291.6522
 10
780.7348
 20
308.8561
 10
780.7044
 20
309.9086
 10
780.7819
 20
310.1098
 10
780.8625
 20
310.3073
 10
780.946
 20
310.5012
 10
781.0324
 20
310.6915
 10
781.1217
 20
310.8784
 10
781.214
 20
311.062
 10
781.3091
 20
311.2424
 10
781.4071
 20
311.4198
 10
781.6616
 20
311.8481
 10
781.9372
 20
312.2568
 10
782.2338
 20
312.6459
 10
782.5515
 20
313.0155
 10
782.8902
 20
313.3655
 10
783.25
 20
313.6959
 10
783.6308
 20
314.0069
 10
784.0327
 20
314.2983
 10
784.4485
 20
314.5619
 10
784.8719
 20
314.7904
 10
785.3031
 20
314.9837
 10
785.742
 20
315.142
 10
786.1886
 20
315.2651
 10
786.6428
 20
315.3531
 10
787.1046
 20
315.4059
 10
787.5741
 20
315.4235
 10
788.0317
 20
315.4142
 10
788.459
 20
315.3865
 10
788.8558
 20
315.3401
 10
789.2222
 20
315.2753
 10
789.5581
 20
315.1918
 10
789.8635
 20
315.0897
 10
790.1382
 20
314.969
 10
790.3823
 20
314.8297
 10
790.9977
 20
314.3633
 10
791.531
 20
313.8168
 10
791.9823
 20
313.1903
 10
792.3515
 20
312.4837
 10
792.6387
 20
311.697
 10
792.8438
 20
310.8301
 10
792.9669
 20
309.8832
 10
793.0079
 20
308.8561
 10
793.0079
 20
291.6522
  0
LWPOLYLINE
  5
24E
330
1F
100
AcDbEntity
  8
Layer 1
 62
   250
100
AcDbPolyline
 90
      173
 70
     1
 43
0.0
 10
839.595
 20
291.6522
 10
843.8696
 20
291.6522
 10
843.8696
 20
308.8561
 10
843.8348
 20
309.9978
 10
843.7303
 20
311.0858
 10
843.5561
 20
312.1203
 10
843.3123
 20
313.101
 10
842.9989
 20
314.028
 10
842.6158
 20
314.9013
 10
842.1632
 20
315.7208
 10
841.641
 20
316.4864
 10
841.3494
 20
316.8528
 10
841.0397
 20
317.2004
 10
840.7119
 20
317.5294
 10
840.3661
 20
317.8397
 10
840.002
 20
318.1315
 10
839.6199
 20
318.4047
 10
839.2195
 20
318.6595
 10
838.801
 20
318.8958
 10
838.3566
 20
319.1082
 10
837.8778
 20
319.2924
 10
837.3646
 20
319.4483
 10
836.8169
 20
319.5758
 10
836.2349
 20
319.6751
 10
835.6186
 20
319.746
 10
834.9679
 20
319.7886
 10
834.283
 20
319.8028
 10
833.5919
 20
319.7784
 10
832.9226
 20
319.7051
 10
832.2753
 20
319.5829
 10
831.6499
 20
319.4118
 10
831.0465
 20
319.1918
 10
830.465
 20
318.9229
 10
829.9054
 20
318.605
 10
829.3679
 20
318.2381
 10
828.9013
 20
317.8727
 10
828.4556
 20
317.4802
 10
828.031
 20
317.0608
 10
827.6273
 20
316.6148
 10
827.2447
 20
316.1423
 10
826.8832
 20
315.6436
 10
826.5428
 20
315.1189
 10
826.2236
 20
314.5684
 10
826.1023
 20
314.8246
 10
825.9753
 20
315.0766
 10
825.8425
 20
315.3241
 10
825.7041
 20
315.5669
 10
825.5599
 20
315.8048
 10
825.4101
 20
316.0375
 10
825.2545
 20
316.2647
 10
825.0933
 20
316.4864
 10
824.8017
 20
316.8528
 10
824.4921
 20
317.2004
 10
824.1644
 20
317.5294
 10
823.8187
 20
317.8397
 10
823.455
 20
318.1315
 10
823.0734
 20
318.4047
 10
822.6738
 20
318.6595
 10
822.2562
 20
318.8958
 10
821.8114
 20
319.1082
 10
821.3322
 20
319.2924
 10
820.8187
 20
319.4483
 10
820.2708
 20
319.5758
 10
819.6887
 20
319.6751
 10
819.0723
 20
319.746
 10
818.4216
 20
319.7886
 10
817.7367
 20
319.8028
 10
817.0456
 20
319.7784
 10
816.3764
 20
319.7051
 10
815.7291
 20
319.5829
 10
815.1037
 20
319.4118
 10
814.5003
 20
319.1918
 10
813.9188
 20
318.9229
 10
813.3592
 20
318.605
 10
812.8217
 20
318.2381
 10
812.377
 20
317.8902
 10
811.9514
 20
317.5187
 10
811.545
 20
317.1236
 10
811.1577
 20
316.7046
 10
810.7894
 20
316.2617
 10
810.4402
 20
315.7948
 10
810.1101
 20
315.3036
 10
809.799
 20
314.7881
 10
809.799
 20
319.1763
 10
805.5245
 20
319.1763
 10
805.5245
 20
291.6522
 10
809.799
 20
291.6522
 10
809.799
 20
305.7386
 10
809.8984
 20
306.5592
 10
810.0283
 20
307.3478
 10
810.1887
 20
308.1045
 10
810.3795
 20
308.8297
 10
810.6009
 20
309.5236
 10
810.8527
 20
310.1864
 10
811.1351
 20
310.8184
 10
811.448
 20
311.4198
 10
811.7025
 20
311.8481
 10
811.9781
 20
312.2568
 10
812.2747
 20
312.6459
 10
812.5924
 20
313.0155
 10
812.9311
 20
313.3655
 10
813.2909
 20
313.6959
 10
813.6717
 20
314.0069
 10
814.0736
 20
314.2983
 10
814.4894
 20
314.5619
 10
814.9128
 20
314.7904
 10
815.344
 20
314.9837
 10
815.7829
 20
315.142
 10
816.2295
 20
315.2651
 10
816.6837
 20
315.3531
 10
817.1455
 20
315.4059
 10
817.615
 20
315.4235
 10
818.073
 20
315.4142
 10
818.5004
 20
315.3865
 10
818.8973
 20
315.3401
 10
819.2636
 20
315.2753
 10
819.5993
 20
315.1918
 10
819.9045
 20
315.0897
 10
820.1791
 20
314.969
 10
820.4232
 20
314.8297
 10
821.0385
 20
314.3633
 10
821.5717
 20
313.8168
 10
822.0227
 20
313.1903
 10
822.3917
 20
312.4837
 10
822.6785
 20
311.697
 10
822.8834
 20
310.8301
 10
823.0063
 20
309.8832
 10
823.0473
 20
308.8561
 10
823.0473
 20
291.6522
 10
827.3219
 20
291.6522
 10
827.3219
 20
308.8561
 10
827.2915
 20
309.9086
 10
827.369
 20
310.1098
 10
827.4496
 20
310.3073
 10
827.5331
 20
310.5012
 10
827.6195
 20
310.6915
 10
827.7089
 20
310.8784
 10
827.8011
 20
311.062
 10
827.8963
 20
311.2424
 10
827.9943
 20
311.4198
 10
828.2488
 20
311.8481
 10
828.5244
 20
312.2568
 10
828.821
 20
312.6459
 10
829.1387
 20
313.0155
 10
829.4774
 20
313.3655
 10
829.8372
 20
313.6959
 10
830.218
 20
314.0069
 10
830.6199
 20
314.2983
 10
831.0356
 20
314.5619
 10
831.4591
 20
314.7904
 10
831.8903
 20
314.9837
 10
832.3291
 20
315.142
 10
832.7757
 20
315.2651
 10
833.2299
 20
315.3531
 10
833.6917
 20
315.4059
 10
834.1612
 20
315.4235
 10
834.6188
 20
315.4142
 10
835.0461
 20
315.3865
 10
835.4429
 20
315.3401
 10
835.8093
 20
315.2753
 10
836.1452
 20
315.1918
 10
836.4506
 20
315.0897
 10
836.7253
 20
314.969
 10
836.9694
 20
314.8297
 10
837.5848
 20
314.3633
 10
838.1181
 20
313.8168
 10
838.5694
 20
313.1903
 10
838.9386
 20
312.4837
 10
839.2258
 20
311.697
 10
839.4309
 20
310.8301
 10
839.554
 20
309.8832
 10
839.595
 20
308.8561
 10
839.595
 20
291.6522
  0
LWPOLYLINE
  5
24F
330
1F
100
AcDbEntity
  8
Layer 1
 62
   250
100
AcDbPolyline
 90
        9
 70
     1
 43
0.0
 10
1306.7789
 20
-483.7951
 10
1374.3168
 20
-483.7951
 10
1374.3168
 20
-476.4146
 10
1344.1505
 20
-476.4146
 10
1344.1505
 20
-353.6973
 10
1336.9465
 20
-353.6973
 10
1336.9465
 20
-476.4146
 10
1306.7789
 20
-476.4146
 10
1306.7789
 20
-483.7951
  0
LWPOLYLINE
  5
250
330
1F
100
AcDbEntity
  8
Layer 1
 62
   250
100
AcDbPolyline
 90
        9
 70
     1
 43
0.0
 10
1223.5304
 20
273.1227
 10
1223.5304
 20
342.3147
 10
1216.3265
 20
342.3147
 10
1216.3265
 20
311.4095
 10
923.832
 20
311.4095
 10
923.832
 20
304.0291
 10
1216.3265
 20
304.0291
 10
1216.3265
 20
273.1227
 10
1223.5304
 20
273.1227
  0
LWPOLYLINE
  5
251
330
1F
100
AcDbEntity
  8
Layer 1
 62
   250
100
AcDbPolyline
 90
        9
 70
     1
 43
0.0
 10
274.316
 20
273.1227
 10
274.316
 20
342.3147
 10
281.52
 20
342.3147
 10
281.52
 20
311.4095
 10
574.0144
 20
311.4095
 10
574.0144
 20
304.0291
 10
281.52
 20
304.0291
 10
281.52
 20
273.1227
 10
274.316
 20
273.1227
  0
ENDSEC
  0
SECTION
  2
OBJECTS
  0
DICTIONARY
  5
C
330
0
100
AcDbDictionary
281
     1
  3
ACAD_DETAILVIEWSTYLE
350
259
  3
ACAD_GROUP
350
D
  3
ACAD_IMAGE_DICT
350
61
  3
ACAD_LAYOUT
350
1A
  3
ACAD_MATERIAL
350
43
  3
ACAD_MLEADERSTYLE
350
5B
  3
ACAD_MLINESTYLE
350
17
  3
ACAD_PLOTSETTINGS
350
19
  3
ACAD_PLOTSTYLENAME
350
E
  3
ACAD_SCALELIST
350
47
  3
ACAD_SECTIONVIEWSTYLE
350
25A
  3
ACAD_TABLESTYLE
350
59
  3
ACAD_VISUALSTYLE
350
2A
  3
ACDB_RECOMPOSE_DATA
350
256
  3
AcDbVariableDictionary
350
252
  0
SUN
  5
5D
330
29
100
AcDbSun
 90
        1
290
     0
 63
     7
421
 16777215
 40
1.0
291
     1
 91
  2455826
 92
 54000000
292
     0
 70
     2
 71
   256
280
     1
  0
IMAGEDEF_REACTOR
  5
64
330
63
100
AcDbRasterImageDefReactor
 90
        2
330
63
  0
IMAGEDEF_REACTOR
  5
68
330
67
100
AcDbRasterImageDefReactor
 90
        2
330
67
  0
DICTIONARY
  5
259
102
{ACAD_REACTORS
330
C
102
}
330
C
100
AcDbDictionary
281
     1
  0
DICTIONARY
  5
D
102
{ACAD_REACTORS
330
C
102
}
330
C
100
AcDbDictionary
281
     1
  0
DICTIONARY
  5
61
102
{ACAD_REACTORS
330
C
102
}
330
C
100
AcDbDictionary
281
     1
  3
Image #1
350
62
  3
Image #2
350
66
  0
DICTIONARY
  5
1A
102
{ACAD_REACTORS
330
C
102
}
330
C
100
AcDbDictionary
281
     1
  3
Layout1
350
1E
  3
Layout2
350
26
  3
Model
350
22
  0
DICTIONARY
  5
43
102
{ACAD_REACTORS
330
C
102
}
330
C
100
AcDbDictionary
281
     1
  3
ByBlock
350
45
  3
ByLayer
350
44
  3
Global
350
46
  0
DICTIONARY
  5
5B
102
{ACAD_REACTORS
330
C
102
}
330
C
100
AcDbDictionary
281
     1
  3
Standard
350
5C
  0
DICTIONARY
  5
17
102
{ACAD_REACTORS
330
C
102
}
330
C
100
AcDbDictionary
281
     1
  3
Standard
350
18
  0
DICTIONARY
  5
19
102
{ACAD_REACTORS
330
C
102
}
330
C
100
AcDbDictionary
281
     1
  0
ACDBDICTIONARYWDFLT
  5
E
102
{ACAD_REACTORS
330
C
102
}
330
C
100
AcDbDictionary
281
     1
  3
Normal
350
F
100
AcDbDictionaryWithDefault
340
F
  0
DICTIONARY
  5
47
102
{ACAD_REACTORS
330
C
102
}
330
C
100
AcDbDictionary
281
     1
  3
A0
350
48
  3
A1
350
49
  3
A2
350
4A
  3
A3
350
4B
  3
A4
350
4C
  3
A5
350
4D
  3
A6
350
4E
  3
A7
350
4F
  3
A8
350
50
  3
A9
350
51
  3
B1
350
52
  3
B2
350
53
  3
B3
350
54
  3
B4
350
55
  3
B5
350
56
  3
B6
350
57
  3
B7
350
58
  0
DICTIONARY
  5
25A
102
{ACAD_REACTORS
330
C
102
}
330
C
100
AcDbDictionary
281
     1
  0
DICTIONARY
  5
59
102
{ACAD_REACTORS
330
C
102
}
330
C
100
AcDbDictionary
281
     1
  3
Standard
350
5A
  0
DICTIONARY
  5
2A
102
{ACAD_REACTORS
330
C
102
}
330
C
100
AcDbDictionary
281
     1
  3
2dWireframe
350
2F
  3
Basic
350
32
  3
Brighten
350
36
  3
ColorChange
350
3A
  3
Conceptual
350
34
  3
Dim
350
35
  3
EdgeColorOff
350
3D
  3
Facepattern
350
39
  3
Flat
350
2B
  3
FlatWithEdges
350
2C
  3
Gouraud
350
2D
  3
GouraudWithEdges
350
2E
  3
Hidden
350
31
  3
JitterOff
350
3B
  3
Linepattern
350
38
  3
OverhangOff
350
3C
  3
Realistic
350
33
  3
Shaded
350
42
  3
Shaded with edges
350
41
  3
Shades of Gray
350
3E
  3
Sketchy
350
3F
  3
Thicken
350
37
  3
Wireframe
350
30
  3
X-Ray
350
40
  0
XRECORD
  5
256
102
{ACAD_REACTORS
330
C
102
}
330
C
100
AcDbXrecord
280
     1
 90
        1
330
5A
  0
DICTIONARY
  5
252
102
{ACAD_REACTORS
330
C
102
}
330
C
100
AcDbDictionary
281
     1
  3
CANNOSCALE
350
253
  3
CMLEADERSTYLE
350
258
  3
CTABLESTYLE
350
257
  0
IMAGEDEF
  5
62
102
{ACAD_REACTORS
330
61
330
64
102
}
330
61
100
AcDbRasterImageDef
 90
        0
  1
C:\Users\Office Desk\Desktop\CC005_ACD_0.jpg
 10
53145.0
 20
3493.0
 11
1.881644557343118E-5
 21
1.881644557343118E-5
280
     1
281
     5
  0
IMAGEDEF
  5
66
102
{ACAD_REACTORS
330
61
330
68
102
}
330
61
100
AcDbRasterImageDef
 90
        0
  1
C:\Users\Office Desk\Desktop\CC005_ACD_1.jpg
 10
53145.0
 20
3563.0
 11
1.881644557343118E-5
 21
1.881644557343118E-5
280
     1
281
     5
  0
LAYOUT
  5
1E
102
{ACAD_REACTORS
330
1A
102
}
330
1A
100
AcDbPlotSettings
  1

  2
none_device
  4

  6

 40
0.0
 41
0.0
 42
0.0
 43
0.0
 44
0.0
 45
0.0
 46
0.0
 47
0.0
 48
0.0
 49
0.0
140
0.0
141
0.0
142
1.0
143
1.0
 70
   688
 72
     0
 73
     0
 74
     5
  7

 75
    16
 76
     0
 77
     2
 78
   300
147
1.0
148
0.0
149
0.0
100
AcDbLayout
  1
Layout1
 70
     1
 71
     1
 10
0.0
 20
0.0
 11
12.0
 21
9.0
 12
0.0
 22
0.0
 32
0.0
 14
1.000000000000000E+20
 24
1.000000000000000E+20
 34
1.000000000000000E+20
 15
-1.000000000000000E+20
 25
-1.000000000000000E+20
 35
-1.000000000000000E+20
146
0.0
 13
0.0
 23
0.0
 33
0.0
 16
1.0
 26
0.0
 36
0.0
 17
0.0
 27
1.0
 37
0.0
 76
     0
330
1B
  0
LAYOUT
  5
26
102
{ACAD_REACTORS
330
1A
102
}
330
1A
100
AcDbPlotSettings
  1

  2
none_device
  4

  6

 40
0.0
 41
0.0
 42
0.0
 43
0.0
 44
0.0
 45
0.0
 46
0.0
 47
0.0
 48
0.0
 49
0.0
140
0.0
141
0.0
142
1.0
143
1.0
 70
   688
 72
     0
 73
     0
 74
     5
  7

 75
    16
 76
     0
 77
     2
 78
   300
147
1.0
148
0.0
149
0.0
100
AcDbLayout
  1
Layout2
 70
     1
 71
     2
 10
0.0
 20
0.0
 11
0.0
 21
0.0
 12
0.0
 22
0.0
 32
0.0
 14
0.0
 24
0.0
 34
0.0
 15
0.0
 25
0.0
 35
0.0
146
0.0
 13
0.0
 23
0.0
 33
0.0
 16
1.0
 26
0.0
 36
0.0
 17
0.0
 27
1.0
 37
0.0
 76
     0
330
23
  0
LAYOUT
  5
22
102
{ACAD_REACTORS
330
1A
102
}
330
1A
100
AcDbPlotSettings
  1

  2
none_device
  4
Letter_(8.50_x_11.00_Inches)
  6

 40
6.35
 41
6.35
 42
6.35000508
 43
6.35000508
 44
215.9
 45
279.4
 46
0.0
 47
0.0
 48
0.0
 49
0.0
140
0.0
141
0.0
142
1.0
143
1.0
 70
  1712
 72
     0
 73
     0
 74
     0
  7

 75
     0
 76
     0
 77
     2
 78
   300
147
1.0
148
0.0
149
0.0
100
AcDbLayout
  1
Model
 70
     1
 71
     0
 10
0.0
 20
0.0
 11
12.0
 21
9.0
 12
0.0
 22
0.0
 32
0.0
 14
274.316
 24
-507.8118
 34
0.0
 15
1374.3168
 25
342.3147
 35
0.0
146
0.0
 13
0.0
 23
0.0
 33
0.0
 16
1.0
 26
0.0
 36
0.0
 17
0.0
 27
1.0
 37
0.0
 76
     0
330
1F
331
29
  0
MATERIAL
  5
45
102
{ACAD_REACTORS
330
43
102
}
330
43
100
AcDbMaterial
  1
ByBlock
 72
     1
 94
      127
  0
MATERIAL
  5
44
102
{ACAD_REACTORS
330
43
102
}
330
43
100
AcDbMaterial
  1
ByLayer
 72
     1
 94
      127
  0
MATERIAL
  5
46
102
{ACAD_REACTORS
330
43
102
}
330
43
100
AcDbMaterial
  1
Global
 72
     1
 94
      127
  0
MLEADERSTYLE
  5
5C
102
{ACAD_REACTORS
330
5B
102
}
330
5B
100
AcDbMLeaderStyle
179
     2
170
     2
171
     1
172
     0
 90
        2
 40
0.0
 41
0.0
173
     1
 91
-1056964608
340
14
 92
       -2
290
     1
 42
0.09
291
     1
 43
0.36
  3
Standard
341
0
 44
0.18
300

342
11
174
     1
178
     6
175
     1
176
     0
 93
-1056964608
 45
0.18
292
     0
297
     0
 46
0.18
343
0
 94
-1056964608
 47
1.0
 49
1.0
140
1.0
293
     1
141
0.0
294
     1
177
     0
142
1.0
295
     0
296
     0
143
0.125
271
     0
272
     9
273
     9
298
     0
  0
MLINESTYLE
  5
18
102
{ACAD_REACTORS
330
17
102
}
330
17
100
AcDbMlineStyle
  2
Standard
 70
     0
  3

 62
   256
 51
90.0
 52
90.0
 71
     2
 49
0.5
 62
   256
  6
BYLAYER
 49
-0.5
 62
   256
  6
BYLAYER
  0
ACDBPLACEHOLDER
  5
F
102
{ACAD_REACTORS
330
E
102
}
330
E
  0
SCALE
  5
48
102
{ACAD_REACTORS
330
47
102
}
330
47
100
AcDbScale
 70
     0
300
1:1
140
1.0
141
1.0
290
     1
  0
SCALE
  5
49
102
{ACAD_REACTORS
330
47
102
}
330
47
100
AcDbScale
 70
     0
300
1/128" = 1'-0"
140
0.0078125
141
12.0
290
     0
  0
SCALE
  5
4A
102
{ACAD_REACTORS
330
47
102
}
330
47
100
AcDbScale
 70
     0
300
1/64" = 1'-0"
140
0.015625
141
12.0
290
     0
  0
SCALE
  5
4B
102
{ACAD_REACTORS
330
47
102
}
330
47
100
AcDbScale
 70
     0
300
1/32" = 1'-0"
140
0.03125
141
12.0
290
     0
  0
SCALE
  5
4C
102
{ACAD_REACTORS
330
47
102
}
330
47
100
AcDbScale
 70
     0
300
1/16" = 1'-0"
140
0.0625
141
12.0
290
     0
  0
SCALE
  5
4D
102
{ACAD_REACTORS
330
47
102
}
330
47
100
AcDbScale
 70
     0
300
3/32" = 1'-0"
140
0.09375
141
12.0
290
     0
  0
SCALE
  5
4E
102
{ACAD_REACTORS
330
47
102
}
330
47
100
AcDbScale
 70
     0
300
1/8" = 1'-0"
140
0.125
141
12.0
290
     0
  0
SCALE
  5
4F
102
{ACAD_REACTORS
330
47
102
}
330
47
100
AcDbScale
 70
     0
300
3/16" = 1'-0"
140
0.1875
141
12.0
290
     0
  0
SCALE
  5
50
102
{ACAD_REACTORS
330
47
102
}
330
47
100
AcDbScale
 70
     0
300
1/4" = 1'-0"
140
0.25
141
12.0
290
     0
  0
SCALE
  5
51
102
{ACAD_REACTORS
330
47
102
}
330
47
100
AcDbScale
 70
     0
300
3/8" = 1'-0"
140
0.375
141
12.0
290
     0
  0
SCALE
  5
52
102
{ACAD_REACTORS
330
47
102
}
330
47
100
AcDbScale
 70
     0
300
1/2" = 1'-0"
140
0.5
141
12.0
290
     0
  0
SCALE
  5
53
102
{ACAD_REACTORS
330
47
102
}
330
47
100
AcDbScale
 70
     0
300
3/4" = 1'-0"
140
0.75
141
12.0
290
     0
  0
SCALE
  5
54
102
{ACAD_REACTORS
330
47
102
}
330
47
100
AcDbScale
 70
     0
300
1" = 1'-0"
140
1.0
141
12.0
290
     0
  0
SCALE
  5
55
102
{ACAD_REACTORS
330
47
102
}
330
47
100
AcDbScale
 70
     0
300
1-1/2" = 1'-0"
140
1.5
141
12.0
290
     0
  0
SCALE
  5
56
102
{ACAD_REACTORS
330
47
102
}
330
47
100
AcDbScale
 70
     0
300
3" = 1'-0"
140
3.0
141
12.0
290
     0
  0
SCALE
  5
57
102
{ACAD_REACTORS
330
47
102
}
330
47
100
AcDbScale
 70
     0
300
6" = 1'-0"
140
6.0
141
12.0
290
     0
  0
SCALE
  5
58
102
{ACAD_REACTORS
330
47
102
}
330
47
100
AcDbScale
 70
     0
300
1'-0" = 1'-0"
140
12.0
141
12.0
290
     0
  0
TABLESTYLE
  5
5A
102
{ACAD_REACTORS
330
59
102
}
102
{ACAD_XDICTIONARY
360
254
102
}
330
59
100
AcDbTableStyle
  3
Standard
 70
     0
 71
     0
 40
0.06
 41
0.06
280
     0
281
     0
  7
Standard
140
0.18
170
     2
 62
     0
 63
   257
283
     0
 90
        4
 91
        0
  1

274
    -2
284
     1
 64
     0
275
    -2
285
     1
 65
     0
276
    -2
286
     1
 66
     0
277
    -2
287
     1
 67
     0
278
    -2
288
     1
 68
     0
279
    -2
289
     1
 69
     0
  7
Standard
140
0.25
170
     5
 62
     0
 63
   257
283
     0
 90
        4
 91
        0
  1

274
    -2
284
     1
 64
     0
275
    -2
285
     1
 65
     0
276
    -2
286
     1
 66
     0
277
    -2
287
     1
 67
     0
278
    -2
288
     1
 68
     0
279
    -2
289
     1
 69
     0
  7
Standard
140
0.18
170
     5
 62
     0
 63
   257
283
     0
 90
        4
 91
        0
  1

274
    -2
284
     1
 64
     0
275
    -2
285
     1
 65
     0
276
    -2
286
     1
 66
     0
277
    -2
287
     1
 67
     0
278
    -2
288
     1
 68
     0
279
    -2
289
     1
 69
     0
  0
VISUALSTYLE
  5
2F
102
{ACAD_REACTORS
330
2A
102
}
330
2A
100
AcDbVisualStyle
  2
2dWireframe
 70
     4
177
     3
291
     0
 70
    58
 90
        0
176
     1
 90
        2
176
     1
 90
        0
176
     1
 90
        0
176
     1
 40
0.6
176
     1
 40
30.0
176
     1
 62
     7
420
 16777215
176
     1
 90
        1
176
     1
 90
        4
176
     1
 62
     7
176
     1
 62
   257
176
     1
 90
        1
176
     1
 90
        1
176
     1
 40
1.0
176
     1
 90
        0
176
     1
 62
   257
176
     1
 40
1.0
176
     1
 90
        1
176
     1
 90
        6
176
     1
 90
        2
176
     1
 62
     7
176
     1
 90
        5
176
     1
 90
        0
176
     1
 90
        0
176
     1
290
     0
176
     1
 90
        1
176
     1
 40
0.0
176
     1
 90
        0
176
     1
290
     1
176
     1
290
     1
176
     1
290
     0
176
     1
290
     0
176
     1
290
     0
176
     1
290
     0
176
     1
290
     0
176
     1
290
     0
176
     1
290
     0
176
     1
 90
       50
176
     1
 40
0.0
176
     1
 40
1.0
176
     1
 90
        0
176
     1
 62
    18
420
        0
176
     1
 90
       50
176
     1
 90
        3
176
     1
 62
     5
420
      255
176
     1
290
     0
176
     1
 90
       50
176
     1
 90
       50
176
     1
 90
       50
176
     1
290
     0
176
     1
 90
       50
176
     1
 62
   256
176
     0
 40
1.0
176
     0
 90
        2
176
     1
  1
strokes_ogs.tif
176
     1
290
     0
176
     1
 40
1.0
176
     1
 40
1.0
176
     1
  0
VISUALSTYLE
  5
32
102
{ACAD_REACTORS
330
2A
102
}
330
2A
100
AcDbVisualStyle
  2
Basic
 70
     7
177
     3
291
     1
 70
    58
 90
        1
176
     1
 90
        0
176
     1
 90
        1
176
     1
 90
        0
176
     1
 40
0.6
176
     1
 40
30.0
176
     1
 62
     7
420
 16777215
176
     1
 90
        0
176
     1
 90
        4
176
     1
 62
     7
176
     1
 62
   257
176
     1
 90
        1
176
     1
 90
        1
176
     1
 40
1.0
176
     1
 90
        8
176
     1
 62
     7
176
     1
 40
1.0
176
     1
 90
        1
176
     1
 90
        6
176
     1
 90
        2
176
     1
 62
     7
176
     1
 90
        5
176
     1
 90
        0
176
     1
 90
        0
176
     1
290
     0
176
     1
 90
        1
176
     1
 40
0.0
176
     1
 90
        0
176
     1
290
     0
176
     1
290
     1
176
     1
290
     1
176
     1
290
     0
176
     1
290
     0
176
     1
290
     0
176
     1
290
     0
176
     1
290
     0
176
     1
290
     0
176
     1
 90
       50
176
     1
 40
0.0
176
     1
 40
1.0
176
     1
 90
        0
176
     1
 62
    18
420
        0
176
     1
 90
       50
176
     1
 90
        3
176
     1
 62
     5
420
      255
176
     1
290
     0
176
     1
 90
       50
176
     1
 90
       50
176
     1
 90
       50
176
     1
290
     0
176
     1
 90
       50
176
     1
 62
   256
176
     0
 40
1.0
176
     0
 90
        2
176
     1
  1
strokes_ogs.tif
176
     1
290
     0
176
     1
 40
1.0
176
     1
 40
1.0
176
     1
  0
VISUALSTYLE
  5
36
102
{ACAD_REACTORS
330
2A
102
}
330
2A
100
AcDbVisualStyle
  2
Brighten
 70
    12
177
     3
291
     1
 70
    58
 90
        2
176
     1
 90
        2
176
     1
 90
        0
176
     1
 90
        0
176
     1
 40
0.6
176
     1
 40
30.0
176
     1
 62
     7
420
 16777215
176
     1
 90
        1
176
     1
 90
        4
176
     1
 62
     7
176
     1
 62
   257
176
     1
 90
        1
176
     1
 90
        1
176
     1
 40
1.0
176
     1
 90
        8
176
     1
 62
     7
176
     1
 40
1.0
176
     1
 90
        1
176
     1
 90
        6
176
     1
 90
        2
176
     1
 62
     7
176
     1
 90
        5
176
     1
 90
        0
176
     1
 90
        0
176
     1
290
     0
176
     1
 90
        1
176
     1
 40
50.0
176
     1
 90
        0
176
     1
290
     0
176
     1
290
     1
176
     1
290
     1
176
     1
290
     0
176
     1
290
     0
176
     1
290
     0
176
     1
290
     0
176
     1
290
     0
176
     1
290
     0
176
     1
 90
       50
176
     1
 40
0.0
176
     1
 40
1.0
176
     1
 90
        0
176
     1
 62
    18
420
        0
176
     1
 90
       50
176
     1
 90
        3
176
     1
 62
     5
420
      255
176
     1
290
     0
176
     1
 90
       50
176
     1
 90
       50
176
     1
 90
       50
176
     1
290
     0
176
     1
 90
       50
176
     1
 62
   256
176
     0
 40
1.0
176
     0
 90
        2
176
     1
  1
strokes_ogs.tif
176
     1
290
     0
176
     1
 40
1.0
176
     1
 40
1.0
176
     1
  0
VISUALSTYLE
  5
3A
102
{ACAD_REACTORS
330
2A
102
}
330
2A
100
AcDbVisualStyle
  2
ColorChange
 70
    16
177
     3
291
     1
 70
    58
 90
        2
176
     1
 90
        2
176
     1
 90
        3
176
     1
 90
        0
176
     1
 40
0.6
176
     1
 40
30.0
176
     1
 62
     8
420
  8421504
176
     1
 90
        1
176
     1
 90
        4
176
     1
 62
     7
176
     1
 62
   257
176
     1
 90
        1
176
     1
 90
        1
176
     1
 40
1.0
176
     1
 90
        8
176
     1
 62
     8
420
  8421504
176
     1
 40
1.0
176
     1
 90
        1
176
     1
 90
        6
176
     1
 90
        2
176
     1
 62
     7
176
     1
 90
        5
176
     1
 90
        0
176
     1
 90
        0
176
     1
290
     0
176
     1
 90
        1
176
     1
 40
0.0
176
     1
 90
        0
176
     1
290
     0
176
     1
290
     1
176
     1
290
     1
176
     1
290
     0
176
     1
290
     0
176
     1
290
     0
176
     1
290
     0
176
     1
290
     0
176
     1
290
     0
176
     1
 90
       50
176
     1
 40
0.0
176
     1
 40
1.0
176
     1
 90
        0
176
     1
 62
    18
420
        0
176
     1
 90
       50
176
     1
 90
        3
176
     1
 62
     5
420
      255
176
     1
290
     0
176
     1
 90
       50
176
     1
 90
       50
176
     1
 90
       50
176
     1
290
     0
176
     1
 90
       50
176
     1
 62
   256
176
     0
 40
1.0
176
     0
 90
        2
176
     1
  1
strokes_ogs.tif
176
     1
290
     0
176
     1
 40
1.0
176
     1
 40
1.0
176
     1
  0
VISUALSTYLE
  5
34
102
{ACAD_REACTORS
330
2A
102
}
330
2A
100
AcDbVisualStyle
  2
Conceptual
 70
     9
177
     3
291
     0
 70
    58
 90
        3
176
     1
 90
        2
176
     1
 90
        0
176
     1
 90
        0
176
     1
 40
0.6
176
     1
 40
30.0
176
     1
 62
     7
420
 16777215
176
     1
 90
        2
176
     1
 90
        2
176
     1
 62
     7
176
     1
 62
   257
176
     1
 90
        1
176
     1
 90
        1
176
     1
 40
179.0
176
     1
 90
        8
176
     1
 62
     7
176
     1
 40
1.0
176
     1
 90
        1
176
     1
 90
        6
176
     1
 90
        2
176
     1
 62
     7
176
     1
 90
        3
176
     1
 90
        0
176
     1
 90
        0
176
     1
290
     0
176
     1
 90
        1
176
     1
 40
0.0
176
     1
 90
        0
176
     1
290
     0
176
     1
290
     1
176
     1
290
     1
176
     1
290
     0
176
     1
290
     0
176
     1
290
     0
176
     1
290
     0
176
     1
290
     0
176
     1
290
     0
176
     1
 90
       50
176
     1
 40
0.0
176
     1
 40
1.0
176
     1
 90
        0
176
     1
 62
    18
420
        0
176
     1
 90
       50
176
     1
 90
        3
176
     1
 62
     5
420
      255
176
     1
290
     0
176
     1
 90
       50
176
     1
 90
       50
176
     1
 90
       50
176
     1
290
     0
176
     1
 90
       50
176
     1
 62
   256
176
     0
 40
1.0
176
     0
 90
        2
176
     1
  1
strokes_ogs.tif
176
     1
290
     0
176
     1
 40
1.0
176
     1
 40
1.0
176
     1
  0
VISUALSTYLE
  5
35
102
{ACAD_REACTORS
330
2A
102
}
330
2A
100
AcDbVisualStyle
  2
Dim
 70
    11
177
     3
291
     1
 70
    58
 90
        2
176
     1
 90
        2
176
     1
 90
        0
176
     1
 90
        0
176
     1
 40
0.6
176
     1
 40
30.0
176
     1
 62
     7
420
 16777215
176
     1
 90
        1
176
     1
 90
        4
176
     1
 62
     7
176
     1
 62
   257
176
     1
 90
        1
176
     1
 90
        1
176
     1
 40
1.0
176
     1
 90
        8
176
     1
 62
     7
176
     1
 40
1.0
176
     1
 90
        1
176
     1
 90
        6
176
     1
 90
        2
176
     1
 62
     7
176
     1
 90
        5
176
     1
 90
        0
176
     1
 90
        0
176
     1
290
     0
176
     1
 90
        1
176
     1
 40
-50.0
176
     1
 90
        0
176
     1
290
     0
176
     1
290
     1
176
     1
290
     1
176
     1
290
     0
176
     1
290
     0
176
     1
290
     0
176
     1
290
     0
176
     1
290
     0
176
     1
290
     0
176
     1
 90
       50
176
     1
 40
0.0
176
     1
 40
1.0
176
     1
 90
        0
176
     1
 62
    18
420
        0
176
     1
 90
       50
176
     1
 90
        3
176
     1
 62
     5
420
      255
176
     1
290
     0
176
     1
 90
       50
176
     1
 90
       50
176
     1
 90
       50
176
     1
290
     0
176
     1
 90
       50
176
     1
 62
   256
176
     0
 40
1.0
176
     0
 90
        2
176
     1
  1
strokes_ogs.tif
176
     1
290
     0
176
     1
 40
1.0
176
     1
 40
1.0
176
     1
  0
VISUALSTYLE
  5
3D
102
{ACAD_REACTORS
330
2A
102
}
330
2A
100
AcDbVisualStyle
  2
EdgeColorOff
 70
    22
177
     3
291
     1
 70
    58
 90
        2
176
     0
 90
        2
176
     0
 90
        0
176
     0
 90
        0
176
     0
 40
0.6
176
     0
 40
30.0
176
     0
 62
     7
420
 16777215
176
     0
 90
        1
176
     0
 90
        4
176
     0
 62
     7
176
     0
 62
   257
176
     0
 90
        1
176
     0
 90
        1
176
     0
 40
1.0
176
     0
 90
        8
176
     2
 62
     7
176
     0
 40
1.0
176
     0
 90
        1
176
     0
 90
        6
176
     0
 90
        2
176
     0
 62
     7
176
     0
 90
        5
176
     0
 90
        0
176
     0
 90
        0
176
     0
290
     0
176
     0
 90
        1
176
     0
 40
0.0
176
     0
 90
        0
176
     0
290
     0
176
     0
290
     1
176
     0
290
     1
176
     0
290
     0
176
     0
290
     0
176
     0
290
     0
176
     0
290
     0
176
     0
290
     0
176
     0
290
     0
176
     0
 90
       50
176
     0
 40
0.0
176
     0
 40
1.0
176
     0
 90
        0
176
     0
 62
    18
420
        0
176
     0
 90
       50
176
     0
 90
        3
176
     0
 62
     5
420
      255
176
     0
290
     0
176
     0
 90
       50
176
     0
 90
       50
176
     0
 90
       50
176
     0
290
     0
176
     0
 90
       50
176
     0
 62
   256
176
     0
 40
1.0
176
     0
 90
        2
176
     0
  1
strokes_ogs.tif
176
     0
290
     0
176
     0
 40
1.0
176
     0
 40
1.0
176
     0
  0
VISUALSTYLE
  5
39
102
{ACAD_REACTORS
330
2A
102
}
330
2A
100
AcDbVisualStyle
  2
Facepattern
 70
    15
177
     3
291
     1
 70
    58
 90
        2
176
     1
 90
        2
176
     1
 90
        0
176
     1
 90
        0
176
     1
 40
0.6
176
     1
 40
30.0
176
     1
 62
     7
420
 16777215
176
     1
 90
        1
176
     1
 90
        4
176
     1
 62
     7
176
     1
 62
   257
176
     1
 90
        1
176
     1
 90
        1
176
     1
 40
1.0
176
     1
 90
        8
176
     1
 62
     7
176
     1
 40
1.0
176
     1
 90
        1
176
     1
 90
        6
176
     1
 90
        2
176
     1
 62
     7
176
     1
 90
        5
176
     1
 90
        0
176
     1
 90
        0
176
     1
290
     0
176
     1
 90
        1
176
     1
 40
0.0
176
     1
 90
        0
176
     1
290
     0
176
     1
290
     1
176
     1
290
     1
176
     1
290
     0
176
     1
290
     0
176
     1
290
     0
176
     1
290
     0
176
     1
290
     0
176
     1
290
     0
176
     1
 90
       50
176
     1
 40
0.0
176
     1
 40
1.0
176
     1
 90
        0
176
     1
 62
    18
420
        0
176
     1
 90
       50
176
     1
 90
        3
176
     1
 62
     5
420
      255
176
     1
290
     0
176
     1
 90
       50
176
     1
 90
       50
176
     1
 90
       50
176
     1
290
     0
176
     1
 90
       50
176
     1
 62
   256
176
     0
 40
1.0
176
     0
 90
        2
176
     1
  1
strokes_ogs.tif
176
     1
290
     0
176
     1
 40
1.0
176
     1
 40
1.0
176
     1
  0
VISUALSTYLE
  5
2B
102
{ACAD_REACTORS
330
2A
102
}
330
2A
100
AcDbVisualStyle
  2
Flat
 70
     0
177
     3
291
     1
 70
    58
 90
        2
176
     1
 90
        1
176
     1
 90
        1
176
     1
 90
        2
176
     1
 40
0.6
176
     1
 40
30.0
176
     1
 62
     7
420
 16777215
176
     1
 90
        0
176
     1
 90
        0
176
     1
 62
     7
176
     1
 62
   257
176
     1
 90
        1
176
     1
 90
        1
176
     1
 40
1.0
176
     1
 90
        8
176
     1
 62
     7
176
     1
 40
1.0
176
     1
 90
        1
176
     1
 90
        6
176
     1
 90
        2
176
     1
 62
     7
176
     1
 90
        5
176
     1
 90
        0
176
     1
 90
        0
176
     1
290
     0
176
     1
 90
       13
176
     1
 40
0.0
176
     1
 90
        0
176
     1
290
     0
176
     1
290
     1
176
     1
290
     1
176
     1
290
     0
176
     1
290
     0
176
     1
290
     0
176
     1
290
     0
176
     1
290
     0
176
     1
290
     0
176
     1
 90
       50
176
     1
 40
0.0
176
     1
 40
1.0
176
     1
 90
        0
176
     1
 62
    18
420
        0
176
     1
 90
       50
176
     1
 90
        3
176
     1
 62
     5
420
      255
176
     1
290
     0
176
     1
 90
       50
176
     1
 90
       50
176
     1
 90
       50
176
     1
290
     0
176
     1
 90
       50
176
     1
 62
   256
176
     0
 40
1.0
176
     0
 90
        2
176
     1
  1
strokes_ogs.tif
176
     1
290
     0
176
     1
 40
1.0
176
     1
 40
1.0
176
     1
  0
VISUALSTYLE
  5
2C
102
{ACAD_REACTORS
330
2A
102
}
330
2A
100
AcDbVisualStyle
  2
FlatWithEdges
 70
     1
177
     3
291
     1
 70
    58
 90
        2
176
     1
 90
        1
176
     1
 90
        1
176
     1
 90
        2
176
     1
 40
0.6
176
     1
 40
30.0
176
     1
 62
     7
420
 16777215
176
     1
 90
        1
176
     1
 90
        0
176
     1
 62
     7
176
     1
 62
   257
176
     1
 90
        1
176
     1
 90
        1
176
     1
 40
1.0
176
     1
 90
        0
176
     1
 62
   257
176
     1
 40
1.0
176
     1
 90
        1
176
     1
 90
        6
176
     1
 90
        2
176
     1
 62
     7
176
     1
 90
        5
176
     1
 90
        0
176
     1
 90
        0
176
     1
290
     0
176
     1
 90
       13
176
     1
 40
0.0
176
     1
 90
        0
176
     1
290
     0
176
     1
290
     1
176
     1
290
     1
176
     1
290
     0
176
     1
290
     0
176
     1
290
     0
176
     1
290
     0
176
     1
290
     0
176
     1
290
     0
176
     1
 90
       50
176
     1
 40
0.0
176
     1
 40
1.0
176
     1
 90
        0
176
     1
 62
    18
420
        0
176
     1
 90
       50
176
     1
 90
        3
176
     1
 62
     5
420
      255
176
     1
290
     0
176
     1
 90
       50
176
     1
 90
       50
176
     1
 90
       50
176
     1
290
     0
176
     1
 90
       50
176
     1
 62
   256
176
     0
 40
1.0
176
     0
 90
        2
176
     1
  1
strokes_ogs.tif
176
     1
290
     0
176
     1
 40
1.0
176
     1
 40
1.0
176
     1
  0
VISUALSTYLE
  5
2D
102
{ACAD_REACTORS
330
2A
102
}
330
2A
100
AcDbVisualStyle
  2
Gouraud
 70
     2
177
     3
291
     1
 70
    58
 90
        2
176
     1
 90
        2
176
     1
 90
        1
176
     1
 90
        2
176
     1
 40
0.6
176
     1
 40
30.0
176
     1
 62
     7
420
 16777215
176
     1
 90
        0
176
     1
 90
        0
176
     1
 62
     7
176
     1
 62
   257
176
     1
 90
        1
176
     1
 90
        1
176
     1
 40
1.0
176
     1
 90
        0
176
     1
 62
     7
176
     1
 40
1.0
176
     1
 90
        1
176
     1
 90
        6
176
     1
 90
        2
176
     1
 62
     7
176
     1
 90
        5
176
     1
 90
        0
176
     1
 90
        0
176
     1
290
     0
176
     1
 90
       13
176
     1
 40
0.0
176
     1
 90
        0
176
     1
290
     0
176
     1
290
     1
176
     1
290
     1
176
     1
290
     0
176
     1
290
     0
176
     1
290
     0
176
     1
290
     0
176
     1
290
     0
176
     1
290
     0
176
     1
 90
       50
176
     1
 40
0.0
176
     1
 40
1.0
176
     1
 90
        0
176
     1
 62
    18
420
        0
176
     1
 90
       50
176
     1
 90
        3
176
     1
 62
     5
420
      255
176
     1
290
     0
176
     1
 90
       50
176
     1
 90
       50
176
     1
 90
       50
176
     1
290
     0
176
     1
 90
       50
176
     1
 62
   256
176
     0
 40
1.0
176
     0
 90
        2
176
     1
  1
strokes_ogs.tif
176
     1
290
     0
176
     1
 40
1.0
176
     1
 40
1.0
176
     1
  0
VISUALSTYLE
  5
2E
102
{ACAD_REACTORS
330
2A
102
}
330
2A
100
AcDbVisualStyle
  2
GouraudWithEdges
 70
     3
177
     3
291
     1
 70
    58
 90
        2
176
     1
 90
        2
176
     1
 90
        1
176
     1
 90
        2
176
     1
 40
0.6
176
     1
 40
30.0
176
     1
 62
     7
420
 16777215
176
     1
 90
        1
176
     1
 90
        0
176
     1
 62
     7
176
     1
 62
   257
176
     1
 90
        1
176
     1
 90
        1
176
     1
 40
1.0
176
     1
 90
        0
176
     1
 62
   257
176
     1
 40
1.0
176
     1
 90
        1
176
     1
 90
        6
176
     1
 90
        2
176
     1
 62
     7
176
     1
 90
        5
176
     1
 90
        0
176
     1
 90
        0
176
     1
290
     0
176
     1
 90
       13
176
     1
 40
0.0
176
     1
 90
        0
176
     1
290
     0
176
     1
290
     1
176
     1
290
     1
176
     1
290
     0
176
     1
290
     0
176
     1
290
     0
176
     1
290
     0
176
     1
290
     0
176
     1
290
     0
176
     1
 90
       50
176
     1
 40
0.0
176
     1
 40
1.0
176
     1
 90
        0
176
     1
 62
    18
420
        0
176
     1
 90
       50
176
     1
 90
        3
176
     1
 62
     5
420
      255
176
     1
290
     0
176
     1
 90
       50
176
     1
 90
       50
176
     1
 90
       50
176
     1
290
     0
176
     1
 90
       50
176
     1
 62
   256
176
     0
 40
1.0
176
     0
 90
        2
176
     1
  1
strokes_ogs.tif
176
     1
290
     0
176
     1
 40
1.0
176
     1
 40
1.0
176
     1
  0
VISUALSTYLE
  5
31
102
{ACAD_REACTORS
330
2A
102
}
330
2A
100
AcDbVisualStyle
  2
Hidden
 70
     6
177
     3
291
     0
 70
    58
 90
        1
176
     1
 90
        2
176
     1
 90
        2
176
     1
 90
        0
176
     1
 40
0.6
176
     1
 40
30.0
176
     1
 62
     7
420
 16777215
176
     1
 90
        2
176
     1
 90
        2
176
     1
 62
     7
176
     1
 62
   257
176
     1
 90
        2
176
     1
 90
        1
176
     1
 40
40.0
176
     1
 90
        0
176
     1
 62
   257
176
     1
 40
1.0
176
     1
 90
        1
176
     1
 90
        6
176
     1
 90
        2
176
     1
 62
     7
176
     1
 90
        3
176
     1
 90
        0
176
     1
 90
        0
176
     1
290
     0
176
     1
 90
        1
176
     1
 40
0.0
176
     1
 90
        0
176
     1
290
     0
176
     1
290
     1
176
     1
290
     1
176
     1
290
     0
176
     1
290
     0
176
     1
290
     0
176
     1
290
     0
176
     1
290
     0
176
     1
290
     0
176
     1
 90
       50
176
     1
 40
0.0
176
     1
 40
1.0
176
     1
 90
        0
176
     1
 62
    18
420
        0
176
     1
 90
       50
176
     1
 90
        3
176
     1
 62
     5
420
      255
176
     1
290
     0
176
     1
 90
       50
176
     1
 90
       50
176
     1
 90
       50
176
     1
290
     0
176
     1
 90
       50
176
     1
 62
   256
176
     0
 40
1.0
176
     0
 90
        2
176
     1
  1
strokes_ogs.tif
176
     1
290
     0
176
     1
 40
1.0
176
     1
 40
1.0
176
     1
  0
VISUALSTYLE
  5
3B
102
{ACAD_REACTORS
330
2A
102
}
330
2A
100
AcDbVisualStyle
  2
JitterOff
 70
    20
177
     3
291
     1
 70
    58
 90
        2
176
     0
 90
        2
176
     0
 90
        0
176
     0
 90
        0
176
     0
 40
0.6
176
     0
 40
30.0
176
     0
 62
     7
420
 16777215
176
     0
 90
        1
176
     0
 90
        4
176
     0
 62
     7
176
     0
 62
   257
176
     0
 90
        1
176
     0
 90
        1
176
     0
 40
1.0
176
     0
 90
       10
176
     2
 62
     7
176
     0
 40
1.0
176
     0
 90
        1
176
     0
 90
        6
176
     0
 90
        2
176
     0
 62
     7
176
     0
 90
        5
176
     0
 90
        0
176
     0
 90
        0
176
     0
290
     0
176
     0
 90
        1
176
     0
 40
0.0
176
     0
 90
        0
176
     0
290
     0
176
     0
290
     1
176
     0
290
     1
176
     0
290
     0
176
     0
290
     0
176
     0
290
     0
176
     0
290
     0
176
     0
290
     0
176
     0
290
     0
176
     0
 90
       50
176
     0
 40
0.0
176
     0
 40
1.0
176
     0
 90
        0
176
     0
 62
    18
420
        0
176
     0
 90
       50
176
     0
 90
        3
176
     0
 62
     5
420
      255
176
     0
290
     0
176
     0
 90
       50
176
     0
 90
       50
176
     0
 90
       50
176
     0
290
     0
176
     0
 90
       50
176
     0
 62
   256
176
     0
 40
1.0
176
     0
 90
        2
176
     0
  1
strokes_ogs.tif
176
     0
290
     0
176
     0
 40
1.0
176
     0
 40
1.0
176
     0
  0
VISUALSTYLE
  5
38
102
{ACAD_REACTORS
330
2A
102
}
330
2A
100
AcDbVisualStyle
  2
Linepattern
 70
    14
177
     3
291
     1
 70
    58
 90
        2
176
     1
 90
        2
176
     1
 90
        0
176
     1
 90
        0
176
     1
 40
0.6
176
     1
 40
30.0
176
     1
 62
     7
420
 16777215
176
     1
 90
        1
176
     1
 90
        4
176
     1
 62
     7
176
     1
 62
   257
176
     1
 90
        7
176
     1
 90
        7
176
     1
 40
1.0
176
     1
 90
        8
176
     1
 62
     7
176
     1
 40
1.0
176
     1
 90
        1
176
     1
 90
        6
176
     1
 90
        2
176
     1
 62
     7
176
     1
 90
        5
176
     1
 90
        0
176
     1
 90
        0
176
     1
290
     0
176
     1
 90
        1
176
     1
 40
0.0
176
     1
 90
        0
176
     1
290
     0
176
     1
290
     1
176
     1
290
     1
176
     1
290
     0
176
     1
290
     0
176
     1
290
     0
176
     1
290
     0
176
     1
290
     0
176
     1
290
     0
176
     1
 90
       50
176
     1
 40
0.0
176
     1
 40
1.0
176
     1
 90
        0
176
     1
 62
    18
420
        0
176
     1
 90
       50
176
     1
 90
        3
176
     1
 62
     5
420
      255
176
     1
290
     0
176
     1
 90
       50
176
     1
 90
       50
176
     1
 90
       50
176
     1
290
     0
176
     1
 90
       50
176
     1
 62
   256
176
     0
 40
1.0
176
     0
 90
        2
176
     1
  1
strokes_ogs.tif
176
     1
290
     0
176
     1
 40
1.0
176
     1
 40
1.0
176
     1
  0
VISUALSTYLE
  5
3C
102
{ACAD_REACTORS
330
2A
102
}
330
2A
100
AcDbVisualStyle
  2
OverhangOff
 70
    21
177
     3
291
     1
 70
    58
 90
        2
176
     0
 90
        2
176
     0
 90
        0
176
     0
 90
        0
176
     0
 40
0.6
176
     0
 40
30.0
176
     0
 62
     7
420
 16777215
176
     0
 90
        1
176
     0
 90
        4
176
     0
 62
     7
176
     0
 62
   257
176
     0
 90
        1
176
     0
 90
        1
176
     0
 40
1.0
176
     0
 90
        9
176
     2
 62
     7
176
     0
 40
1.0
176
     0
 90
        1
176
     0
 90
        6
176
     0
 90
        2
176
     0
 62
     7
176
     0
 90
        5
176
     0
 90
        0
176
     0
 90
        0
176
     0
290
     0
176
     0
 90
        1
176
     0
 40
0.0
176
     0
 90
        0
176
     0
290
     0
176
     0
290
     1
176
     0
290
     1
176
     0
290
     0
176
     0
290
     0
176
     0
290
     0
176
     0
290
     0
176
     0
290
     0
176
     0
290
     0
176
     0
 90
       50
176
     0
 40
0.0
176
     0
 40
1.0
176
     0
 90
        0
176
     0
 62
    18
420
        0
176
     0
 90
       50
176
     0
 90
        3
176
     0
 62
     5
420
      255
176
     0
290
     0
176
     0
 90
       50
176
     0
 90
       50
176
     0
 90
       50
176
     0
290
     0
176
     0
 90
       50
176
     0
 62
   256
176
     0
 40
1.0
176
     0
 90
        2
176
     0
  1
strokes_ogs.tif
176
     0
290
     0
176
     0
 40
1.0
176
     0
 40
1.0
176
     0
  0
VISUALSTYLE
  5
33
102
{ACAD_REACTORS
330
2A
102
}
330
2A
100
AcDbVisualStyle
  2
Realistic
 70
     8
177
     3
291
     0
 70
    58
 90
        2
176
     1
 90
        3
176
     1
 90
        0
176
     1
 90
        2
176
     1
 40
0.6
176
     1
 40
30.0
176
     1
 62
     7
420
 16777215
176
     1
 90
        0
176
     1
 90
        0
176
     1
 62
     7
176
     1
 62
   257
176
     1
 90
        1
176
     1
 90
        1
176
     1
 40
1.0
176
     1
 90
        8
176
     1
 62
   257
176
     1
 40
1.0
176
     1
 90
        1
176
     1
 90
        6
176
     1
 90
        2
176
     1
 62
     7
176
     1
 90
        3
176
     1
 90
        0
176
     1
 90
        0
176
     1
290
     0
176
     1
 90
       13
176
     1
 40
0.0
176
     1
 90
        0
176
     1
290
     0
176
     1
290
     1
176
     1
290
     1
176
     1
290
     0
176
     1
290
     0
176
     1
290
     0
176
     1
290
     0
176
     1
290
     0
176
     1
290
     0
176
     1
 90
       50
176
     1
 40
0.0
176
     1
 40
1.0
176
     1
 90
        0
176
     1
 62
    18
420
        0
176
     1
 90
       50
176
     1
 90
        3
176
     1
 62
     5
420
      255
176
     1
290
     0
176
     1
 90
       50
176
     1
 90
       50
176
     1
 90
       50
176
     1
290
     0
176
     1
 90
       50
176
     1
 62
   256
176
     0
 40
1.0
176
     0
 90
        2
176
     1
  1
strokes_ogs.tif
176
     1
290
     0
176
     1
 40
1.0
176
     1
 40
1.0
176
     1
  0
VISUALSTYLE
  5
42
102
{ACAD_REACTORS
330
2A
102
}
330
2A
100
AcDbVisualStyle
  2
Shaded
 70
    27
177
     3
291
     0
 70
    58
 90
        2
176
     1
 90
        2
176
     1
 90
        1
176
     1
 90
        2
176
     1
 40
0.6
176
     1
 40
30.0
176
     1
 62
     7
420
 16777215
176
     1
 90
        0
176
     1
 90
        4
176
     1
 62
     7
176
     1
 62
   257
176
     1
 90
        1
176
     1
 90
        1
176
     1
 40
1.0
176
     1
 90
        8
176
     1
 62
   257
176
     1
 40
1.0
176
     1
 90
        1
176
     1
 90
        6
176
     1
 90
        2
176
     1
 62
     8
420
  7895160
176
     1
 90
        3
176
     1
 90
        0
176
     1
 90
        0
176
     1
290
     0
176
     1
 90
        5
176
     1
 40
0.0
176
     1
 90
        0
176
     1
290
     0
176
     1
290
     1
176
     1
290
     1
176
     1
290
     0
176
     1
290
     0
176
     1
290
     0
176
     1
290
     0
176
     1
290
     0
176
     1
290
     0
176
     1
 90
       50
176
     1
 40
0.0
176
     1
 40
1.0
176
     1
 90
        0
176
     1
 62
    18
420
        0
176
     1
 90
       50
176
     1
 90
        3
176
     1
 62
     5
420
      255
176
     1
290
     0
176
     1
 90
       50
176
     1
 90
       50
176
     1
 90
       50
176
     1
290
     0
176
     1
 90
       50
176
     1
 62
   256
176
     0
 40
1.0
176
     0
 90
        2
176
     1
  1
strokes_ogs.tif
176
     1
290
     0
176
     1
 40
1.0
176
     1
 40
1.0
176
     1
  0
VISUALSTYLE
  5
41
102
{ACAD_REACTORS
330
2A
102
}
330
2A
100
AcDbVisualStyle
  2
Shaded with edges
 70
    26
177
     3
291
     0
 70
    58
 90
        2
176
     1
 90
        2
176
     1
 90
        1
176
     1
 90
        2
176
     1
 40
0.6
176
     1
 40
30.0
176
     1
 62
     7
420
 16777215
176
     1
 90
        1
176
     1
 90
       10
176
     1
 62
     7
176
     1
 62
   257
176
     1
 90
        2
176
     1
 90
        1
176
     1
 40
1.0
176
     1
 90
        8
176
     1
 62
   257
176
     1
 40
1.0
176
     1
 90
        1
176
     1
 90
        6
176
     1
 90
        2
176
     1
 62
     7
176
     1
 90
        3
176
     1
 90
        0
176
     1
 90
        0
176
     1
290
     0
176
     1
 90
        5
176
     1
 40
0.0
176
     1
 90
        0
176
     1
290
     0
176
     1
290
     1
176
     1
290
     1
176
     1
290
     0
176
     1
290
     0
176
     1
290
     0
176
     1
290
     0
176
     1
290
     0
176
     1
290
     0
176
     1
 90
       50
176
     1
 40
0.0
176
     1
 40
1.0
176
     1
 90
        0
176
     1
 62
    18
420
        0
176
     1
 90
       50
176
     1
 90
        3
176
     1
 62
     5
420
      255
176
     1
290
     0
176
     1
 90
       50
176
     1
 90
       50
176
     1
 90
       50
176
     1
290
     0
176
     1
 90
       50
176
     1
 62
   256
176
     0
 40
1.0
176
     0
 90
        2
176
     1
  1
strokes_ogs.tif
176
     1
290
     0
176
     1
 40
1.0
176
     1
 40
1.0
176
     1
  0
VISUALSTYLE
  5
3E
102
{ACAD_REACTORS
330
2A
102
}
330
2A
100
AcDbVisualStyle
  2
Shades of Gray
 70
    23
177
     3
291
     0
 70
    58
 90
        2
176
     1
 90
        2
176
     1
 90
        3
176
     1
 90
        0
176
     1
 40
0.6
176
     1
 40
30.0
176
     1
 62
     7
420
 16777215
176
     1
 90
        2
176
     1
 90
        2
176
     1
 62
     7
176
     1
 62
     7
176
     1
 90
        1
176
     1
 90
        1
176
     1
 40
40.0
176
     1
 90
        8
176
     1
 62
     7
176
     1
 40
1.0
176
     1
 90
        1
176
     1
 90
        6
176
     1
 90
        2
176
     1
 62
     7
176
     1
 90
        3
176
     1
 90
        0
176
     1
 90
        0
176
     1
290
     0
176
     1
 90
        1
176
     1
 40
0.0
176
     1
 90
        0
176
     1
290
     0
176
     1
290
     1
176
     1
290
     1
176
     1
290
     0
176
     1
290
     0
176
     1
290
     0
176
     1
290
     0
176
     1
290
     0
176
     1
290
     0
176
     1
 90
       50
176
     1
 40
0.0
176
     1
 40
1.0
176
     1
 90
        0
176
     1
 62
    18
420
        0
176
     1
 90
       50
176
     1
 90
        3
176
     1
 62
     5
420
      255
176
     1
290
     0
176
     1
 90
       50
176
     1
 90
       50
176
     1
 90
       50
176
     1
290
     0
176
     1
 90
       50
176
     1
 62
   256
176
     0
 40
1.0
176
     0
 90
        2
176
     1
  1
strokes_ogs.tif
176
     1
290
     0
176
     1
 40
1.0
176
     1
 40
1.0
176
     1
  0
VISUALSTYLE
  5
3F
102
{ACAD_REACTORS
330
2A
102
}
330
2A
100
AcDbVisualStyle
  2
Sketchy
 70
    24
177
     3
291
     0
 70
    58
 90
        1
176
     1
 90
        2
176
     1
 90
        2
176
     1
 90
        0
176
     1
 40
0.6
176
     1
 40
30.0
176
     1
 62
     7
420
 16777215
176
     1
 90
        2
176
     1
 90
        2
176
     1
 62
     7
176
     1
 62
     7
176
     1
 90
        1
176
     1
 90
        1
176
     1
 40
40.0
176
     1
 90
       11
176
     1
 62
     7
176
     1
 40
1.0
176
     1
 90
        1
176
     1
 90
        6
176
     1
 90
        2
176
     1
 62
     7
176
     1
 90
        6
176
     1
 90
        0
176
     1
 90
        0
176
     1
290
     0
176
     1
 90
        1
176
     1
 40
0.0
176
     1
 90
        0
176
     1
290
     0
176
     1
290
     1
176
     1
290
     1
176
     1
290
     0
176
     1
290
     0
176
     1
290
     0
176
     1
290
     0
176
     1
290
     0
176
     1
290
     0
176
     1
 90
       50
176
     1
 40
0.0
176
     1
 40
1.0
176
     1
 90
        0
176
     1
 62
    18
420
        0
176
     1
 90
       50
176
     1
 90
        3
176
     1
 62
     5
420
      255
176
     1
290
     0
176
     1
 90
       50
176
     1
 90
       50
176
     1
 90
       50
176
     1
290
     0
176
     1
 90
       50
176
     1
 62
   256
176
     0
 40
1.0
176
     0
 90
        2
176
     1
  1
strokes_ogs.tif
176
     1
290
     0
176
     1
 40
1.0
176
     1
 40
1.0
176
     1
  0
VISUALSTYLE
  5
37
102
{ACAD_REACTORS
330
2A
102
}
330
2A
100
AcDbVisualStyle
  2
Thicken
 70
    13
177
     3
291
     1
 70
    58
 90
        2
176
     1
 90
        2
176
     1
 90
        0
176
     1
 90
        0
176
     1
 40
0.6
176
     1
 40
30.0
176
     1
 62
     7
420
 16777215
176
     1
 90
        1
176
     1
 90
        4
176
     1
 62
     7
176
     1
 62
   257
176
     1
 90
        1
176
     1
 90
        1
176
     1
 40
1.0
176
     1
 90
       12
176
     1
 62
     7
176
     1
 40
1.0
176
     1
 90
        1
176
     1
 90
        6
176
     1
 90
        2
176
     1
 62
     7
176
     1
 90
        5
176
     1
 90
        0
176
     1
 90
        0
176
     1
290
     0
176
     1
 90
        1
176
     1
 40
0.0
176
     1
 90
        0
176
     1
290
     0
176
     1
290
     1
176
     1
290
     1
176
     1
290
     0
176
     1
290
     0
176
     1
290
     0
176
     1
290
     0
176
     1
290
     0
176
     1
290
     0
176
     1
 90
       50
176
     1
 40
0.0
176
     1
 40
1.0
176
     1
 90
        0
176
     1
 62
    18
420
        0
176
     1
 90
       50
176
     1
 90
        3
176
     1
 62
     5
420
      255
176
     1
290
     0
176
     1
 90
       50
176
     1
 90
       50
176
     1
 90
       50
176
     1
290
     0
176
     1
 90
       50
176
     1
 62
   256
176
     0
 40
1.0
176
     0
 90
        2
176
     1
  1
strokes_ogs.tif
176
     1
290
     0
176
     1
 40
1.0
176
     1
 40
1.0
176
     1
  0
VISUALSTYLE
  5
30
102
{ACAD_REACTORS
330
2A
102
}
330
2A
100
AcDbVisualStyle
  2
Wireframe
 70
     5
177
     3
291
     0
 70
    58
 90
        0
176
     1
 90
        2
176
     1
 90
        0
176
     1
 90
        0
176
     1
 40
0.6
176
     1
 40
30.0
176
     1
 62
     7
420
 16777215
176
     1
 90
        1
176
     1
 90
        4
176
     1
 62
     7
176
     1
 62
   257
176
     1
 90
        1
176
     1
 90
        1
176
     1
 40
1.0
176
     1
 90
        0
176
     1
 62
   257
176
     1
 40
1.0
176
     1
 90
        1
176
     1
 90
        6
176
     1
 90
        2
176
     1
 62
     7
176
     1
 90
        3
176
     1
 90
        0
176
     1
 90
        0
176
     1
290
     0
176
     1
 90
        1
176
     1
 40
0.0
176
     1
 90
        0
176
     1
290
     0
176
     1
290
     1
176
     1
290
     1
176
     1
290
     0
176
     1
290
     0
176
     1
290
     0
176
     1
290
     0
176
     1
290
     0
176
     1
290
     0
176
     1
 90
       50
176
     1
 40
0.0
176
     1
 40
1.0
176
     1
 90
        0
176
     1
 62
    18
420
        0
176
     1
 90
       50
176
     1
 90
        3
176
     1
 62
     5
420
      255
176
     1
290
     0
176
     1
 90
       50
176
     1
 90
       50
176
     1
 90
       50
176
     1
290
     0
176
     1
 90
       50
176
     1
 62
   256
176
     0
 40
1.0
176
     0
 90
        2
176
     1
  1
strokes_ogs.tif
176
     1
290
     0
176
     1
 40
1.0
176
     1
 40
1.0
176
     1
  0
VISUALSTYLE
  5
40
102
{ACAD_REACTORS
330
2A
102
}
330
2A
100
AcDbVisualStyle
  2
X-Ray
 70
    25
177
     3
291
     0
 70
    58
 90
        2
176
     1
 90
        2
176
     1
 90
        1
176
     1
 90
        1
176
     1
 40
0.5
176
     1
 40
30.0
176
     1
 62
     7
420
 16777215
176
     1
 90
        1
176
     1
 90
        0
176
     1
 62
     7
176
     1
 62
   257
176
     1
 90
        1
176
     1
 90
        1
176
     1
 40
1.0
176
     1
 90
        8
176
     1
 62
     7
176
     1
 40
1.0
176
     1
 90
        1
176
     1
 90
        6
176
     1
 90
        2
176
     1
 62
     7
176
     1
 90
        3
176
     1
 90
        0
176
     1
 90
        0
176
     1
290
     0
176
     1
 90
       13
176
     1
 40
0.0
176
     1
 90
        0
176
     1
290
     0
176
     1
290
     1
176
     1
290
     1
176
     1
290
     0
176
     1
290
     0
176
     1
290
     0
176
     1
290
     0
176
     1
290
     0
176
     1
290
     0
176
     1
 90
       50
176
     1
 40
0.0
176
     1
 40
1.0
176
     1
 90
        0
176
     1
 62
    18
420
        0
176
     1
 90
       50
176
     1
 90
        3
176
     1
 62
     5
420
      255
176
     1
290
     0
176
     1
 90
       50
176
     1
 90
       50
176
     1
 90
       50
176
     1
290
     0
176
     1
 90
       50
176
     1
 62
   256
176
     0
 40
1.0
176
     0
 90
        2
176
     1
  1
strokes_ogs.tif
176
     1
290
     0
176
     1
 40
1.0
176
     1
 40
1.0
176
     1
  0
DICTIONARYVAR
  5
253
102
{ACAD_REACTORS
330
252
102
}
330
252
100
DictionaryVariables
280
     0
  1
1:1
  0
DICTIONARYVAR
  5
258
102
{ACAD_REACTORS
330
252
102
}
330
252
100
DictionaryVariables
280
     0
  1
Standard
  0
DICTIONARYVAR
  5
257
102
{ACAD_REACTORS
330
252
102
}
330
252
100
DictionaryVariables
280
     0
  1
Standard
  0
DICTIONARY
  5
254
330
5A
100
AcDbDictionary
280
     1
281
     1
  3
ACAD_ROUNDTRIP_2008_TABLESTYLE_CELLSTYLEMAP
360
255
  0
CELLSTYLEMAP
  5
255
102
{ACAD_REACTORS
330
254
102
}
330
254
100
AcDbCellStyleMap
 90
        3
300
CELLSTYLE
  1
TABLEFORMAT_BEGIN
 90
        5
170
     1
 91
        0
 92
    32768
 62
   257
 93
        1
300
CONTENTFORMAT
  1
CONTENTFORMAT_BEGIN
 90
        0
 91
        0
 92
        4
 93
        0
300

 40
0.0
140
1.0
 94
        5
 62
     0
340
11
144
0.25
309
CONTENTFORMAT_END
171
     1
301
MARGIN
  1
CELLMARGIN_BEGIN
 40
0.06
 40
0.06
 40
0.06
 40
0.06
 40
0.06
 40
0.06
309
CELLMARGIN_END
 94
        6
 95
        1
302
GRIDFORMAT
  1
GRIDFORMAT_BEGIN
 90
        0
 91
        1
 62
     0
 92
       -2
340
14
 93
        0
 40
0.045
309
GRIDFORMAT_END
 95
        2
302
GRIDFORMAT
  1
GRIDFORMAT_BEGIN
 90
        0
 91
        1
 62
     0
 92
       -2
340
14
 93
        0
 40
0.045
309
GRIDFORMAT_END
 95
        4
302
GRIDFORMAT
  1
GRIDFORMAT_BEGIN
 90
        0
 91
        1
 62
     0
 92
       -2
340
14
 93
        0
 40
0.045
309
GRIDFORMAT_END
 95
        8
302
GRIDFORMAT
  1
GRIDFORMAT_BEGIN
 90
        0
 91
        1
 62
     0
 92
       -2
340
14
 93
        0
 40
0.045
309
GRIDFORMAT_END
 95
       16
302
GRIDFORMAT
  1
GRIDFORMAT_BEGIN
 90
        0
 91
        1
 62
     0
 92
       -2
340
14
 93
        0
 40
0.045
309
GRIDFORMAT_END
 95
       32
302
GRIDFORMAT
  1
GRIDFORMAT_BEGIN
 90
        0
 91
        1
 62
     0
 92
       -2
340
14
 93
        0
 40
0.045
309
GRIDFORMAT_END
309
TABLEFORMAT_END
  1
CELLSTYLE_BEGIN
 90
        1
 91
        1
300
_TITLE
309
CELLSTYLE_END
300
CELLSTYLE
  1
TABLEFORMAT_BEGIN
 90
        5
170
     1
 91
        0
 92
        0
 62
   257
 93
        1
300
CONTENTFORMAT
  1
CONTENTFORMAT_BEGIN
 90
        0
 91
        0
 92
        4
 93
        0
300

 40
0.0
140
1.0
 94
        5
 62
     0
340
11
144
0.18
309
CONTENTFORMAT_END
171
     1
301
MARGIN
  1
CELLMARGIN_BEGIN
 40
0.06
 40
0.06
 40
0.06
 40
0.06
 40
0.06
 40
0.06
309
CELLMARGIN_END
 94
        6
 95
        1
302
GRIDFORMAT
  1
GRIDFORMAT_BEGIN
 90
        0
 91
        1
 62
     0
 92
       -2
340
14
 93
        0
 40
0.045
309
GRIDFORMAT_END
 95
        2
302
GRIDFORMAT
  1
GRIDFORMAT_BEGIN
 90
        0
 91
        1
 62
     0
 92
       -2
340
14
 93
        0
 40
0.045
309
GRIDFORMAT_END
 95
        4
302
GRIDFORMAT
  1
GRIDFORMAT_BEGIN
 90
        0
 91
        1
 62
     0
 92
       -2
340
14
 93
        0
 40
0.045
309
GRIDFORMAT_END
 95
        8
302
GRIDFORMAT
  1
GRIDFORMAT_BEGIN
 90
        0
 91
        1
 62
     0
 92
       -2
340
14
 93
        0
 40
0.045
309
GRIDFORMAT_END
 95
       16
302
GRIDFORMAT
  1
GRIDFORMAT_BEGIN
 90
        0
 91
        1
 62
     0
 92
       -2
340
14
 93
        0
 40
0.045
309
GRIDFORMAT_END
 95
       32
302
GRIDFORMAT
  1
GRIDFORMAT_BEGIN
 90
        0
 91
        1
 62
     0
 92
       -2
340
14
 93
        0
 40
0.045
309
GRIDFORMAT_END
309
TABLEFORMAT_END
  1
CELLSTYLE_BEGIN
 90
        2
 91
        1
300
_HEADER
309
CELLSTYLE_END
300
CELLSTYLE
  1
TABLEFORMAT_BEGIN
 90
        5
170
     1
 91
        0
 92
        0
 62
   257
 93
        1
300
CONTENTFORMAT
  1
CONTENTFORMAT_BEGIN
 90
        0
 91
        0
 92
        4
 93
        0
300

 40
0.0
140
1.0
 94
        2
 62
     0
340
11
144
0.18
309
CONTENTFORMAT_END
171
     1
301
MARGIN
  1
CELLMARGIN_BEGIN
 40
0.06
 40
0.06
 40
0.06
 40
0.06
 40
0.06
 40
0.06
309
CELLMARGIN_END
 94
        6
 95
        1
302
GRIDFORMAT
  1
GRIDFORMAT_BEGIN
 90
        0
 91
        1
 62
     0
 92
       -2
340
14
 93
        0
 40
0.045
309
GRIDFORMAT_END
 95
        2
302
GRIDFORMAT
  1
GRIDFORMAT_BEGIN
 90
        0
 91
        1
 62
     0
 92
       -2
340
14
 93
        0
 40
0.045
309
GRIDFORMAT_END
 95
        4
302
GRIDFORMAT
  1
GRIDFORMAT_BEGIN
 90
        0
 91
        1
 62
     0
 92
       -2
340
14
 93
        0
 40
0.045
309
GRIDFORMAT_END
 95
        8
302
GRIDFORMAT
  1
GRIDFORMAT_BEGIN
 90
        0
 91
        1
 62
     0
 92
       -2
340
14
 93
        0
 40
0.045
309
GRIDFORMAT_END
 95
       16
302
GRIDFORMAT
  1
GRIDFORMAT_BEGIN
 90
        0
 91
        1
 62
     0
 92
       -2
340
14
 93
        0
 40
0.045
309
GRIDFORMAT_END
 95
       32
302
GRIDFORMAT
  1
GRIDFORMAT_BEGIN
 90
        0
 91
        1
 62
     0
 92
       -2
340
14
 93
        0
 40
0.045
309
GRIDFORMAT_END
309
TABLEFORMAT_END
  1
CELLSTYLE_BEGIN
 90
        3
 91
        2
300
_DATA
309
CELLSTYLE_END
  0
ENDSEC
  0
EOF
