  0
SECTION
  2
HEADER
  9
$ACADVER
  1
AC1027
  9
$ACADMAINTVER
 70
   105
  9
$DWGCODEPAGE
  3
ANSI_1252
  9
$LASTSAVEDBY
  1
Office Desk
  9
$REQUIREDVERSIONS
160
                 0
  9
$INSBASE
 10
0.0
 20
0.0
 30
0.0
  9
$EXTMIN
 10
393.3015
 20
-225.5011
 30
0.0
  9
$EXTMAX
 10
793.4778
 20
174.6754
 30
0.0
  9
$LIMMIN
 10
0.0
 20
0.0
  9
$LIMMAX
 10
12.0
 20
9.0
  9
$ORTHOMODE
 70
     0
  9
$REGENMODE
 70
     1
  9
$FILLMODE
 70
     1
  9
$QTEXTMODE
 70
     0
  9
$MIRRTEXT
 70
     1
  9
$LTSCALE
 40
1.0
  9
$ATTMODE
 70
     1
  9
$TEXTSIZE
 40
0.2
  9
$TRACEWID
 40
0.05
  9
$TEXTSTYLE
  7
Standard
  9
$CLAYER
  8
0
  9
$CELTYPE
  6
ByLayer
  9
$CECOLOR
 62
   256
  9
$CELTSCALE
 40
1.0
  9
$DISPSILH
 70
     0
  9
$DIMSCALE
 40
1.0
  9
$DIMASZ
 40
0.18
  9
$DIMEXO
 40
0.0625
  9
$DIMDLI
 40
0.38
  9
$DIMRND
 40
0.0
  9
$DIMDLE
 40
0.0
  9
$DIMEXE
 40
0.18
  9
$DIMTP
 40
0.0
  9
$DIMTM
 40
0.0
  9
$DIMTXT
 40
0.18
  9
$DIMCEN
 40
0.09
  9
$DIMTSZ
 40
0.0
  9
$DIMTOL
 70
     0
  9
$DIMLIM
 70
     0
  9
$DIMTIH
 70
     1
  9
$DIMTOH
 70
     1
  9
$DIMSE1
 70
     0
  9
$DIMSE2
 70
     0
  9
$DIMTAD
 70
     0
  9
$DIMZIN
 70
     0
  9
$DIMBLK
  1

  9
$DIMASO
 70
     1
  9
$DIMSHO
 70
     1
  9
$DIMPOST
  1

  9
$DIMAPOST
  1

  9
$DIMALT
 70
     0
  9
$DIMALTD
 70
     2
  9
$DIMALTF
 40
25.4
  9
$DIMLFAC
 40
1.0
  9
$DIMTOFL
 70
     0
  9
$DIMTVP
 40
0.0
  9
$DIMTIX
 70
     0
  9
$DIMSOXD
 70
     0
  9
$DIMSAH
 70
     0
  9
$DIMBLK1
  1

  9
$DIMBLK2
  1

  9
$DIMSTYLE
  2
Standard
  9
$DIMCLRD
 70
     0
  9
$DIMCLRE
 70
     0
  9
$DIMCLRT
 70
     0
  9
$DIMTFAC
 40
1.0
  9
$DIMGAP
 40
0.09
  9
$DIMJUST
 70
     0
  9
$DIMSD1
 70
     0
  9
$DIMSD2
 70
     0
  9
$DIMTOLJ
 70
     1
  9
$DIMTZIN
 70
     0
  9
$DIMALTZ
 70
     0
  9
$DIMALTTZ
 70
     0
  9
$DIMUPT
 70
     0
  9
$DIMDEC
 70
     4
  9
$DIMTDEC
 70
     4
  9
$DIMALTU
 70
     2
  9
$DIMALTTD
 70
     2
  9
$DIMTXSTY
  7
Standard
  9
$DIMAUNIT
 70
     0
  9
$DIMADEC
 70
     0
  9
$DIMALTRND
 40
0.0
  9
$DIMAZIN
 70
     0
  9
$DIMDSEP
 70
    46
  9
$DIMATFIT
 70
     3
  9
$DIMFRAC
 70
     0
  9
$DIMLDRBLK
  1

  9
$DIMLUNIT
 70
     2
  9
$DIMLWD
 70
    -2
  9
$DIMLWE
 70
    -2
  9
$DIMTMOVE
 70
     0
  9
$DIMFXL
 40
1.0
  9
$DIMFXLON
 70
     0
  9
$DIMJOGANG
 40
0.7853981633974483
  9
$DIMTFILL
 70
     0
  9
$DIMTFILLCLR
 70
     0
  9
$DIMARCSYM
 70
     0
  9
$DIMLTYPE
  6

  9
$DIMLTEX1
  6

  9
$DIMLTEX2
  6

  9
$DIMTXTDIRECTION
 70
     0
  9
$LUNITS
 70
     2
  9
$LUPREC
 70
     4
  9
$SKETCHINC
 40
0.1
  9
$FILLETRAD
 40
0.0
  9
$AUNITS
 70
     0
  9
$AUPREC
 70
     0
  9
$MENU
  1
.
  9
$ELEVATION
 40
0.0
  9
$PELEVATION
 40
0.0
  9
$THICKNESS
 40
0.0
  9
$LIMCHECK
 70
     0
  9
$CHAMFERA
 40
0.0
  9
$CHAMFERB
 40
0.0
  9
$CHAMFERC
 40
0.0
  9
$CHAMFERD
 40
0.0
  9
$SKPOLY
 70
     0
  9
$TDCREATE
 40
2461000.615297489
  9
$TDUCREATE
 40
2461000.386130822
  9
$TDUPDATE
 40
2461000.615297546
  9
$TDUUPDATE
 40
2461000.38613088
  9
$TDINDWG
 40
0.0000000116
  9
$TDUSRTIMER
 40
0.0000000116
  9
$USRTIMER
 70
     1
  9
$ANGBASE
 50
0.0
  9
$ANGDIR
 70
     0
  9
$PDMODE
 70
     0
  9
$PDSIZE
 40
0.0
  9
$PLINEWID
 40
0.0
  9
$SPLFRAME
 70
     0
  9
$SPLINETYPE
 70
     6
  9
$SPLINESEGS
 70
     8
  9
$HANDSEED
  5
19F
  9
$SURFTAB1
 70
     6
  9
$SURFTAB2
 70
     6
  9
$SURFTYPE
 70
     6
  9
$SURFU
 70
     6
  9
$SURFV
 70
     6
  9
$UCSBASE
  2

  9
$UCSNAME
  2

  9
$UCSORG
 10
0.0
 20
0.0
 30
0.0
  9
$UCSXDIR
 10
1.0
 20
0.0
 30
0.0
  9
$UCSYDIR
 10
0.0
 20
1.0
 30
0.0
  9
$UCSORTHOREF
  2

  9
$UCSORTHOVIEW
 70
     0
  9
$UCSORGTOP
 10
0.0
 20
0.0
 30
0.0
  9
$UCSORGBOTTOM
 10
0.0
 20
0.0
 30
0.0
  9
$UCSORGLEFT
 10
0.0
 20
0.0
 30
0.0
  9
$UCSORGRIGHT
 10
0.0
 20
0.0
 30
0.0
  9
$UCSORGFRONT
 10
0.0
 20
0.0
 30
0.0
  9
$UCSORGBACK
 10
0.0
 20
0.0
 30
0.0
  9
$PUCSBASE
  2

  9
$PUCSNAME
  2

  9
$PUCSORG
 10
0.0
 20
0.0
 30
0.0
  9
$PUCSXDIR
 10
1.0
 20
0.0
 30
0.0
  9
$PUCSYDIR
 10
0.0
 20
1.0
 30
0.0
  9
$PUCSORTHOREF
  2

  9
$PUCSORTHOVIEW
 70
     0
  9
$PUCSORGTOP
 10
0.0
 20
0.0
 30
0.0
  9
$PUCSORGBOTTOM
 10
0.0
 20
0.0
 30
0.0
  9
$PUCSORGLEFT
 10
0.0
 20
0.0
 30
0.0
  9
$PUCSORGRIGHT
 10
0.0
 20
0.0
 30
0.0
  9
$PUCSORGFRONT
 10
0.0
 20
0.0
 30
0.0
  9
$PUCSORGBACK
 10
0.0
 20
0.0
 30
0.0
  9
$USERI1
 70
     0
  9
$USERI2
 70
     0
  9
$USERI3
 70
     0
  9
$USERI4
 70
     0
  9
$USERI5
 70
     0
  9
$USERR1
 40
0.0
  9
$USERR2
 40
0.0
  9
$USERR3
 40
0.0
  9
$USERR4
 40
0.0
  9
$USERR5
 40
0.0
  9
$WORLDVIEW
 70
     1
  9
$SHADEDGE
 70
     3
  9
$SHADEDIF
 70
    70
  9
$TILEMODE
 70
     1
  9
$MAXACTVP
 70
    64
  9
$PINSBASE
 10
0.0
 20
0.0
 30
0.0
  9
$PLIMCHECK
 70
     0
  9
$PEXTMIN
 10
1.000000000000000E+20
 20
1.000000000000000E+20
 30
1.000000000000000E+20
  9
$PEXTMAX
 10
-1.000000000000000E+20
 20
-1.000000000000000E+20
 30
-1.000000000000000E+20
  9
$PLIMMIN
 10
0.0
 20
0.0
  9
$PLIMMAX
 10
12.0
 20
9.0
  9
$UNITMODE
 70
     0
  9
$VISRETAIN
 70
     1
  9
$PLINEGEN
 70
     0
  9
$PSLTSCALE
 70
     1
  9
$TREEDEPTH
 70
  3020
  9
$CMLSTYLE
  2
Standard
  9
$CMLJUST
 70
     0
  9
$CMLSCALE
 40
1.0
  9
$PROXYGRAPHICS
 70
     1
  9
$MEASUREMENT
 70
     0
  9
$CELWEIGHT
370
    -1
  9
$ENDCAPS
280
     0
  9
$JOINSTYLE
280
     0
  9
$LWDISPLAY
290
     0
  9
$INSUNITS
 70
     4
  9
$HYPERLINKBASE
  1

  9
$STYLESHEET
  1

  9
$XEDIT
290
     1
  9
$CEPSNTYPE
380
     0
  9
$PSTYLEMODE
290
     1
  9
$FINGERPRINTGUID
  2
{73dc10f0-7c35-4f7a-b871-6560c267c683}
  9
$VERSIONGUID
  2
{FAEB1C32-E019-11D5-929B-00C0DF256EC4}
  9
$EXTNAMES
290
     1
  9
$PSVPSCALE
 40
0.0
  9
$OLESTARTUP
290
     0
  9
$SORTENTS
280
   127
  9
$INDEXCTL
280
     0
  9
$HIDETEXT
280
     1
  9
$XCLIPFRAME
280
     2
  9
$HALOGAP
280
     0
  9
$OBSCOLOR
 70
   257
  9
$OBSLTYPE
280
     0
  9
$INTERSECTIONDISPLAY
280
     0
  9
$INTERSECTIONCOLOR
 70
   257
  9
$DIMASSOC
280
     2
  9
$PROJECTNAME
  1

  9
$CAMERADISPLAY
290
     0
  9
$LENSLENGTH
 40
50.0
  9
$CAMERAHEIGHT
 40
0.0
  9
$STEPSPERSEC
 40
2.0
  9
$STEPSIZE
 40
6.0
  9
$3DDWFPREC
 40
2.0
  9
$PSOLWIDTH
 40
0.25
  9
$PSOLHEIGHT
 40
4.0
  9
$LOFTANG1
 40
1.570796326794897
  9
$LOFTANG2
 40
1.570796326794897
  9
$LOFTMAG1
 40
0.0
  9
$LOFTMAG2
 40
0.0
  9
$LOFTPARAM
 70
     7
  9
$LOFTNORMALS
280
     1
  9
$LATITUDE
 40
37.795
  9
$LONGITUDE
 40
-122.394
  9
$NORTHDIRECTION
 40
0.0
  9
$TIMEZONE
 70
 -8000
  9
$LIGHTGLYPHDISPLAY
280
     1
  9
$TILEMODELIGHTSYNCH
280
     1
  9
$CMATERIAL
347
44
  9
$SOLIDHIST
280
     0
  9
$SHOWHIST
280
     1
  9
$DWFFRAME
280
     2
  9
$DGNFRAME
280
     2
  9
$REALWORLDSCALE
290
     1
  9
$INTERFERECOLOR
 62
   256
  9
$CSHADOW
280
     0
  9
$SHADOWPLANELOCATION
 40
0.0
  0
ENDSEC
  0
SECTION
  2
CLASSES
  0
CLASS
  1
ACDBDICTIONARYWDFLT
  2
AcDbDictionaryWithDefault
  3
ObjectDBX Classes
 90
        0
 91
        3
280
     0
281
     0
  0
CLASS
  1
VISUALSTYLE
  2
AcDbVisualStyle
  3
ObjectDBX Classes
 90
     4095
 91
        3
280
     0
281
     0
  0
CLASS
  1
MATERIAL
  2
AcDbMaterial
  3
ObjectDBX Classes
 90
     1153
 91
        3
280
     0
281
     0
  0
CLASS
  1
SCALE
  2
AcDbScale
  3
ObjectDBX Classes
 90
     1153
 91
        3
280
     0
281
     0
  0
CLASS
  1
TABLESTYLE
  2
AcDbTableStyle
  3
ObjectDBX Classes
 90
     4095
 91
        3
280
     0
281
     0
  0
CLASS
  1
MLEADERSTYLE
  2
AcDbMLeaderStyle
  3
ACDB_MLEADERSTYLE_CLASS
 90
     4095
 91
        3
280
     0
281
     0
  0
CLASS
  1
SUN
  2
AcDbSun
  3
SCENEOE
 90
     1153
 91
        3
280
     0
281
     0
  0
CLASS
  1
DICTIONARYVAR
  2
AcDbDictionaryVar
  3
ObjectDBX Classes
 90
        0
 91
        3
280
     0
281
     0
  0
CLASS
  1
CELLSTYLEMAP
  2
AcDbCellStyleMap
  3
ObjectDBX Classes
 90
     1152
 91
        3
280
     0
281
     0
  0
ENDSEC
  0
SECTION
  2
TABLES
  0
TABLE
  2
VPORT
  5
8
330
0
100
AcDbSymbolTable
 70
     1
  0
VPORT
  5
29
330
8
100
AcDbSymbolTableRecord
100
AcDbViewportTableRecord
  2
*Active
 70
     0
 10
0.0
 20
0.0
 11
1.0
 21
1.0
 12
10.42990654205607
 22
4.5
 13
0.0
 23
0.0
 14
0.5
 24
0.5
 15
0.5
 25
0.5
 16
0.0
 26
0.0
 36
1.0
 17
0.0
 27
0.0
 37
0.0
 40
9.0
 41
1.972972972850329
 42
50.0
 43
0.0
 44
0.0
 50
0.0
 51
0.0
 71
     0
 72
   100
 73
     1
 74
     3
 75
     0
 76
     0
 77
     0
 78
     0
281
     0
 65
     1
110
0.0
120
0.0
130
0.0
111
1.0
121
0.0
131
0.0
112
0.0
122
1.0
132
0.0
 79
     0
146
0.0
348
2F
 60
     3
 61
     5
292
     1
282
     1
141
0.0
142
0.0
 63
   250
361
5D
  0
ENDTAB
  0
TABLE
  2
LTYPE
  5
5
330
0
100
AcDbSymbolTable
 70
     1
  0
LTYPE
  5
14
330
5
100
AcDbSymbolTableRecord
100
AcDbLinetypeTableRecord
  2
ByBlock
 70
     0
  3

 72
    65
 73
     0
 40
0.0
  0
LTYPE
  5
15
330
5
100
AcDbSymbolTableRecord
100
AcDbLinetypeTableRecord
  2
ByLayer
 70
     0
  3

 72
    65
 73
     0
 40
0.0
  0
LTYPE
  5
16
330
5
100
AcDbSymbolTableRecord
100
AcDbLinetypeTableRecord
  2
Continuous
 70
     0
  3
Solid line
 72
    65
 73
     0
 40
0.0
  0
ENDTAB
  0
TABLE
  2
LAYER
  5
2
330
0
100
AcDbSymbolTable
 70
     2
  0
LAYER
  5
10
330
2
100
AcDbSymbolTableRecord
100
AcDbLayerTableRecord
  2
0
 70
     0
 62
     7
  6
Continuous
370
    -3
390
F
347
46
348
0
  0
LAYER
  5
5F
330
2
100
AcDbSymbolTableRecord
100
AcDbLayerTableRecord
  2
Layer 1
 70
     0
 62
     7
  6
Continuous
370
    -3
390
F
347
46
348
0
  0
ENDTAB
  0
TABLE
  2
STYLE
  5
3
330
0
100
AcDbSymbolTable
 70
     1
  0
STYLE
  5
11
330
3
100
AcDbSymbolTableRecord
100
AcDbTextStyleTableRecord
  2
Standard
 70
     0
 40
0.0
 41
1.0
 50
0.0
 71
     0
 42
0.2
  3
txt
  4

  0
ENDTAB
  0
TABLE
  2
VIEW
  5
6
330
0
100
AcDbSymbolTable
 70
     0
  0
ENDTAB
  0
TABLE
  2
UCS
  5
7
330
0
100
AcDbSymbolTable
 70
     0
  0
ENDTAB
  0
TABLE
  2
APPID
  5
9
330
0
100
AcDbSymbolTable
 70
     2
  0
APPID
  5
12
330
9
100
AcDbSymbolTableRecord
100
AcDbRegAppTableRecord
  2
ACAD
 70
     0
  0
APPID
  5
5E
330
9
100
AcDbSymbolTableRecord
100
AcDbRegAppTableRecord
  2
ODA
 70
     0
  0
ENDTAB
  0
TABLE
  2
DIMSTYLE
  5
A
330
0
100
AcDbSymbolTable
 70
     1
100
AcDbDimStyleTable
  0
DIMSTYLE
105
27
330
A
100
AcDbSymbolTableRecord
100
AcDbDimStyleTableRecord
  2
Standard
 70
     0
178
     0
340
11
  0
ENDTAB
  0
TABLE
  2
BLOCK_RECORD
  5
1
330
0
100
AcDbSymbolTable
 70
     1
  0
BLOCK_RECORD
  5
1F
330
1
100
AcDbSymbolTableRecord
100
AcDbBlockTableRecord
  2
*Model_Space
340
22
 70
     0
280
     1
281
     0
  0
BLOCK_RECORD
  5
1B
330
1
100
AcDbSymbolTableRecord
100
AcDbBlockTableRecord
  2
*Paper_Space
340
1E
 70
     0
280
     1
281
     0
  0
BLOCK_RECORD
  5
23
330
1
100
AcDbSymbolTableRecord
100
AcDbBlockTableRecord
  2
*Paper_Space0
340
26
 70
     0
280
     1
281
     0
  0
ENDTAB
  0
ENDSEC
  0
SECTION
  2
BLOCKS
  0
BLOCK
  5
20
330
1F
100
AcDbEntity
  8
0
100
AcDbBlockBegin
  2
*Model_Space
 70
     0
 10
0.0
 20
0.0
 30
0.0
  3
*Model_Space
  1

  0
ENDBLK
  5
21
330
1F
100
AcDbEntity
  8
0
100
AcDbBlockEnd
  0
BLOCK
  5
1C
330
1B
100
AcDbEntity
 67
     1
  8
0
100
AcDbBlockBegin
  2
*Paper_Space
 70
     0
 10
0.0
 20
0.0
 30
0.0
  3
*Paper_Space
  1

  0
ENDBLK
  5
1D
330
1B
100
AcDbEntity
 67
     1
  8
0
100
AcDbBlockEnd
  0
BLOCK
  5
24
330
23
100
AcDbEntity
  8
0
100
AcDbBlockBegin
  2
*Paper_Space0
 70
     0
 10
0.0
 20
0.0
 30
0.0
  3
*Paper_Space0
  1

  0
ENDBLK
  5
25
330
23
100
AcDbEntity
  8
0
100
AcDbBlockEnd
  0
ENDSEC
  0
SECTION
  2
ENTITIES
  0
LWPOLYLINE
  5
60
330
1F
100
AcDbEntity
  8
Layer 1
 62
   250
370
    35
100
AcDbPolyline
 90
       37
 70
     1
 43
0.0
 10
397.5144
 20
110.8801
 10
734.5089
 20
110.8801
 10
735.3199
 20
110.7998
 10
736.0764
 20
110.5698
 10
736.7619
 20
110.2062
 10
737.3598
 20
109.725
 10
737.8537
 20
109.1424
 10
738.227
 20
108.4745
 10
738.463
 20
107.7374
 10
738.5454
 20
106.9472
 10
738.5454
 20
-221.3919
 10
738.463
 20
-222.182
 10
738.227
 20
-222.9191
 10
737.8537
 20
-223.587
 10
737.3598
 20
-224.1696
 10
736.7619
 20
-224.6508
 10
736.0764
 20
-225.0144
 10
735.3199
 20
-225.2444
 10
734.5089
 20
-225.3247
 10
397.5144
 20
-225.3247
 10
396.7034
 20
-225.2444
 10
395.9469
 20
-225.0144
 10
395.2614
 20
-224.6508
 10
394.6635
 20
-224.1696
 10
394.1696
 20
-223.587
 10
393.7963
 20
-222.9191
 10
393.5603
 20
-222.182
 10
393.4779
 20
-221.3919
 10
393.4779
 20
106.9472
 10
393.5603
 20
107.7374
 10
393.7963
 20
108.4745
 10
394.1696
 20
109.1424
 10
394.6635
 20
109.725
 10
395.2614
 20
110.2062
 10
395.9469
 20
110.5698
 10
396.7034
 20
110.7998
 10
397.5144
 20
110.8801
  0
LWPOLYLINE
  5
61
330
1F
100
AcDbEntity
  8
Layer 1
 62
     7
370
     9
100
AcDbPolyline
 90
       33
 70
     1
 43
0.0
 10
715.4981
 20
92.853
 10
716.2815
 20
92.7752
 10
717.0111
 20
92.5519
 10
717.6713
 20
92.1987
 10
718.2465
 20
91.7308
 10
718.721
 20
91.1638
 10
719.0793
 20
90.5131
 10
719.3058
 20
89.7941
 10
719.3847
 20
89.0221
 10
719.3058
 20
88.2499
 10
719.0793
 20
87.5306
 10
718.721
 20
86.8798
 10
718.2465
 20
86.3127
 10
717.6713
 20
85.8449
 10
717.0111
 20
85.4916
 10
716.2815
 20
85.2683
 10
715.4981
 20
85.1905
 10
714.715
 20
85.2683
 10
713.9855
 20
85.4916
 10
713.3253
 20
85.8449
 10
712.7501
 20
86.3127
 10
712.2754
 20
86.8798
 10
711.917
 20
87.5306
 10
711.6905
 20
88.2499
 10
711.6115
 20
89.0221
 10
711.6905
 20
89.7941
 10
711.917
 20
90.5131
 10
712.2754
 20
91.1638
 10
712.7501
 20
91.7308
 10
713.3253
 20
92.1987
 10
713.9855
 20
92.5519
 10
714.715
 20
92.7752
 10
715.4981
 20
92.853
  0
LWPOLYLINE
  5
62
330
1F
100
AcDbEntity
  8
Layer 1
 62
     7
370
     9
100
AcDbPolyline
 90
       33
 70
     1
 43
0.0
 10
414.9798
 20
92.853
 10
415.7629
 20
92.7752
 10
416.4924
 20
92.5519
 10
417.1526
 20
92.1987
 10
417.7279
 20
91.7308
 10
418.2025
 20
91.1638
 10
418.5609
 20
90.5131
 10
418.7874
 20
89.7941
 10
418.8664
 20
89.0221
 10
418.7874
 20
88.2499
 10
418.5609
 20
87.5306
 10
418.2025
 20
86.8798
 10
417.7279
 20
86.3127
 10
417.1526
 20
85.8449
 10
416.4924
 20
85.4916
 10
415.7629
 20
85.2683
 10
414.9798
 20
85.1905
 10
414.1964
 20
85.2683
 10
413.4668
 20
85.4916
 10
412.8066
 20
85.8449
 10
412.2315
 20
86.3127
 10
411.7569
 20
86.8798
 10
411.3986
 20
87.5306
 10
411.1722
 20
88.2499
 10
411.0932
 20
89.0221
 10
411.1722
 20
89.7941
 10
411.3986
 20
90.5131
 10
411.7569
 20
91.1638
 10
412.2315
 20
91.7308
 10
412.8066
 20
92.1987
 10
413.4668
 20
92.5519
 10
414.1964
 20
92.7752
 10
414.9798
 20
92.853
  0
LWPOLYLINE
  5
63
330
1F
100
AcDbEntity
  8
Layer 1
 62
     7
370
     9
100
AcDbPolyline
 90
       33
 70
     1
 43
0.0
 10
715.4981
 20
-201.2763
 10
716.2815
 20
-201.3541
 10
717.0111
 20
-201.5774
 10
717.6713
 20
-201.9306
 10
718.2465
 20
-202.3984
 10
718.721
 20
-202.9654
 10
719.0793
 20
-203.6161
 10
719.3058
 20
-204.3351
 10
719.3847
 20
-205.1071
 10
719.3058
 20
-205.8793
 10
719.0793
 20
-206.5986
 10
718.721
 20
-207.2494
 10
718.2465
 20
-207.8165
 10
717.6713
 20
-208.2844
 10
717.0111
 20
-208.6377
 10
716.2815
 20
-208.861
 10
715.4981
 20
-208.9388
 10
714.715
 20
-208.861
 10
713.9855
 20
-208.6377
 10
713.3253
 20
-208.2844
 10
712.7501
 20
-207.8165
 10
712.2754
 20
-207.2494
 10
711.917
 20
-206.5986
 10
711.6905
 20
-205.8793
 10
711.6115
 20
-205.1071
 10
711.6905
 20
-204.3351
 10
711.917
 20
-203.6161
 10
712.2754
 20
-202.9654
 10
712.7501
 20
-202.3984
 10
713.3253
 20
-201.9306
 10
713.9855
 20
-201.5774
 10
714.715
 20
-201.3541
 10
715.4981
 20
-201.2763
  0
LWPOLYLINE
  5
64
330
1F
100
AcDbEntity
  8
Layer 1
 62
     7
370
     9
100
AcDbPolyline
 90
       33
 70
     1
 43
0.0
 10
414.9798
 20
-201.2763
 10
415.7629
 20
-201.3541
 10
416.4924
 20
-201.5774
 10
417.1526
 20
-201.9306
 10
417.7279
 20
-202.3984
 10
418.2025
 20
-202.9654
 10
418.5609
 20
-203.6161
 10
418.7874
 20
-204.3351
 10
418.8664
 20
-205.1071
 10
418.7874
 20
-205.8793
 10
418.5609
 20
-206.5986
 10
418.2025
 20
-207.2494
 10
417.7279
 20
-207.8165
 10
417.1526
 20
-208.2844
 10
416.4924
 20
-208.6377
 10
415.7629
 20
-208.861
 10
414.9798
 20
-208.9388
 10
414.1964
 20
-208.861
 10
413.4668
 20
-208.6377
 10
412.8066
 20
-208.2844
 10
412.2315
 20
-207.8165
 10
411.7569
 20
-207.2494
 10
411.3986
 20
-206.5986
 10
411.1722
 20
-205.8793
 10
411.0932
 20
-205.1071
 10
411.1722
 20
-204.3351
 10
411.3986
 20
-203.6161
 10
411.7569
 20
-202.9654
 10
412.2315
 20
-202.3984
 10
412.8066
 20
-201.9306
 10
413.4668
 20
-201.5774
 10
414.1964
 20
-201.3541
 10
414.9798
 20
-201.2763
  0
LWPOLYLINE
  5
65
330
1F
100
AcDbEntity
  8
Layer 1
 62
     7
370
    25
100
AcDbPolyline
 90
       33
 70
     1
 43
0.0
 10
440.7075
 20
56.6444
 10
441.1147
 20
56.6033
 10
441.4939
 20
56.4855
 10
441.8371
 20
56.2991
 10
442.1361
 20
56.0523
 10
442.3828
 20
55.7531
 10
442.5691
 20
55.4097
 10
442.6869
 20
55.0303
 10
442.7279
 20
54.6229
 10
442.6869
 20
54.2155
 10
442.5691
 20
53.8361
 10
442.3828
 20
53.4927
 10
442.1361
 20
53.1935
 10
441.8371
 20
52.9467
 10
441.4939
 20
52.7603
 10
441.1147
 20
52.6425
 10
440.7075
 20
52.6014
 10
440.3004
 20
52.6425
 10
439.9211
 20
52.7603
 10
439.578
 20
52.9467
 10
439.279
 20
53.1935
 10
439.0323
 20
53.4927
 10
438.846
 20
53.8361
 10
438.7282
 20
54.2155
 10
438.6872
 20
54.6229
 10
438.7282
 20
55.0303
 10
438.846
 20
55.4097
 10
439.0323
 20
55.7531
 10
439.279
 20
56.0523
 10
439.578
 20
56.2991
 10
439.9211
 20
56.4855
 10
440.3004
 20
56.6033
 10
440.7075
 20
56.6444
  0
LWPOLYLINE
  5
66
330
1F
100
AcDbEntity
  8
Layer 1
 62
     7
370
    25
100
AcDbPolyline
 90
       33
 70
     1
 43
0.0
 10
468.5503
 20
56.6444
 10
468.9574
 20
56.6033
 10
469.3367
 20
56.4855
 10
469.6798
 20
56.2991
 10
469.9788
 20
56.0523
 10
470.2255
 20
55.7531
 10
470.4118
 20
55.4097
 10
470.5296
 20
55.0303
 10
470.5706
 20
54.6229
 10
470.5296
 20
54.2155
 10
470.4118
 20
53.8361
 10
470.2255
 20
53.4927
 10
469.9788
 20
53.1935
 10
469.6798
 20
52.9467
 10
469.3367
 20
52.7603
 10
468.9574
 20
52.6425
 10
468.5503
 20
52.6014
 10
468.1432
 20
52.6425
 10
467.7639
 20
52.7603
 10
467.4207
 20
52.9467
 10
467.1217
 20
53.1935
 10
466.875
 20
53.4927
 10
466.6887
 20
53.8361
 10
466.571
 20
54.2155
 10
466.5299
 20
54.6229
 10
466.571
 20
55.0303
 10
466.6887
 20
55.4097
 10
466.875
 20
55.7531
 10
467.1217
 20
56.0523
 10
467.4207
 20
56.2991
 10
467.7639
 20
56.4855
 10
468.1432
 20
56.6033
 10
468.5503
 20
56.6444
  0
LWPOLYLINE
  5
67
330
1F
100
AcDbEntity
  8
Layer 1
 62
     7
370
    25
100
AcDbPolyline
 90
       33
 70
     1
 43
0.0
 10
496.393
 20
56.6444
 10
496.8002
 20
56.6033
 10
497.1794
 20
56.4855
 10
497.5226
 20
56.2991
 10
497.8216
 20
56.0523
 10
498.0683
 20
55.7531
 10
498.2546
 20
55.4097
 10
498.3724
 20
55.0303
 10
498.4134
 20
54.6229
 10
498.3724
 20
54.2155
 10
498.2546
 20
53.8361
 10
498.0683
 20
53.4927
 10
497.8216
 20
53.1935
 10
497.5226
 20
52.9467
 10
497.1794
 20
52.7603
 10
496.8002
 20
52.6425
 10
496.393
 20
52.6014
 10
495.9859
 20
52.6425
 10
495.6066
 20
52.7603
 10
495.2635
 20
52.9467
 10
494.9645
 20
53.1935
 10
494.7178
 20
53.4927
 10
494.5315
 20
53.8361
 10
494.4137
 20
54.2155
 10
494.3727
 20
54.6229
 10
494.4137
 20
55.0303
 10
494.5315
 20
55.4097
 10
494.7178
 20
55.7531
 10
494.9645
 20
56.0523
 10
495.2635
 20
56.2991
 10
495.6066
 20
56.4855
 10
495.9859
 20
56.6033
 10
496.393
 20
56.6444
  0
LWPOLYLINE
  5
68
330
1F
100
AcDbEntity
  8
Layer 1
 62
     7
370
    25
100
AcDbPolyline
 90
       33
 70
     1
 43
0.0
 10
524.2358
 20
56.6444
 10
524.6429
 20
56.6033
 10
525.0222
 20
56.4855
 10
525.3653
 20
56.2991
 10
525.6643
 20
56.0523
 10
525.911
 20
55.7531
 10
526.0973
 20
55.4097
 10
526.2151
 20
55.0303
 10
526.2561
 20
54.6229
 10
526.2151
 20
54.2155
 10
526.0973
 20
53.8361
 10
525.911
 20
53.4927
 10
525.6643
 20
53.1935
 10
525.3653
 20
52.9467
 10
525.0222
 20
52.7603
 10
524.6429
 20
52.6425
 10
524.2358
 20
52.6014
 10
523.8287
 20
52.6425
 10
523.4494
 20
52.7603
 10
523.1062
 20
52.9467
 10
522.8072
 20
53.1935
 10
522.5605
 20
53.4927
 10
522.3742
 20
53.8361
 10
522.2565
 20
54.2155
 10
522.2154
 20
54.6229
 10
522.2565
 20
55.0303
 10
522.3742
 20
55.4097
 10
522.5605
 20
55.7531
 10
522.8072
 20
56.0523
 10
523.1062
 20
56.2991
 10
523.4494
 20
56.4855
 10
523.8287
 20
56.6033
 10
524.2358
 20
56.6444
  0
LWPOLYLINE
  5
69
330
1F
100
AcDbEntity
  8
Layer 1
 62
     7
370
    25
100
AcDbPolyline
 90
       33
 70
     1
 43
0.0
 10
552.0785
 20
56.6444
 10
552.4857
 20
56.6033
 10
552.8649
 20
56.4855
 10
553.2081
 20
56.2991
 10
553.5071
 20
56.0523
 10
553.7538
 20
55.7531
 10
553.9401
 20
55.4097
 10
554.0579
 20
55.0303
 10
554.0989
 20
54.6229
 10
554.0579
 20
54.2155
 10
553.9401
 20
53.8361
 10
553.7538
 20
53.4927
 10
553.5071
 20
53.1935
 10
553.2081
 20
52.9467
 10
552.8649
 20
52.7603
 10
552.4857
 20
52.6425
 10
552.0785
 20
52.6014
 10
551.6713
 20
52.6425
 10
551.292
 20
52.7603
 10
550.9487
 20
52.9467
 10
550.6495
 20
53.1935
 10
550.4026
 20
53.4927
 10
550.2162
 20
53.8361
 10
550.0984
 20
54.2155
 10
550.0573
 20
54.6229
 10
550.0984
 20
55.0303
 10
550.2162
 20
55.4097
 10
550.4026
 20
55.7531
 10
550.6495
 20
56.0523
 10
550.9487
 20
56.2991
 10
551.292
 20
56.4855
 10
551.6713
 20
56.6033
 10
552.0785
 20
56.6444
  0
LWPOLYLINE
  5
6A
330
1F
100
AcDbEntity
  8
Layer 1
 62
     7
370
    25
100
AcDbPolyline
 90
       33
 70
     1
 43
0.0
 10
579.9205
 20
56.6444
 10
580.3277
 20
56.6033
 10
580.707
 20
56.4855
 10
581.0503
 20
56.2991
 10
581.3495
 20
56.0523
 10
581.5964
 20
55.7531
 10
581.7828
 20
55.4097
 10
581.9006
 20
55.0303
 10
581.9417
 20
54.6229
 10
581.9006
 20
54.2155
 10
581.7828
 20
53.8361
 10
581.5964
 20
53.4927
 10
581.3495
 20
53.1935
 10
581.0503
 20
52.9467
 10
580.707
 20
52.7603
 10
580.3277
 20
52.6425
 10
579.9205
 20
52.6014
 10
579.5133
 20
52.6425
 10
579.1341
 20
52.7603
 10
578.7909
 20
52.9467
 10
578.4919
 20
53.1935
 10
578.2452
 20
53.4927
 10
578.0589
 20
53.8361
 10
577.9411
 20
54.2155
 10
577.9001
 20
54.6229
 10
577.9411
 20
55.0303
 10
578.0589
 20
55.4097
 10
578.2452
 20
55.7531
 10
578.4919
 20
56.0523
 10
578.7909
 20
56.2991
 10
579.1341
 20
56.4855
 10
579.5133
 20
56.6033
 10
579.9205
 20
56.6444
  0
LWPOLYLINE
  5
6B
330
1F
100
AcDbEntity
  8
Layer 1
 62
     7
370
    25
100
AcDbPolyline
 90
       33
 70
     1
 43
0.0
 10
607.7632
 20
56.6444
 10
608.1703
 20
56.6033
 10
608.5496
 20
56.4855
 10
608.8928
 20
56.2991
 10
609.1918
 20
56.0523
 10
609.4385
 20
55.7531
 10
609.6248
 20
55.4097
 10
609.7425
 20
55.0303
 10
609.7836
 20
54.6229
 10
609.7425
 20
54.2155
 10
609.6248
 20
53.8361
 10
609.4385
 20
53.4927
 10
609.1918
 20
53.1935
 10
608.8928
 20
52.9467
 10
608.5496
 20
52.7603
 10
608.1703
 20
52.6425
 10
607.7632
 20
52.6014
 10
607.3561
 20
52.6425
 10
606.9768
 20
52.7603
 10
606.6336
 20
52.9467
 10
606.3346
 20
53.1935
 10
606.0879
 20
53.4927
 10
605.9016
 20
53.8361
 10
605.7839
 20
54.2155
 10
605.7428
 20
54.6229
 10
605.7839
 20
55.0303
 10
605.9016
 20
55.4097
 10
606.0879
 20
55.7531
 10
606.3346
 20
56.0523
 10
606.6336
 20
56.2991
 10
606.9768
 20
56.4855
 10
607.3561
 20
56.6033
 10
607.7632
 20
56.6444
  0
LWPOLYLINE
  5
6C
330
1F
100
AcDbEntity
  8
Layer 1
 62
     7
370
    25
100
AcDbPolyline
 90
       33
 70
     1
 43
0.0
 10
635.606
 20
56.6444
 10
636.0131
 20
56.6033
 10
636.3924
 20
56.4855
 10
636.7355
 20
56.2991
 10
637.0345
 20
56.0523
 10
637.2812
 20
55.7531
 10
637.4675
 20
55.4097
 10
637.5853
 20
55.0303
 10
637.6263
 20
54.6229
 10
637.5853
 20
54.2155
 10
637.4675
 20
53.8361
 10
637.2812
 20
53.4927
 10
637.0345
 20
53.1935
 10
636.7355
 20
52.9467
 10
636.3924
 20
52.7603
 10
636.0131
 20
52.6425
 10
635.606
 20
52.6014
 10
635.1988
 20
52.6425
 10
634.8196
 20
52.7603
 10
634.4764
 20
52.9467
 10
634.1774
 20
53.1935
 10
633.9307
 20
53.4927
 10
633.7444
 20
53.8361
 10
633.6266
 20
54.2155
 10
633.5856
 20
54.6229
 10
633.6266
 20
55.0303
 10
633.7444
 20
55.4097
 10
633.9307
 20
55.7531
 10
634.1774
 20
56.0523
 10
634.4764
 20
56.2991
 10
634.8196
 20
56.4855
 10
635.1988
 20
56.6033
 10
635.606
 20
56.6444
  0
LWPOLYLINE
  5
6D
330
1F
100
AcDbEntity
  8
Layer 1
 62
     7
370
    25
100
AcDbPolyline
 90
       33
 70
     1
 43
0.0
 10
663.4487
 20
56.6444
 10
663.8558
 20
56.6033
 10
664.2351
 20
56.4855
 10
664.5783
 20
56.2991
 10
664.8773
 20
56.0523
 10
665.124
 20
55.7531
 10
665.3103
 20
55.4097
 10
665.428
 20
55.0303
 10
665.4691
 20
54.6229
 10
665.428
 20
54.2155
 10
665.3103
 20
53.8361
 10
665.124
 20
53.4927
 10
664.8773
 20
53.1935
 10
664.5783
 20
52.9467
 10
664.2351
 20
52.7603
 10
663.8558
 20
52.6425
 10
663.4487
 20
52.6014
 10
663.0416
 20
52.6425
 10
662.6623
 20
52.7603
 10
662.3192
 20
52.9467
 10
662.0202
 20
53.1935
 10
661.7735
 20
53.4927
 10
661.5872
 20
53.8361
 10
661.4694
 20
54.2155
 10
661.4284
 20
54.6229
 10
661.4694
 20
55.0303
 10
661.5872
 20
55.4097
 10
661.7735
 20
55.7531
 10
662.0202
 20
56.0523
 10
662.3192
 20
56.2991
 10
662.6623
 20
56.4855
 10
663.0416
 20
56.6033
 10
663.4487
 20
56.6444
  0
LWPOLYLINE
  5
6E
330
1F
100
AcDbEntity
  8
Layer 1
 62
     7
370
    25
100
AcDbPolyline
 90
       33
 70
     1
 43
0.0
 10
691.2915
 20
56.6444
 10
691.6986
 20
56.6033
 10
692.0779
 20
56.4855
 10
692.421
 20
56.2991
 10
692.72
 20
56.0523
 10
692.9667
 20
55.7531
 10
693.153
 20
55.4097
 10
693.2708
 20
55.0303
 10
693.3118
 20
54.6229
 10
693.2708
 20
54.2155
 10
693.153
 20
53.8361
 10
692.9667
 20
53.4927
 10
692.72
 20
53.1935
 10
692.421
 20
52.9467
 10
692.0779
 20
52.7603
 10
691.6986
 20
52.6425
 10
691.2915
 20
52.6014
 10
690.8843
 20
52.6425
 10
690.5051
 20
52.7603
 10
690.1619
 20
52.9467
 10
689.8629
 20
53.1935
 10
689.6162
 20
53.4927
 10
689.4299
 20
53.8361
 10
689.3121
 20
54.2155
 10
689.2711
 20
54.6229
 10
689.3121
 20
55.0303
 10
689.4299
 20
55.4097
 10
689.6162
 20
55.7531
 10
689.8629
 20
56.0523
 10
690.1619
 20
56.2991
 10
690.5051
 20
56.4855
 10
690.8843
 20
56.6033
 10
691.2915
 20
56.6444
  0
LWPOLYLINE
  5
6F
330
1F
100
AcDbEntity
  8
Layer 1
 62
     7
370
    25
100
AcDbPolyline
 90
       33
 70
     1
 43
0.0
 10
440.7075
 20
31.7872
 10
441.1147
 20
31.7461
 10
441.4939
 20
31.6283
 10
441.8371
 20
31.4419
 10
442.1361
 20
31.1951
 10
442.3828
 20
30.8959
 10
442.5691
 20
30.5525
 10
442.6869
 20
30.1731
 10
442.7279
 20
29.7657
 10
442.6869
 20
29.3583
 10
442.5691
 20
28.9788
 10
442.3828
 20
28.6354
 10
442.1361
 20
28.3363
 10
441.8371
 20
28.0894
 10
441.4939
 20
27.9031
 10
441.1147
 20
27.7853
 10
440.7075
 20
27.7442
 10
440.3004
 20
27.7853
 10
439.9211
 20
27.9031
 10
439.578
 20
28.0894
 10
439.279
 20
28.3363
 10
439.0323
 20
28.6354
 10
438.846
 20
28.9788
 10
438.7282
 20
29.3583
 10
438.6872
 20
29.7657
 10
438.7282
 20
30.1731
 10
438.846
 20
30.5525
 10
439.0323
 20
30.8959
 10
439.279
 20
31.1951
 10
439.578
 20
31.4419
 10
439.9211
 20
31.6283
 10
440.3004
 20
31.7461
 10
440.7075
 20
31.7872
  0
LWPOLYLINE
  5
70
330
1F
100
AcDbEntity
  8
Layer 1
 62
     7
370
    25
100
AcDbPolyline
 90
       33
 70
     1
 43
0.0
 10
496.393
 20
31.7872
 10
496.8002
 20
31.7461
 10
497.1794
 20
31.6283
 10
497.5226
 20
31.4419
 10
497.8216
 20
31.1951
 10
498.0683
 20
30.8959
 10
498.2546
 20
30.5525
 10
498.3724
 20
30.1731
 10
498.4134
 20
29.7657
 10
498.3724
 20
29.3583
 10
498.2546
 20
28.9788
 10
498.0683
 20
28.6354
 10
497.8216
 20
28.3363
 10
497.5226
 20
28.0894
 10
497.1794
 20
27.9031
 10
496.8002
 20
27.7853
 10
496.393
 20
27.7442
 10
495.9859
 20
27.7853
 10
495.6066
 20
27.9031
 10
495.2635
 20
28.0894
 10
494.9645
 20
28.3363
 10
494.7178
 20
28.6354
 10
494.5315
 20
28.9788
 10
494.4137
 20
29.3583
 10
494.3727
 20
29.7657
 10
494.4137
 20
30.1731
 10
494.5315
 20
30.5525
 10
494.7178
 20
30.8959
 10
494.9645
 20
31.1951
 10
495.2635
 20
31.4419
 10
495.6066
 20
31.6283
 10
495.9859
 20
31.7461
 10
496.393
 20
31.7872
  0
LWPOLYLINE
  5
71
330
1F
100
AcDbEntity
  8
Layer 1
 62
     7
370
    25
100
AcDbPolyline
 90
       33
 70
     1
 43
0.0
 10
524.2358
 20
31.7872
 10
524.6429
 20
31.7461
 10
525.0222
 20
31.6283
 10
525.3653
 20
31.4419
 10
525.6643
 20
31.1951
 10
525.911
 20
30.8959
 10
526.0973
 20
30.5525
 10
526.2151
 20
30.1731
 10
526.2561
 20
29.7657
 10
526.2151
 20
29.3583
 10
526.0973
 20
28.9788
 10
525.911
 20
28.6354
 10
525.6643
 20
28.3363
 10
525.3653
 20
28.0894
 10
525.0222
 20
27.9031
 10
524.6429
 20
27.7853
 10
524.2358
 20
27.7442
 10
523.8287
 20
27.7853
 10
523.4494
 20
27.9031
 10
523.1062
 20
28.0894
 10
522.8072
 20
28.3363
 10
522.5605
 20
28.6354
 10
522.3742
 20
28.9788
 10
522.2565
 20
29.3583
 10
522.2154
 20
29.7657
 10
522.2565
 20
30.1731
 10
522.3742
 20
30.5525
 10
522.5605
 20
30.8959
 10
522.8072
 20
31.1951
 10
523.1062
 20
31.4419
 10
523.4494
 20
31.6283
 10
523.8287
 20
31.7461
 10
524.2358
 20
31.7872
  0
LWPOLYLINE
  5
72
330
1F
100
AcDbEntity
  8
Layer 1
 62
     7
370
    25
100
AcDbPolyline
 90
       33
 70
     1
 43
0.0
 10
552.0785
 20
31.7872
 10
552.4857
 20
31.7461
 10
552.8649
 20
31.6283
 10
553.2081
 20
31.4419
 10
553.5071
 20
31.1951
 10
553.7538
 20
30.8959
 10
553.9401
 20
30.5525
 10
554.0579
 20
30.1731
 10
554.0989
 20
29.7657
 10
554.0579
 20
29.3583
 10
553.9401
 20
28.9788
 10
553.7538
 20
28.6354
 10
553.5071
 20
28.3363
 10
553.2081
 20
28.0894
 10
552.8649
 20
27.9031
 10
552.4857
 20
27.7853
 10
552.0785
 20
27.7442
 10
551.6713
 20
27.7853
 10
551.292
 20
27.9031
 10
550.9487
 20
28.0894
 10
550.6495
 20
28.3363
 10
550.4026
 20
28.6354
 10
550.2162
 20
28.9788
 10
550.0984
 20
29.3583
 10
550.0573
 20
29.7657
 10
550.0984
 20
30.1731
 10
550.2162
 20
30.5525
 10
550.4026
 20
30.8959
 10
550.6495
 20
31.1951
 10
550.9487
 20
31.4419
 10
551.292
 20
31.6283
 10
551.6713
 20
31.7461
 10
552.0785
 20
31.7872
  0
LWPOLYLINE
  5
73
330
1F
100
AcDbEntity
  8
Layer 1
 62
     7
370
    25
100
AcDbPolyline
 90
       33
 70
     1
 43
0.0
 10
579.9205
 20
31.7872
 10
580.3277
 20
31.7461
 10
580.707
 20
31.6283
 10
581.0503
 20
31.4419
 10
581.3495
 20
31.1951
 10
581.5964
 20
30.8959
 10
581.7828
 20
30.5525
 10
581.9006
 20
30.1731
 10
581.9417
 20
29.7657
 10
581.9006
 20
29.3583
 10
581.7828
 20
28.9788
 10
581.5964
 20
28.6354
 10
581.3495
 20
28.3363
 10
581.0503
 20
28.0894
 10
580.707
 20
27.9031
 10
580.3277
 20
27.7853
 10
579.9205
 20
27.7442
 10
579.5133
 20
27.7853
 10
579.1341
 20
27.9031
 10
578.7909
 20
28.0894
 10
578.4919
 20
28.3363
 10
578.2452
 20
28.6354
 10
578.0589
 20
28.9788
 10
577.9411
 20
29.3583
 10
577.9001
 20
29.7657
 10
577.9411
 20
30.1731
 10
578.0589
 20
30.5525
 10
578.2452
 20
30.8959
 10
578.4919
 20
31.1951
 10
578.7909
 20
31.4419
 10
579.1341
 20
31.6283
 10
579.5133
 20
31.7461
 10
579.9205
 20
31.7872
  0
LWPOLYLINE
  5
74
330
1F
100
AcDbEntity
  8
Layer 1
 62
     7
370
    25
100
AcDbPolyline
 90
       33
 70
     1
 43
0.0
 10
607.7632
 20
31.7872
 10
608.1703
 20
31.7461
 10
608.5496
 20
31.6283
 10
608.8928
 20
31.4419
 10
609.1918
 20
31.1951
 10
609.4385
 20
30.8959
 10
609.6248
 20
30.5525
 10
609.7425
 20
30.1731
 10
609.7836
 20
29.7657
 10
609.7425
 20
29.3583
 10
609.6248
 20
28.9788
 10
609.4385
 20
28.6354
 10
609.1918
 20
28.3363
 10
608.8928
 20
28.0894
 10
608.5496
 20
27.9031
 10
608.1703
 20
27.7853
 10
607.7632
 20
27.7442
 10
607.3561
 20
27.7853
 10
606.9768
 20
27.9031
 10
606.6336
 20
28.0894
 10
606.3346
 20
28.3363
 10
606.0879
 20
28.6354
 10
605.9016
 20
28.9788
 10
605.7839
 20
29.3583
 10
605.7428
 20
29.7657
 10
605.7839
 20
30.1731
 10
605.9016
 20
30.5525
 10
606.0879
 20
30.8959
 10
606.3346
 20
31.1951
 10
606.6336
 20
31.4419
 10
606.9768
 20
31.6283
 10
607.3561
 20
31.7461
 10
607.7632
 20
31.7872
  0
LWPOLYLINE
  5
75
330
1F
100
AcDbEntity
  8
Layer 1
 62
     7
370
    25
100
AcDbPolyline
 90
       33
 70
     1
 43
0.0
 10
635.606
 20
31.7872
 10
636.0131
 20
31.7461
 10
636.3924
 20
31.6283
 10
636.7355
 20
31.4419
 10
637.0345
 20
31.1951
 10
637.2812
 20
30.8959
 10
637.4675
 20
30.5525
 10
637.5853
 20
30.1731
 10
637.6263
 20
29.7657
 10
637.5853
 20
29.3583
 10
637.4675
 20
28.9788
 10
637.2812
 20
28.6354
 10
637.0345
 20
28.3363
 10
636.7355
 20
28.0894
 10
636.3924
 20
27.9031
 10
636.0131
 20
27.7853
 10
635.606
 20
27.7442
 10
635.1988
 20
27.7853
 10
634.8196
 20
27.9031
 10
634.4764
 20
28.0894
 10
634.1774
 20
28.3363
 10
633.9307
 20
28.6354
 10
633.7444
 20
28.9788
 10
633.6266
 20
29.3583
 10
633.5856
 20
29.7657
 10
633.6266
 20
30.1731
 10
633.7444
 20
30.5525
 10
633.9307
 20
30.8959
 10
634.1774
 20
31.1951
 10
634.4764
 20
31.4419
 10
634.8196
 20
31.6283
 10
635.1988
 20
31.7461
 10
635.606
 20
31.7872
  0
LWPOLYLINE
  5
76
330
1F
100
AcDbEntity
  8
Layer 1
 62
     7
370
    25
100
AcDbPolyline
 90
       33
 70
     1
 43
0.0
 10
691.2915
 20
31.7872
 10
691.6986
 20
31.7461
 10
692.0779
 20
31.6283
 10
692.421
 20
31.4419
 10
692.72
 20
31.1951
 10
692.9667
 20
30.8959
 10
693.153
 20
30.5525
 10
693.2708
 20
30.1731
 10
693.3118
 20
29.7657
 10
693.2708
 20
29.3583
 10
693.153
 20
28.9788
 10
692.9667
 20
28.6354
 10
692.72
 20
28.3363
 10
692.421
 20
28.0894
 10
692.0779
 20
27.9031
 10
691.6986
 20
27.7853
 10
691.2915
 20
27.7442
 10
690.8843
 20
27.7853
 10
690.5051
 20
27.9031
 10
690.1619
 20
28.0894
 10
689.8629
 20
28.3363
 10
689.6162
 20
28.6354
 10
689.4299
 20
28.9788
 10
689.3121
 20
29.3583
 10
689.2711
 20
29.7657
 10
689.3121
 20
30.1731
 10
689.4299
 20
30.5525
 10
689.6162
 20
30.8959
 10
689.8629
 20
31.1951
 10
690.1619
 20
31.4419
 10
690.5051
 20
31.6283
 10
690.8843
 20
31.7461
 10
691.2915
 20
31.7872
  0
LWPOLYLINE
  5
77
330
1F
100
AcDbEntity
  8
Layer 1
 62
     7
370
    25
100
AcDbPolyline
 90
       33
 70
     1
 43
0.0
 10
440.7075
 20
6.93
 10
441.1147
 20
6.8889
 10
441.4939
 20
6.7711
 10
441.8371
 20
6.5847
 10
442.1361
 20
6.3379
 10
442.3828
 20
6.0387
 10
442.5691
 20
5.6953
 10
442.6869
 20
5.3159
 10
442.7279
 20
4.9085
 10
442.6869
 20
4.5011
 10
442.5691
 20
4.1216
 10
442.3828
 20
3.7782
 10
442.1361
 20
3.4791
 10
441.8371
 20
3.2322
 10
441.4939
 20
3.0459
 10
441.1147
 20
2.9281
 10
440.7075
 20
2.887
 10
440.3004
 20
2.9281
 10
439.9211
 20
3.0459
 10
439.578
 20
3.2322
 10
439.279
 20
3.4791
 10
439.0323
 20
3.7782
 10
438.846
 20
4.1216
 10
438.7282
 20
4.5011
 10
438.6872
 20
4.9085
 10
438.7282
 20
5.3159
 10
438.846
 20
5.6953
 10
439.0323
 20
6.0387
 10
439.279
 20
6.3379
 10
439.578
 20
6.5847
 10
439.9211
 20
6.7711
 10
440.3004
 20
6.8889
 10
440.7075
 20
6.93
  0
LWPOLYLINE
  5
78
330
1F
100
AcDbEntity
  8
Layer 1
 62
     7
370
    25
100
AcDbPolyline
 90
       33
 70
     1
 43
0.0
 10
468.5503
 20
6.93
 10
468.9574
 20
6.8889
 10
469.3367
 20
6.7711
 10
469.6798
 20
6.5847
 10
469.9788
 20
6.3379
 10
470.2255
 20
6.0387
 10
470.4118
 20
5.6953
 10
470.5296
 20
5.3159
 10
470.5706
 20
4.9085
 10
470.5296
 20
4.5011
 10
470.4118
 20
4.1216
 10
470.2255
 20
3.7782
 10
469.9788
 20
3.4791
 10
469.6798
 20
3.2322
 10
469.3367
 20
3.0459
 10
468.9574
 20
2.9281
 10
468.5503
 20
2.887
 10
468.1432
 20
2.9281
 10
467.7639
 20
3.0459
 10
467.4207
 20
3.2322
 10
467.1217
 20
3.4791
 10
466.875
 20
3.7782
 10
466.6887
 20
4.1216
 10
466.571
 20
4.5011
 10
466.5299
 20
4.9085
 10
466.571
 20
5.3159
 10
466.6887
 20
5.6953
 10
466.875
 20
6.0387
 10
467.1217
 20
6.3379
 10
467.4207
 20
6.5847
 10
467.7639
 20
6.7711
 10
468.1432
 20
6.8889
 10
468.5503
 20
6.93
  0
LWPOLYLINE
  5
79
330
1F
100
AcDbEntity
  8
Layer 1
 62
     7
370
    25
100
AcDbPolyline
 90
       33
 70
     1
 43
0.0
 10
496.393
 20
6.93
 10
496.8002
 20
6.8889
 10
497.1794
 20
6.7711
 10
497.5226
 20
6.5847
 10
497.8216
 20
6.3379
 10
498.0683
 20
6.0387
 10
498.2546
 20
5.6953
 10
498.3724
 20
5.3159
 10
498.4134
 20
4.9085
 10
498.3724
 20
4.5011
 10
498.2546
 20
4.1216
 10
498.0683
 20
3.7782
 10
497.8216
 20
3.4791
 10
497.5226
 20
3.2322
 10
497.1794
 20
3.0459
 10
496.8002
 20
2.9281
 10
496.393
 20
2.887
 10
495.9859
 20
2.9281
 10
495.6066
 20
3.0459
 10
495.2635
 20
3.2322
 10
494.9645
 20
3.4791
 10
494.7178
 20
3.7782
 10
494.5315
 20
4.1216
 10
494.4137
 20
4.5011
 10
494.3727
 20
4.9085
 10
494.4137
 20
5.3159
 10
494.5315
 20
5.6953
 10
494.7178
 20
6.0387
 10
494.9645
 20
6.3379
 10
495.2635
 20
6.5847
 10
495.6066
 20
6.7711
 10
495.9859
 20
6.8889
 10
496.393
 20
6.93
  0
LWPOLYLINE
  5
7A
330
1F
100
AcDbEntity
  8
Layer 1
 62
     7
370
    25
100
AcDbPolyline
 90
       33
 70
     1
 43
0.0
 10
524.2358
 20
6.93
 10
524.6429
 20
6.8889
 10
525.0222
 20
6.7711
 10
525.3653
 20
6.5847
 10
525.6643
 20
6.3379
 10
525.911
 20
6.0387
 10
526.0973
 20
5.6953
 10
526.2151
 20
5.3159
 10
526.2561
 20
4.9085
 10
526.2151
 20
4.5011
 10
526.0973
 20
4.1216
 10
525.911
 20
3.7782
 10
525.6643
 20
3.4791
 10
525.3653
 20
3.2322
 10
525.0222
 20
3.0459
 10
524.6429
 20
2.9281
 10
524.2358
 20
2.887
 10
523.8287
 20
2.9281
 10
523.4494
 20
3.0459
 10
523.1062
 20
3.2322
 10
522.8072
 20
3.4791
 10
522.5605
 20
3.7782
 10
522.3742
 20
4.1216
 10
522.2565
 20
4.5011
 10
522.2154
 20
4.9085
 10
522.2565
 20
5.3159
 10
522.3742
 20
5.6953
 10
522.5605
 20
6.0387
 10
522.8072
 20
6.3379
 10
523.1062
 20
6.5847
 10
523.4494
 20
6.7711
 10
523.8287
 20
6.8889
 10
524.2358
 20
6.93
  0
LWPOLYLINE
  5
7B
330
1F
100
AcDbEntity
  8
Layer 1
 62
     7
370
    25
100
AcDbPolyline
 90
       33
 70
     1
 43
0.0
 10
552.0785
 20
6.93
 10
552.4857
 20
6.8889
 10
552.8649
 20
6.7711
 10
553.2081
 20
6.5847
 10
553.5071
 20
6.3379
 10
553.7538
 20
6.0387
 10
553.9401
 20
5.6953
 10
554.0579
 20
5.3159
 10
554.0989
 20
4.9085
 10
554.0579
 20
4.5011
 10
553.9401
 20
4.1216
 10
553.7538
 20
3.7782
 10
553.5071
 20
3.4791
 10
553.2081
 20
3.2322
 10
552.8649
 20
3.0459
 10
552.4857
 20
2.9281
 10
552.0785
 20
2.887
 10
551.6713
 20
2.9281
 10
551.292
 20
3.0459
 10
550.9487
 20
3.2322
 10
550.6495
 20
3.4791
 10
550.4026
 20
3.7782
 10
550.2162
 20
4.1216
 10
550.0984
 20
4.5011
 10
550.0573
 20
4.9085
 10
550.0984
 20
5.3159
 10
550.2162
 20
5.6953
 10
550.4026
 20
6.0387
 10
550.6495
 20
6.3379
 10
550.9487
 20
6.5847
 10
551.292
 20
6.7711
 10
551.6713
 20
6.8889
 10
552.0785
 20
6.93
  0
LWPOLYLINE
  5
7C
330
1F
100
AcDbEntity
  8
Layer 1
 62
     7
370
    25
100
AcDbPolyline
 90
       33
 70
     1
 43
0.0
 10
579.9205
 20
6.93
 10
580.3277
 20
6.8889
 10
580.707
 20
6.7711
 10
581.0503
 20
6.5847
 10
581.3495
 20
6.3379
 10
581.5964
 20
6.0387
 10
581.7828
 20
5.6953
 10
581.9006
 20
5.3159
 10
581.9417
 20
4.9085
 10
581.9006
 20
4.5011
 10
581.7828
 20
4.1216
 10
581.5964
 20
3.7782
 10
581.3495
 20
3.4791
 10
581.0503
 20
3.2322
 10
580.707
 20
3.0459
 10
580.3277
 20
2.9281
 10
579.9205
 20
2.887
 10
579.5133
 20
2.9281
 10
579.1341
 20
3.0459
 10
578.7909
 20
3.2322
 10
578.4919
 20
3.4791
 10
578.2452
 20
3.7782
 10
578.0589
 20
4.1216
 10
577.9411
 20
4.5011
 10
577.9001
 20
4.9085
 10
577.9411
 20
5.3159
 10
578.0589
 20
5.6953
 10
578.2452
 20
6.0387
 10
578.4919
 20
6.3379
 10
578.7909
 20
6.5847
 10
579.1341
 20
6.7711
 10
579.5133
 20
6.8889
 10
579.9205
 20
6.93
  0
LWPOLYLINE
  5
7D
330
1F
100
AcDbEntity
  8
Layer 1
 62
     7
370
    25
100
AcDbPolyline
 90
       33
 70
     1
 43
0.0
 10
607.7632
 20
6.93
 10
608.1703
 20
6.8889
 10
608.5496
 20
6.7711
 10
608.8928
 20
6.5847
 10
609.1918
 20
6.3379
 10
609.4385
 20
6.0387
 10
609.6248
 20
5.6953
 10
609.7425
 20
5.3159
 10
609.7836
 20
4.9085
 10
609.7425
 20
4.5011
 10
609.6248
 20
4.1216
 10
609.4385
 20
3.7782
 10
609.1918
 20
3.4791
 10
608.8928
 20
3.2322
 10
608.5496
 20
3.0459
 10
608.1703
 20
2.9281
 10
607.7632
 20
2.887
 10
607.3561
 20
2.9281
 10
606.9768
 20
3.0459
 10
606.6336
 20
3.2322
 10
606.3346
 20
3.4791
 10
606.0879
 20
3.7782
 10
605.9016
 20
4.1216
 10
605.7839
 20
4.5011
 10
605.7428
 20
4.9085
 10
605.7839
 20
5.3159
 10
605.9016
 20
5.6953
 10
606.0879
 20
6.0387
 10
606.3346
 20
6.3379
 10
606.6336
 20
6.5847
 10
606.9768
 20
6.7711
 10
607.3561
 20
6.8889
 10
607.7632
 20
6.93
  0
LWPOLYLINE
  5
7E
330
1F
100
AcDbEntity
  8
Layer 1
 62
     7
370
    25
100
AcDbPolyline
 90
       33
 70
     1
 43
0.0
 10
635.606
 20
6.93
 10
636.0131
 20
6.8889
 10
636.3924
 20
6.7711
 10
636.7355
 20
6.5847
 10
637.0345
 20
6.3379
 10
637.2812
 20
6.0387
 10
637.4675
 20
5.6953
 10
637.5853
 20
5.3159
 10
637.6263
 20
4.9085
 10
637.5853
 20
4.5011
 10
637.4675
 20
4.1216
 10
637.2812
 20
3.7782
 10
637.0345
 20
3.4791
 10
636.7355
 20
3.2322
 10
636.3924
 20
3.0459
 10
636.0131
 20
2.9281
 10
635.606
 20
2.887
 10
635.1988
 20
2.9281
 10
634.8196
 20
3.0459
 10
634.4764
 20
3.2322
 10
634.1774
 20
3.4791
 10
633.9307
 20
3.7782
 10
633.7444
 20
4.1216
 10
633.6266
 20
4.5011
 10
633.5856
 20
4.9085
 10
633.6266
 20
5.3159
 10
633.7444
 20
5.6953
 10
633.9307
 20
6.0387
 10
634.1774
 20
6.3379
 10
634.4764
 20
6.5847
 10
634.8196
 20
6.7711
 10
635.1988
 20
6.8889
 10
635.606
 20
6.93
  0
LWPOLYLINE
  5
7F
330
1F
100
AcDbEntity
  8
Layer 1
 62
     7
370
    25
100
AcDbPolyline
 90
       33
 70
     1
 43
0.0
 10
663.4487
 20
6.93
 10
663.8558
 20
6.8889
 10
664.2351
 20
6.7711
 10
664.5783
 20
6.5847
 10
664.8773
 20
6.3379
 10
665.124
 20
6.0387
 10
665.3103
 20
5.6953
 10
665.428
 20
5.3159
 10
665.4691
 20
4.9085
 10
665.428
 20
4.5011
 10
665.3103
 20
4.1216
 10
665.124
 20
3.7782
 10
664.8773
 20
3.4791
 10
664.5783
 20
3.2322
 10
664.2351
 20
3.0459
 10
663.8558
 20
2.9281
 10
663.4487
 20
2.887
 10
663.0416
 20
2.9281
 10
662.6623
 20
3.0459
 10
662.3192
 20
3.2322
 10
662.0202
 20
3.4791
 10
661.7735
 20
3.7782
 10
661.5872
 20
4.1216
 10
661.4694
 20
4.5011
 10
661.4284
 20
4.9085
 10
661.4694
 20
5.3159
 10
661.5872
 20
5.6953
 10
661.7735
 20
6.0387
 10
662.0202
 20
6.3379
 10
662.3192
 20
6.5847
 10
662.6623
 20
6.7711
 10
663.0416
 20
6.8889
 10
663.4487
 20
6.93
  0
LWPOLYLINE
  5
80
330
1F
100
AcDbEntity
  8
Layer 1
 62
     7
370
    25
100
AcDbPolyline
 90
       33
 70
     1
 43
0.0
 10
691.2915
 20
6.93
 10
691.6986
 20
6.8889
 10
692.0779
 20
6.7711
 10
692.421
 20
6.5847
 10
692.72
 20
6.3379
 10
692.9667
 20
6.0387
 10
693.153
 20
5.6953
 10
693.2708
 20
5.3159
 10
693.3118
 20
4.9085
 10
693.2708
 20
4.5011
 10
693.153
 20
4.1216
 10
692.9667
 20
3.7782
 10
692.72
 20
3.4791
 10
692.421
 20
3.2322
 10
692.0779
 20
3.0459
 10
691.6986
 20
2.9281
 10
691.2915
 20
2.887
 10
690.8843
 20
2.9281
 10
690.5051
 20
3.0459
 10
690.1619
 20
3.2322
 10
689.8629
 20
3.4791
 10
689.6162
 20
3.7782
 10
689.4299
 20
4.1216
 10
689.3121
 20
4.5011
 10
689.2711
 20
4.9085
 10
689.3121
 20
5.3159
 10
689.4299
 20
5.6953
 10
689.6162
 20
6.0387
 10
689.8629
 20
6.3379
 10
690.1619
 20
6.5847
 10
690.5051
 20
6.7711
 10
690.8843
 20
6.8889
 10
691.2915
 20
6.93
  0
LWPOLYLINE
  5
81
330
1F
100
AcDbEntity
  8
Layer 1
 62
     7
370
    25
100
AcDbPolyline
 90
       33
 70
     1
 43
0.0
 10
440.7075
 20
-17.9264
 10
441.1147
 20
-17.9675
 10
441.4939
 20
-18.0854
 10
441.8371
 20
-18.2719
 10
442.1361
 20
-18.5189
 10
442.3828
 20
-18.8182
 10
442.5691
 20
-19.1617
 10
442.6869
 20
-19.5413
 10
442.7279
 20
-19.9487
 10
442.6869
 20
-20.3559
 10
442.5691
 20
-20.7352
 10
442.3828
 20
-21.0786
 10
442.1361
 20
-21.3778
 10
441.8371
 20
-21.6248
 10
441.4939
 20
-21.8112
 10
441.1147
 20
-21.9291
 10
440.7075
 20
-21.9702
 10
440.3004
 20
-21.9291
 10
439.9211
 20
-21.8112
 10
439.578
 20
-21.6248
 10
439.279
 20
-21.3778
 10
439.0323
 20
-21.0786
 10
438.846
 20
-20.7352
 10
438.7282
 20
-20.3559
 10
438.6872
 20
-19.9487
 10
438.7282
 20
-19.5413
 10
438.846
 20
-19.1617
 10
439.0323
 20
-18.8182
 10
439.279
 20
-18.5189
 10
439.578
 20
-18.2719
 10
439.9211
 20
-18.0854
 10
440.3004
 20
-17.9675
 10
440.7075
 20
-17.9264
  0
LWPOLYLINE
  5
82
330
1F
100
AcDbEntity
  8
Layer 1
 62
     7
370
    25
100
AcDbPolyline
 90
       33
 70
     1
 43
0.0
 10
468.5503
 20
-17.9264
 10
468.9574
 20
-17.9675
 10
469.3367
 20
-18.0854
 10
469.6798
 20
-18.2719
 10
469.9788
 20
-18.5189
 10
470.2255
 20
-18.8182
 10
470.4118
 20
-19.1617
 10
470.5296
 20
-19.5413
 10
470.5706
 20
-19.9487
 10
470.5296
 20
-20.3559
 10
470.4118
 20
-20.7352
 10
470.2255
 20
-21.0786
 10
469.9788
 20
-21.3778
 10
469.6798
 20
-21.6248
 10
469.3367
 20
-21.8112
 10
468.9574
 20
-21.9291
 10
468.5503
 20
-21.9702
 10
468.1432
 20
-21.9291
 10
467.7639
 20
-21.8112
 10
467.4207
 20
-21.6248
 10
467.1217
 20
-21.3778
 10
466.875
 20
-21.0786
 10
466.6887
 20
-20.7352
 10
466.571
 20
-20.3559
 10
466.5299
 20
-19.9487
 10
466.571
 20
-19.5413
 10
466.6887
 20
-19.1617
 10
466.875
 20
-18.8182
 10
467.1217
 20
-18.5189
 10
467.4207
 20
-18.2719
 10
467.7639
 20
-18.0854
 10
468.1432
 20
-17.9675
 10
468.5503
 20
-17.9264
  0
LWPOLYLINE
  5
83
330
1F
100
AcDbEntity
  8
Layer 1
 62
     7
370
    25
100
AcDbPolyline
 90
       33
 70
     1
 43
0.0
 10
496.393
 20
-17.9264
 10
496.8002
 20
-17.9675
 10
497.1794
 20
-18.0854
 10
497.5226
 20
-18.2719
 10
497.8216
 20
-18.5189
 10
498.0683
 20
-18.8182
 10
498.2546
 20
-19.1617
 10
498.3724
 20
-19.5413
 10
498.4134
 20
-19.9487
 10
498.3724
 20
-20.3559
 10
498.2546
 20
-20.7352
 10
498.0683
 20
-21.0786
 10
497.8216
 20
-21.3778
 10
497.5226
 20
-21.6248
 10
497.1794
 20
-21.8112
 10
496.8002
 20
-21.9291
 10
496.393
 20
-21.9702
 10
495.9859
 20
-21.9291
 10
495.6066
 20
-21.8112
 10
495.2635
 20
-21.6248
 10
494.9645
 20
-21.3778
 10
494.7178
 20
-21.0786
 10
494.5315
 20
-20.7352
 10
494.4137
 20
-20.3559
 10
494.3727
 20
-19.9487
 10
494.4137
 20
-19.5413
 10
494.5315
 20
-19.1617
 10
494.7178
 20
-18.8182
 10
494.9645
 20
-18.5189
 10
495.2635
 20
-18.2719
 10
495.6066
 20
-18.0854
 10
495.9859
 20
-17.9675
 10
496.393
 20
-17.9264
  0
LWPOLYLINE
  5
84
330
1F
100
AcDbEntity
  8
Layer 1
 62
     7
370
    25
100
AcDbPolyline
 90
       33
 70
     1
 43
0.0
 10
524.2358
 20
-17.9264
 10
524.6429
 20
-17.9675
 10
525.0222
 20
-18.0854
 10
525.3653
 20
-18.2719
 10
525.6643
 20
-18.5189
 10
525.911
 20
-18.8182
 10
526.0973
 20
-19.1617
 10
526.2151
 20
-19.5413
 10
526.2561
 20
-19.9487
 10
526.2151
 20
-20.3559
 10
526.0973
 20
-20.7352
 10
525.911
 20
-21.0786
 10
525.6643
 20
-21.3778
 10
525.3653
 20
-21.6248
 10
525.0222
 20
-21.8112
 10
524.6429
 20
-21.9291
 10
524.2358
 20
-21.9702
 10
523.8287
 20
-21.9291
 10
523.4494
 20
-21.8112
 10
523.1062
 20
-21.6248
 10
522.8072
 20
-21.3778
 10
522.5605
 20
-21.0786
 10
522.3742
 20
-20.7352
 10
522.2565
 20
-20.3559
 10
522.2154
 20
-19.9487
 10
522.2565
 20
-19.5413
 10
522.3742
 20
-19.1617
 10
522.5605
 20
-18.8182
 10
522.8072
 20
-18.5189
 10
523.1062
 20
-18.2719
 10
523.4494
 20
-18.0854
 10
523.8287
 20
-17.9675
 10
524.2358
 20
-17.9264
  0
LWPOLYLINE
  5
85
330
1F
100
AcDbEntity
  8
Layer 1
 62
     7
370
    25
100
AcDbPolyline
 90
       33
 70
     1
 43
0.0
 10
552.0785
 20
-17.9264
 10
552.4857
 20
-17.9675
 10
552.8649
 20
-18.0854
 10
553.2081
 20
-18.2719
 10
553.5071
 20
-18.5189
 10
553.7538
 20
-18.8182
 10
553.9401
 20
-19.1617
 10
554.0579
 20
-19.5413
 10
554.0989
 20
-19.9487
 10
554.0579
 20
-20.3559
 10
553.9401
 20
-20.7352
 10
553.7538
 20
-21.0786
 10
553.5071
 20
-21.3778
 10
553.2081
 20
-21.6248
 10
552.8649
 20
-21.8112
 10
552.4857
 20
-21.9291
 10
552.0785
 20
-21.9702
 10
551.6713
 20
-21.9291
 10
551.292
 20
-21.8112
 10
550.9487
 20
-21.6248
 10
550.6495
 20
-21.3778
 10
550.4026
 20
-21.0786
 10
550.2162
 20
-20.7352
 10
550.0984
 20
-20.3559
 10
550.0573
 20
-19.9487
 10
550.0984
 20
-19.5413
 10
550.2162
 20
-19.1617
 10
550.4026
 20
-18.8182
 10
550.6495
 20
-18.5189
 10
550.9487
 20
-18.2719
 10
551.292
 20
-18.0854
 10
551.6713
 20
-17.9675
 10
552.0785
 20
-17.9264
  0
LWPOLYLINE
  5
86
330
1F
100
AcDbEntity
  8
Layer 1
 62
     7
370
    25
100
AcDbPolyline
 90
       33
 70
     1
 43
0.0
 10
579.9205
 20
-17.9264
 10
580.3277
 20
-17.9675
 10
580.707
 20
-18.0854
 10
581.0503
 20
-18.2719
 10
581.3495
 20
-18.5189
 10
581.5964
 20
-18.8182
 10
581.7828
 20
-19.1617
 10
581.9006
 20
-19.5413
 10
581.9417
 20
-19.9487
 10
581.9006
 20
-20.3559
 10
581.7828
 20
-20.7352
 10
581.5964
 20
-21.0786
 10
581.3495
 20
-21.3778
 10
581.0503
 20
-21.6248
 10
580.707
 20
-21.8112
 10
580.3277
 20
-21.9291
 10
579.9205
 20
-21.9702
 10
579.5133
 20
-21.9291
 10
579.1341
 20
-21.8112
 10
578.7909
 20
-21.6248
 10
578.4919
 20
-21.3778
 10
578.2452
 20
-21.0786
 10
578.0589
 20
-20.7352
 10
577.9411
 20
-20.3559
 10
577.9001
 20
-19.9487
 10
577.9411
 20
-19.5413
 10
578.0589
 20
-19.1617
 10
578.2452
 20
-18.8182
 10
578.4919
 20
-18.5189
 10
578.7909
 20
-18.2719
 10
579.1341
 20
-18.0854
 10
579.5133
 20
-17.9675
 10
579.9205
 20
-17.9264
  0
LWPOLYLINE
  5
87
330
1F
100
AcDbEntity
  8
Layer 1
 62
     7
370
    25
100
AcDbPolyline
 90
       33
 70
     1
 43
0.0
 10
607.7632
 20
-17.9264
 10
608.1703
 20
-17.9675
 10
608.5496
 20
-18.0854
 10
608.8928
 20
-18.2719
 10
609.1918
 20
-18.5189
 10
609.4385
 20
-18.8182
 10
609.6248
 20
-19.1617
 10
609.7425
 20
-19.5413
 10
609.7836
 20
-19.9487
 10
609.7425
 20
-20.3559
 10
609.6248
 20
-20.7352
 10
609.4385
 20
-21.0786
 10
609.1918
 20
-21.3778
 10
608.8928
 20
-21.6248
 10
608.5496
 20
-21.8112
 10
608.1703
 20
-21.9291
 10
607.7632
 20
-21.9702
 10
607.3561
 20
-21.9291
 10
606.9768
 20
-21.8112
 10
606.6336
 20
-21.6248
 10
606.3346
 20
-21.3778
 10
606.0879
 20
-21.0786
 10
605.9016
 20
-20.7352
 10
605.7839
 20
-20.3559
 10
605.7428
 20
-19.9487
 10
605.7839
 20
-19.5413
 10
605.9016
 20
-19.1617
 10
606.0879
 20
-18.8182
 10
606.3346
 20
-18.5189
 10
606.6336
 20
-18.2719
 10
606.9768
 20
-18.0854
 10
607.3561
 20
-17.9675
 10
607.7632
 20
-17.9264
  0
LWPOLYLINE
  5
88
330
1F
100
AcDbEntity
  8
Layer 1
 62
     7
370
    25
100
AcDbPolyline
 90
       33
 70
     1
 43
0.0
 10
635.606
 20
-17.9264
 10
636.0131
 20
-17.9675
 10
636.3924
 20
-18.0854
 10
636.7355
 20
-18.2719
 10
637.0345
 20
-18.5189
 10
637.2812
 20
-18.8182
 10
637.4675
 20
-19.1617
 10
637.5853
 20
-19.5413
 10
637.6263
 20
-19.9487
 10
637.5853
 20
-20.3559
 10
637.4675
 20
-20.7352
 10
637.2812
 20
-21.0786
 10
637.0345
 20
-21.3778
 10
636.7355
 20
-21.6248
 10
636.3924
 20
-21.8112
 10
636.0131
 20
-21.9291
 10
635.606
 20
-21.9702
 10
635.1988
 20
-21.9291
 10
634.8196
 20
-21.8112
 10
634.4764
 20
-21.6248
 10
634.1774
 20
-21.3778
 10
633.9307
 20
-21.0786
 10
633.7444
 20
-20.7352
 10
633.6266
 20
-20.3559
 10
633.5856
 20
-19.9487
 10
633.6266
 20
-19.5413
 10
633.7444
 20
-19.1617
 10
633.9307
 20
-18.8182
 10
634.1774
 20
-18.5189
 10
634.4764
 20
-18.2719
 10
634.8196
 20
-18.0854
 10
635.1988
 20
-17.9675
 10
635.606
 20
-17.9264
  0
LWPOLYLINE
  5
89
330
1F
100
AcDbEntity
  8
Layer 1
 62
     7
370
    25
100
AcDbPolyline
 90
       33
 70
     1
 43
0.0
 10
663.4487
 20
-17.9264
 10
663.8558
 20
-17.9675
 10
664.2351
 20
-18.0854
 10
664.5783
 20
-18.2719
 10
664.8773
 20
-18.5189
 10
665.124
 20
-18.8182
 10
665.3103
 20
-19.1617
 10
665.428
 20
-19.5413
 10
665.4691
 20
-19.9487
 10
665.428
 20
-20.3559
 10
665.3103
 20
-20.7352
 10
665.124
 20
-21.0786
 10
664.8773
 20
-21.3778
 10
664.5783
 20
-21.6248
 10
664.2351
 20
-21.8112
 10
663.8558
 20
-21.9291
 10
663.4487
 20
-21.9702
 10
663.0416
 20
-21.9291
 10
662.6623
 20
-21.8112
 10
662.3192
 20
-21.6248
 10
662.0202
 20
-21.3778
 10
661.7735
 20
-21.0786
 10
661.5872
 20
-20.7352
 10
661.4694
 20
-20.3559
 10
661.4284
 20
-19.9487
 10
661.4694
 20
-19.5413
 10
661.5872
 20
-19.1617
 10
661.7735
 20
-18.8182
 10
662.0202
 20
-18.5189
 10
662.3192
 20
-18.2719
 10
662.6623
 20
-18.0854
 10
663.0416
 20
-17.9675
 10
663.4487
 20
-17.9264
  0
LWPOLYLINE
  5
8A
330
1F
100
AcDbEntity
  8
Layer 1
 62
     7
370
    25
100
AcDbPolyline
 90
       33
 70
     1
 43
0.0
 10
691.2915
 20
-17.9264
 10
691.6986
 20
-17.9675
 10
692.0779
 20
-18.0854
 10
692.421
 20
-18.2719
 10
692.72
 20
-18.5189
 10
692.9667
 20
-18.8182
 10
693.153
 20
-19.1617
 10
693.2708
 20
-19.5413
 10
693.3118
 20
-19.9487
 10
693.2708
 20
-20.3559
 10
693.153
 20
-20.7352
 10
692.9667
 20
-21.0786
 10
692.72
 20
-21.3778
 10
692.421
 20
-21.6248
 10
692.0779
 20
-21.8112
 10
691.6986
 20
-21.9291
 10
691.2915
 20
-21.9702
 10
690.8843
 20
-21.9291
 10
690.5051
 20
-21.8112
 10
690.1619
 20
-21.6248
 10
689.8629
 20
-21.3778
 10
689.6162
 20
-21.0786
 10
689.4299
 20
-20.7352
 10
689.3121
 20
-20.3559
 10
689.2711
 20
-19.9487
 10
689.3121
 20
-19.5413
 10
689.4299
 20
-19.1617
 10
689.6162
 20
-18.8182
 10
689.8629
 20
-18.5189
 10
690.1619
 20
-18.2719
 10
690.5051
 20
-18.0854
 10
690.8843
 20
-17.9675
 10
691.2915
 20
-17.9264
  0
LWPOLYLINE
  5
8B
330
1F
100
AcDbEntity
  8
Layer 1
 62
     7
370
    25
100
AcDbPolyline
 90
       33
 70
     1
 43
0.0
 10
440.7075
 20
-42.7836
 10
441.1147
 20
-42.8247
 10
441.4939
 20
-42.9425
 10
441.8371
 20
-43.1289
 10
442.1361
 20
-43.3757
 10
442.3828
 20
-43.6749
 10
442.5691
 20
-44.0183
 10
442.6869
 20
-44.3977
 10
442.7279
 20
-44.8051
 10
442.6869
 20
-45.2125
 10
442.5691
 20
-45.592
 10
442.3828
 20
-45.9354
 10
442.1361
 20
-46.2345
 10
441.8371
 20
-46.4814
 10
441.4939
 20
-46.6677
 10
441.1147
 20
-46.7855
 10
440.7075
 20
-46.8266
 10
440.3004
 20
-46.7855
 10
439.9211
 20
-46.6677
 10
439.578
 20
-46.4814
 10
439.279
 20
-46.2345
 10
439.0323
 20
-45.9354
 10
438.846
 20
-45.592
 10
438.7282
 20
-45.2125
 10
438.6872
 20
-44.8051
 10
438.7282
 20
-44.3977
 10
438.846
 20
-44.0183
 10
439.0323
 20
-43.6749
 10
439.279
 20
-43.3757
 10
439.578
 20
-43.1289
 10
439.9211
 20
-42.9425
 10
440.3004
 20
-42.8247
 10
440.7075
 20
-42.7836
  0
LWPOLYLINE
  5
8C
330
1F
100
AcDbEntity
  8
Layer 1
 62
     7
370
    25
100
AcDbPolyline
 90
       33
 70
     1
 43
0.0
 10
468.5503
 20
-42.7836
 10
468.9574
 20
-42.8247
 10
469.3367
 20
-42.9425
 10
469.6798
 20
-43.1289
 10
469.9788
 20
-43.3757
 10
470.2255
 20
-43.6749
 10
470.4118
 20
-44.0183
 10
470.5296
 20
-44.3977
 10
470.5706
 20
-44.8051
 10
470.5296
 20
-45.2125
 10
470.4118
 20
-45.592
 10
470.2255
 20
-45.9354
 10
469.9788
 20
-46.2345
 10
469.6798
 20
-46.4814
 10
469.3367
 20
-46.6677
 10
468.9574
 20
-46.7855
 10
468.5503
 20
-46.8266
 10
468.1432
 20
-46.7855
 10
467.7639
 20
-46.6677
 10
467.4207
 20
-46.4814
 10
467.1217
 20
-46.2345
 10
466.875
 20
-45.9354
 10
466.6887
 20
-45.592
 10
466.571
 20
-45.2125
 10
466.5299
 20
-44.8051
 10
466.571
 20
-44.3977
 10
466.6887
 20
-44.0183
 10
466.875
 20
-43.6749
 10
467.1217
 20
-43.3757
 10
467.4207
 20
-43.1289
 10
467.7639
 20
-42.9425
 10
468.1432
 20
-42.8247
 10
468.5503
 20
-42.7836
  0
LWPOLYLINE
  5
8D
330
1F
100
AcDbEntity
  8
Layer 1
 62
     7
370
    25
100
AcDbPolyline
 90
       33
 70
     1
 43
0.0
 10
496.393
 20
-42.7836
 10
496.8002
 20
-42.8247
 10
497.1794
 20
-42.9425
 10
497.5226
 20
-43.1289
 10
497.8216
 20
-43.3757
 10
498.0683
 20
-43.6749
 10
498.2546
 20
-44.0183
 10
498.3724
 20
-44.3977
 10
498.4134
 20
-44.8051
 10
498.3724
 20
-45.2125
 10
498.2546
 20
-45.592
 10
498.0683
 20
-45.9354
 10
497.8216
 20
-46.2345
 10
497.5226
 20
-46.4814
 10
497.1794
 20
-46.6677
 10
496.8002
 20
-46.7855
 10
496.393
 20
-46.8266
 10
495.9859
 20
-46.7855
 10
495.6066
 20
-46.6677
 10
495.2635
 20
-46.4814
 10
494.9645
 20
-46.2345
 10
494.7178
 20
-45.9354
 10
494.5315
 20
-45.592
 10
494.4137
 20
-45.2125
 10
494.3727
 20
-44.8051
 10
494.4137
 20
-44.3977
 10
494.5315
 20
-44.0183
 10
494.7178
 20
-43.6749
 10
494.9645
 20
-43.3757
 10
495.2635
 20
-43.1289
 10
495.6066
 20
-42.9425
 10
495.9859
 20
-42.8247
 10
496.393
 20
-42.7836
  0
LWPOLYLINE
  5
8E
330
1F
100
AcDbEntity
  8
Layer 1
 62
     7
370
    25
100
AcDbPolyline
 90
       33
 70
     1
 43
0.0
 10
524.2358
 20
-42.7836
 10
524.6429
 20
-42.8247
 10
525.0222
 20
-42.9425
 10
525.3653
 20
-43.1289
 10
525.6643
 20
-43.3757
 10
525.911
 20
-43.6749
 10
526.0973
 20
-44.0183
 10
526.2151
 20
-44.3977
 10
526.2561
 20
-44.8051
 10
526.2151
 20
-45.2125
 10
526.0973
 20
-45.592
 10
525.911
 20
-45.9354
 10
525.6643
 20
-46.2345
 10
525.3653
 20
-46.4814
 10
525.0222
 20
-46.6677
 10
524.6429
 20
-46.7855
 10
524.2358
 20
-46.8266
 10
523.8287
 20
-46.7855
 10
523.4494
 20
-46.6677
 10
523.1062
 20
-46.4814
 10
522.8072
 20
-46.2345
 10
522.5605
 20
-45.9354
 10
522.3742
 20
-45.592
 10
522.2565
 20
-45.2125
 10
522.2154
 20
-44.8051
 10
522.2565
 20
-44.3977
 10
522.3742
 20
-44.0183
 10
522.5605
 20
-43.6749
 10
522.8072
 20
-43.3757
 10
523.1062
 20
-43.1289
 10
523.4494
 20
-42.9425
 10
523.8287
 20
-42.8247
 10
524.2358
 20
-42.7836
  0
LWPOLYLINE
  5
8F
330
1F
100
AcDbEntity
  8
Layer 1
 62
     7
370
    25
100
AcDbPolyline
 90
       33
 70
     1
 43
0.0
 10
607.7632
 20
-42.7836
 10
608.1703
 20
-42.8247
 10
608.5496
 20
-42.9425
 10
608.8928
 20
-43.1289
 10
609.1918
 20
-43.3757
 10
609.4385
 20
-43.6749
 10
609.6248
 20
-44.0183
 10
609.7425
 20
-44.3977
 10
609.7836
 20
-44.8051
 10
609.7425
 20
-45.2125
 10
609.6248
 20
-45.592
 10
609.4385
 20
-45.9354
 10
609.1918
 20
-46.2345
 10
608.8928
 20
-46.4814
 10
608.5496
 20
-46.6677
 10
608.1703
 20
-46.7855
 10
607.7632
 20
-46.8266
 10
607.3561
 20
-46.7855
 10
606.9768
 20
-46.6677
 10
606.6336
 20
-46.4814
 10
606.3346
 20
-46.2345
 10
606.0879
 20
-45.9354
 10
605.9016
 20
-45.592
 10
605.7839
 20
-45.2125
 10
605.7428
 20
-44.8051
 10
605.7839
 20
-44.3977
 10
605.9016
 20
-44.0183
 10
606.0879
 20
-43.6749
 10
606.3346
 20
-43.3757
 10
606.6336
 20
-43.1289
 10
606.9768
 20
-42.9425
 10
607.3561
 20
-42.8247
 10
607.7632
 20
-42.7836
  0
LWPOLYLINE
  5
90
330
1F
100
AcDbEntity
  8
Layer 1
 62
     7
370
    25
100
AcDbPolyline
 90
       33
 70
     1
 43
0.0
 10
635.606
 20
-42.7836
 10
636.0131
 20
-42.8247
 10
636.3924
 20
-42.9425
 10
636.7355
 20
-43.1289
 10
637.0345
 20
-43.3757
 10
637.2812
 20
-43.6749
 10
637.4675
 20
-44.0183
 10
637.5853
 20
-44.3977
 10
637.6263
 20
-44.8051
 10
637.5853
 20
-45.2125
 10
637.4675
 20
-45.592
 10
637.2812
 20
-45.9354
 10
637.0345
 20
-46.2345
 10
636.7355
 20
-46.4814
 10
636.3924
 20
-46.6677
 10
636.0131
 20
-46.7855
 10
635.606
 20
-46.8266
 10
635.1988
 20
-46.7855
 10
634.8196
 20
-46.6677
 10
634.4764
 20
-46.4814
 10
634.1774
 20
-46.2345
 10
633.9307
 20
-45.9354
 10
633.7444
 20
-45.592
 10
633.6266
 20
-45.2125
 10
633.5856
 20
-44.8051
 10
633.6266
 20
-44.3977
 10
633.7444
 20
-44.0183
 10
633.9307
 20
-43.6749
 10
634.1774
 20
-43.3757
 10
634.4764
 20
-43.1289
 10
634.8196
 20
-42.9425
 10
635.1988
 20
-42.8247
 10
635.606
 20
-42.7836
  0
LWPOLYLINE
  5
91
330
1F
100
AcDbEntity
  8
Layer 1
 62
     7
370
    25
100
AcDbPolyline
 90
       33
 70
     1
 43
0.0
 10
663.4487
 20
-42.7836
 10
663.8558
 20
-42.8247
 10
664.2351
 20
-42.9425
 10
664.5783
 20
-43.1289
 10
664.8773
 20
-43.3757
 10
665.124
 20
-43.6749
 10
665.3103
 20
-44.0183
 10
665.428
 20
-44.3977
 10
665.4691
 20
-44.8051
 10
665.428
 20
-45.2125
 10
665.3103
 20
-45.592
 10
665.124
 20
-45.9354
 10
664.8773
 20
-46.2345
 10
664.5783
 20
-46.4814
 10
664.2351
 20
-46.6677
 10
663.8558
 20
-46.7855
 10
663.4487
 20
-46.8266
 10
663.0416
 20
-46.7855
 10
662.6623
 20
-46.6677
 10
662.3192
 20
-46.4814
 10
662.0202
 20
-46.2345
 10
661.7735
 20
-45.9354
 10
661.5872
 20
-45.592
 10
661.4694
 20
-45.2125
 10
661.4284
 20
-44.8051
 10
661.4694
 20
-44.3977
 10
661.5872
 20
-44.0183
 10
661.7735
 20
-43.6749
 10
662.0202
 20
-43.3757
 10
662.3192
 20
-43.1289
 10
662.6623
 20
-42.9425
 10
663.0416
 20
-42.8247
 10
663.4487
 20
-42.7836
  0
LWPOLYLINE
  5
92
330
1F
100
AcDbEntity
  8
Layer 1
 62
     7
370
    25
100
AcDbPolyline
 90
       33
 70
     1
 43
0.0
 10
691.2915
 20
-42.7836
 10
691.6986
 20
-42.8247
 10
692.0779
 20
-42.9425
 10
692.421
 20
-43.1289
 10
692.72
 20
-43.3757
 10
692.9667
 20
-43.6749
 10
693.153
 20
-44.0183
 10
693.2708
 20
-44.3977
 10
693.3118
 20
-44.8051
 10
693.2708
 20
-45.2125
 10
693.153
 20
-45.592
 10
692.9667
 20
-45.9354
 10
692.72
 20
-46.2345
 10
692.421
 20
-46.4814
 10
692.0779
 20
-46.6677
 10
691.6986
 20
-46.7855
 10
691.2915
 20
-46.8266
 10
690.8843
 20
-46.7855
 10
690.5051
 20
-46.6677
 10
690.1619
 20
-46.4814
 10
689.8629
 20
-46.2345
 10
689.6162
 20
-45.9354
 10
689.4299
 20
-45.592
 10
689.3121
 20
-45.2125
 10
689.2711
 20
-44.8051
 10
689.3121
 20
-44.3977
 10
689.4299
 20
-44.0183
 10
689.6162
 20
-43.6749
 10
689.8629
 20
-43.3757
 10
690.1619
 20
-43.1289
 10
690.5051
 20
-42.9425
 10
690.8843
 20
-42.8247
 10
691.2915
 20
-42.7836
  0
LWPOLYLINE
  5
93
330
1F
100
AcDbEntity
  8
Layer 1
 62
     7
370
    25
100
AcDbPolyline
 90
       33
 70
     1
 43
0.0
 10
440.7075
 20
-67.6408
 10
441.1147
 20
-67.6819
 10
441.4939
 20
-67.7997
 10
441.8371
 20
-67.9861
 10
442.1361
 20
-68.2329
 10
442.3828
 20
-68.5321
 10
442.5691
 20
-68.8755
 10
442.6869
 20
-69.2549
 10
442.7279
 20
-69.6623
 10
442.6869
 20
-70.0697
 10
442.5691
 20
-70.4492
 10
442.3828
 20
-70.7926
 10
442.1361
 20
-71.0917
 10
441.8371
 20
-71.3386
 10
441.4939
 20
-71.5249
 10
441.1147
 20
-71.6427
 10
440.7075
 20
-71.6838
 10
440.3004
 20
-71.6427
 10
439.9211
 20
-71.5249
 10
439.578
 20
-71.3386
 10
439.279
 20
-71.0917
 10
439.0323
 20
-70.7926
 10
438.846
 20
-70.4492
 10
438.7282
 20
-70.0697
 10
438.6872
 20
-69.6623
 10
438.7282
 20
-69.2549
 10
438.846
 20
-68.8755
 10
439.0323
 20
-68.5321
 10
439.279
 20
-68.2329
 10
439.578
 20
-67.9861
 10
439.9211
 20
-67.7997
 10
440.3004
 20
-67.6819
 10
440.7075
 20
-67.6408
  0
LWPOLYLINE
  5
94
330
1F
100
AcDbEntity
  8
Layer 1
 62
     7
370
    25
100
AcDbPolyline
 90
       33
 70
     1
 43
0.0
 10
468.5503
 20
-67.6408
 10
468.9574
 20
-67.6819
 10
469.3367
 20
-67.7997
 10
469.6798
 20
-67.9861
 10
469.9788
 20
-68.2329
 10
470.2255
 20
-68.5321
 10
470.4118
 20
-68.8755
 10
470.5296
 20
-69.2549
 10
470.5706
 20
-69.6623
 10
470.5296
 20
-70.0697
 10
470.4118
 20
-70.4492
 10
470.2255
 20
-70.7926
 10
469.9788
 20
-71.0917
 10
469.6798
 20
-71.3386
 10
469.3367
 20
-71.5249
 10
468.9574
 20
-71.6427
 10
468.5503
 20
-71.6838
 10
468.1432
 20
-71.6427
 10
467.7639
 20
-71.5249
 10
467.4207
 20
-71.3386
 10
467.1217
 20
-71.0917
 10
466.875
 20
-70.7926
 10
466.6887
 20
-70.4492
 10
466.571
 20
-70.0697
 10
466.5299
 20
-69.6623
 10
466.571
 20
-69.2549
 10
466.6887
 20
-68.8755
 10
466.875
 20
-68.5321
 10
467.1217
 20
-68.2329
 10
467.4207
 20
-67.9861
 10
467.7639
 20
-67.7997
 10
468.1432
 20
-67.6819
 10
468.5503
 20
-67.6408
  0
LWPOLYLINE
  5
95
330
1F
100
AcDbEntity
  8
Layer 1
 62
     7
370
    25
100
AcDbPolyline
 90
       33
 70
     1
 43
0.0
 10
496.393
 20
-67.6408
 10
496.8002
 20
-67.6819
 10
497.1794
 20
-67.7997
 10
497.5226
 20
-67.9861
 10
497.8216
 20
-68.2329
 10
498.0683
 20
-68.5321
 10
498.2546
 20
-68.8755
 10
498.3724
 20
-69.2549
 10
498.4134
 20
-69.6623
 10
498.3724
 20
-70.0697
 10
498.2546
 20
-70.4492
 10
498.0683
 20
-70.7926
 10
497.8216
 20
-71.0917
 10
497.5226
 20
-71.3386
 10
497.1794
 20
-71.5249
 10
496.8002
 20
-71.6427
 10
496.393
 20
-71.6838
 10
495.9859
 20
-71.6427
 10
495.6066
 20
-71.5249
 10
495.2635
 20
-71.3386
 10
494.9645
 20
-71.0917
 10
494.7178
 20
-70.7926
 10
494.5315
 20
-70.4492
 10
494.4137
 20
-70.0697
 10
494.3727
 20
-69.6623
 10
494.4137
 20
-69.2549
 10
494.5315
 20
-68.8755
 10
494.7178
 20
-68.5321
 10
494.9645
 20
-68.2329
 10
495.2635
 20
-67.9861
 10
495.6066
 20
-67.7997
 10
495.9859
 20
-67.6819
 10
496.393
 20
-67.6408
  0
LWPOLYLINE
  5
96
330
1F
100
AcDbEntity
  8
Layer 1
 62
     7
370
    25
100
AcDbPolyline
 90
       33
 70
     1
 43
0.0
 10
524.2358
 20
-67.6408
 10
524.6429
 20
-67.6819
 10
525.0222
 20
-67.7997
 10
525.3653
 20
-67.9861
 10
525.6643
 20
-68.2329
 10
525.911
 20
-68.5321
 10
526.0973
 20
-68.8755
 10
526.2151
 20
-69.2549
 10
526.2561
 20
-69.6623
 10
526.2151
 20
-70.0697
 10
526.0973
 20
-70.4492
 10
525.911
 20
-70.7926
 10
525.6643
 20
-71.0917
 10
525.3653
 20
-71.3386
 10
525.0222
 20
-71.5249
 10
524.6429
 20
-71.6427
 10
524.2358
 20
-71.6838
 10
523.8287
 20
-71.6427
 10
523.4494
 20
-71.5249
 10
523.1062
 20
-71.3386
 10
522.8072
 20
-71.0917
 10
522.5605
 20
-70.7926
 10
522.3742
 20
-70.4492
 10
522.2565
 20
-70.0697
 10
522.2154
 20
-69.6623
 10
522.2565
 20
-69.2549
 10
522.3742
 20
-68.8755
 10
522.5605
 20
-68.5321
 10
522.8072
 20
-68.2329
 10
523.1062
 20
-67.9861
 10
523.4494
 20
-67.7997
 10
523.8287
 20
-67.6819
 10
524.2358
 20
-67.6408
  0
LWPOLYLINE
  5
97
330
1F
100
AcDbEntity
  8
Layer 1
 62
     7
370
    25
100
AcDbPolyline
 90
       33
 70
     1
 43
0.0
 10
607.7632
 20
-67.6408
 10
608.1703
 20
-67.6819
 10
608.5496
 20
-67.7997
 10
608.8928
 20
-67.9861
 10
609.1918
 20
-68.2329
 10
609.4385
 20
-68.5321
 10
609.6248
 20
-68.8755
 10
609.7425
 20
-69.2549
 10
609.7836
 20
-69.6623
 10
609.7425
 20
-70.0697
 10
609.6248
 20
-70.4492
 10
609.4385
 20
-70.7926
 10
609.1918
 20
-71.0917
 10
608.8928
 20
-71.3386
 10
608.5496
 20
-71.5249
 10
608.1703
 20
-71.6427
 10
607.7632
 20
-71.6838
 10
607.3561
 20
-71.6427
 10
606.9768
 20
-71.5249
 10
606.6336
 20
-71.3386
 10
606.3346
 20
-71.0917
 10
606.0879
 20
-70.7926
 10
605.9016
 20
-70.4492
 10
605.7839
 20
-70.0697
 10
605.7428
 20
-69.6623
 10
605.7839
 20
-69.2549
 10
605.9016
 20
-68.8755
 10
606.0879
 20
-68.5321
 10
606.3346
 20
-68.2329
 10
606.6336
 20
-67.9861
 10
606.9768
 20
-67.7997
 10
607.3561
 20
-67.6819
 10
607.7632
 20
-67.6408
  0
LWPOLYLINE
  5
98
330
1F
100
AcDbEntity
  8
Layer 1
 62
     7
370
    25
100
AcDbPolyline
 90
       33
 70
     1
 43
0.0
 10
635.606
 20
-67.6408
 10
636.0131
 20
-67.6819
 10
636.3924
 20
-67.7997
 10
636.7355
 20
-67.9861
 10
637.0345
 20
-68.2329
 10
637.2812
 20
-68.5321
 10
637.4675
 20
-68.8755
 10
637.5853
 20
-69.2549
 10
637.6263
 20
-69.6623
 10
637.5853
 20
-70.0697
 10
637.4675
 20
-70.4492
 10
637.2812
 20
-70.7926
 10
637.0345
 20
-71.0917
 10
636.7355
 20
-71.3386
 10
636.3924
 20
-71.5249
 10
636.0131
 20
-71.6427
 10
635.606
 20
-71.6838
 10
635.1988
 20
-71.6427
 10
634.8196
 20
-71.5249
 10
634.4764
 20
-71.3386
 10
634.1774
 20
-71.0917
 10
633.9307
 20
-70.7926
 10
633.7444
 20
-70.4492
 10
633.6266
 20
-70.0697
 10
633.5856
 20
-69.6623
 10
633.6266
 20
-69.2549
 10
633.7444
 20
-68.8755
 10
633.9307
 20
-68.5321
 10
634.1774
 20
-68.2329
 10
634.4764
 20
-67.9861
 10
634.8196
 20
-67.7997
 10
635.1988
 20
-67.6819
 10
635.606
 20
-67.6408
  0
LWPOLYLINE
  5
99
330
1F
100
AcDbEntity
  8
Layer 1
 62
     7
370
    25
100
AcDbPolyline
 90
       33
 70
     1
 43
0.0
 10
663.4487
 20
-67.6408
 10
663.8558
 20
-67.6819
 10
664.2351
 20
-67.7997
 10
664.5783
 20
-67.9861
 10
664.8773
 20
-68.2329
 10
665.124
 20
-68.5321
 10
665.3103
 20
-68.8755
 10
665.428
 20
-69.2549
 10
665.4691
 20
-69.6623
 10
665.428
 20
-70.0697
 10
665.3103
 20
-70.4492
 10
665.124
 20
-70.7926
 10
664.8773
 20
-71.0917
 10
664.5783
 20
-71.3386
 10
664.2351
 20
-71.5249
 10
663.8558
 20
-71.6427
 10
663.4487
 20
-71.6838
 10
663.0416
 20
-71.6427
 10
662.6623
 20
-71.5249
 10
662.3192
 20
-71.3386
 10
662.0202
 20
-71.0917
 10
661.7735
 20
-70.7926
 10
661.5872
 20
-70.4492
 10
661.4694
 20
-70.0697
 10
661.4284
 20
-69.6623
 10
661.4694
 20
-69.2549
 10
661.5872
 20
-68.8755
 10
661.7735
 20
-68.5321
 10
662.0202
 20
-68.2329
 10
662.3192
 20
-67.9861
 10
662.6623
 20
-67.7997
 10
663.0416
 20
-67.6819
 10
663.4487
 20
-67.6408
  0
LWPOLYLINE
  5
9A
330
1F
100
AcDbEntity
  8
Layer 1
 62
     7
370
    25
100
AcDbPolyline
 90
       33
 70
     1
 43
0.0
 10
691.2915
 20
-67.6408
 10
691.6986
 20
-67.6819
 10
692.0779
 20
-67.7997
 10
692.421
 20
-67.9861
 10
692.72
 20
-68.2329
 10
692.9667
 20
-68.5321
 10
693.153
 20
-68.8755
 10
693.2708
 20
-69.2549
 10
693.3118
 20
-69.6623
 10
693.2708
 20
-70.0697
 10
693.153
 20
-70.4492
 10
692.9667
 20
-70.7926
 10
692.72
 20
-71.0917
 10
692.421
 20
-71.3386
 10
692.0779
 20
-71.5249
 10
691.6986
 20
-71.6427
 10
691.2915
 20
-71.6838
 10
690.8843
 20
-71.6427
 10
690.5051
 20
-71.5249
 10
690.1619
 20
-71.3386
 10
689.8629
 20
-71.0917
 10
689.6162
 20
-70.7926
 10
689.4299
 20
-70.4492
 10
689.3121
 20
-70.0697
 10
689.2711
 20
-69.6623
 10
689.3121
 20
-69.2549
 10
689.4299
 20
-68.8755
 10
689.6162
 20
-68.5321
 10
689.8629
 20
-68.2329
 10
690.1619
 20
-67.9861
 10
690.5051
 20
-67.7997
 10
690.8843
 20
-67.6819
 10
691.2915
 20
-67.6408
  0
LWPOLYLINE
  5
9B
330
1F
100
AcDbEntity
  8
Layer 1
 62
     7
370
    25
100
AcDbPolyline
 90
       33
 70
     1
 43
0.0
 10
440.7075
 20
-92.498
 10
441.1147
 20
-92.5391
 10
441.4939
 20
-92.6569
 10
441.8371
 20
-92.8433
 10
442.1361
 20
-93.0901
 10
442.3828
 20
-93.3893
 10
442.5691
 20
-93.7327
 10
442.6869
 20
-94.1121
 10
442.7279
 20
-94.5195
 10
442.6869
 20
-94.9269
 10
442.5691
 20
-95.3064
 10
442.3828
 20
-95.6498
 10
442.1361
 20
-95.949
 10
441.8371
 20
-96.1958
 10
441.4939
 20
-96.3822
 10
441.1147
 20
-96.5
 10
440.7075
 20
-96.5411
 10
440.3004
 20
-96.5
 10
439.9211
 20
-96.3822
 10
439.578
 20
-96.1958
 10
439.279
 20
-95.949
 10
439.0323
 20
-95.6498
 10
438.846
 20
-95.3064
 10
438.7282
 20
-94.9269
 10
438.6872
 20
-94.5195
 10
438.7282
 20
-94.1121
 10
438.846
 20
-93.7327
 10
439.0323
 20
-93.3893
 10
439.279
 20
-93.0901
 10
439.578
 20
-92.8433
 10
439.9211
 20
-92.6569
 10
440.3004
 20
-92.5391
 10
440.7075
 20
-92.498
  0
LWPOLYLINE
  5
9C
330
1F
100
AcDbEntity
  8
Layer 1
 62
     7
370
    25
100
AcDbPolyline
 90
       33
 70
     1
 43
0.0
 10
468.5503
 20
-92.498
 10
468.9574
 20
-92.5391
 10
469.3367
 20
-92.6569
 10
469.6798
 20
-92.8433
 10
469.9788
 20
-93.0901
 10
470.2255
 20
-93.3893
 10
470.4118
 20
-93.7327
 10
470.5296
 20
-94.1121
 10
470.5706
 20
-94.5195
 10
470.5296
 20
-94.9269
 10
470.4118
 20
-95.3064
 10
470.2255
 20
-95.6498
 10
469.9788
 20
-95.949
 10
469.6798
 20
-96.1958
 10
469.3367
 20
-96.3822
 10
468.9574
 20
-96.5
 10
468.5503
 20
-96.5411
 10
468.1432
 20
-96.5
 10
467.7639
 20
-96.3822
 10
467.4207
 20
-96.1958
 10
467.1217
 20
-95.949
 10
466.875
 20
-95.6498
 10
466.6887
 20
-95.3064
 10
466.571
 20
-94.9269
 10
466.5299
 20
-94.5195
 10
466.571
 20
-94.1121
 10
466.6887
 20
-93.7327
 10
466.875
 20
-93.3893
 10
467.1217
 20
-93.0901
 10
467.4207
 20
-92.8433
 10
467.7639
 20
-92.6569
 10
468.1432
 20
-92.5391
 10
468.5503
 20
-92.498
  0
LWPOLYLINE
  5
9D
330
1F
100
AcDbEntity
  8
Layer 1
 62
     7
370
    25
100
AcDbPolyline
 90
       33
 70
     1
 43
0.0
 10
496.393
 20
-92.498
 10
496.8002
 20
-92.5391
 10
497.1794
 20
-92.6569
 10
497.5226
 20
-92.8433
 10
497.8216
 20
-93.0901
 10
498.0683
 20
-93.3893
 10
498.2546
 20
-93.7327
 10
498.3724
 20
-94.1121
 10
498.4134
 20
-94.5195
 10
498.3724
 20
-94.9269
 10
498.2546
 20
-95.3064
 10
498.0683
 20
-95.6498
 10
497.8216
 20
-95.949
 10
497.5226
 20
-96.1958
 10
497.1794
 20
-96.3822
 10
496.8002
 20
-96.5
 10
496.393
 20
-96.5411
 10
495.9859
 20
-96.5
 10
495.6066
 20
-96.3822
 10
495.2635
 20
-96.1958
 10
494.9645
 20
-95.949
 10
494.7178
 20
-95.6498
 10
494.5315
 20
-95.3064
 10
494.4137
 20
-94.9269
 10
494.3727
 20
-94.5195
 10
494.4137
 20
-94.1121
 10
494.5315
 20
-93.7327
 10
494.7178
 20
-93.3893
 10
494.9645
 20
-93.0901
 10
495.2635
 20
-92.8433
 10
495.6066
 20
-92.6569
 10
495.9859
 20
-92.5391
 10
496.393
 20
-92.498
  0
LWPOLYLINE
  5
9E
330
1F
100
AcDbEntity
  8
Layer 1
 62
     7
370
    25
100
AcDbPolyline
 90
       33
 70
     1
 43
0.0
 10
524.2358
 20
-92.498
 10
524.6429
 20
-92.5391
 10
525.0222
 20
-92.6569
 10
525.3653
 20
-92.8433
 10
525.6643
 20
-93.0901
 10
525.911
 20
-93.3893
 10
526.0973
 20
-93.7327
 10
526.2151
 20
-94.1121
 10
526.2561
 20
-94.5195
 10
526.2151
 20
-94.9269
 10
526.0973
 20
-95.3064
 10
525.911
 20
-95.6498
 10
525.6643
 20
-95.949
 10
525.3653
 20
-96.1958
 10
525.0222
 20
-96.3822
 10
524.6429
 20
-96.5
 10
524.2358
 20
-96.5411
 10
523.8287
 20
-96.5
 10
523.4494
 20
-96.3822
 10
523.1062
 20
-96.1958
 10
522.8072
 20
-95.949
 10
522.5605
 20
-95.6498
 10
522.3742
 20
-95.3064
 10
522.2565
 20
-94.9269
 10
522.2154
 20
-94.5195
 10
522.2565
 20
-94.1121
 10
522.3742
 20
-93.7327
 10
522.5605
 20
-93.3893
 10
522.8072
 20
-93.0901
 10
523.1062
 20
-92.8433
 10
523.4494
 20
-92.6569
 10
523.8287
 20
-92.5391
 10
524.2358
 20
-92.498
  0
LWPOLYLINE
  5
9F
330
1F
100
AcDbEntity
  8
Layer 1
 62
     7
370
    25
100
AcDbPolyline
 90
       33
 70
     1
 43
0.0
 10
552.0785
 20
-92.498
 10
552.4857
 20
-92.5391
 10
552.8649
 20
-92.6569
 10
553.2081
 20
-92.8433
 10
553.5071
 20
-93.0901
 10
553.7538
 20
-93.3893
 10
553.9401
 20
-93.7327
 10
554.0579
 20
-94.1121
 10
554.0989
 20
-94.5195
 10
554.0579
 20
-94.9269
 10
553.9401
 20
-95.3064
 10
553.7538
 20
-95.6498
 10
553.5071
 20
-95.949
 10
553.2081
 20
-96.1958
 10
552.8649
 20
-96.3822
 10
552.4857
 20
-96.5
 10
552.0785
 20
-96.5411
 10
551.6713
 20
-96.5
 10
551.292
 20
-96.3822
 10
550.9487
 20
-96.1958
 10
550.6495
 20
-95.949
 10
550.4026
 20
-95.6498
 10
550.2162
 20
-95.3064
 10
550.0984
 20
-94.9269
 10
550.0573
 20
-94.5195
 10
550.0984
 20
-94.1121
 10
550.2162
 20
-93.7327
 10
550.4026
 20
-93.3893
 10
550.6495
 20
-93.0901
 10
550.9487
 20
-92.8433
 10
551.292
 20
-92.6569
 10
551.6713
 20
-92.5391
 10
552.0785
 20
-92.498
  0
LWPOLYLINE
  5
A0
330
1F
100
AcDbEntity
  8
Layer 1
 62
     7
370
    25
100
AcDbPolyline
 90
       33
 70
     1
 43
0.0
 10
579.9205
 20
-92.498
 10
580.3277
 20
-92.5391
 10
580.707
 20
-92.6569
 10
581.0503
 20
-92.8433
 10
581.3495
 20
-93.0901
 10
581.5964
 20
-93.3893
 10
581.7828
 20
-93.7327
 10
581.9006
 20
-94.1121
 10
581.9417
 20
-94.5195
 10
581.9006
 20
-94.9269
 10
581.7828
 20
-95.3064
 10
581.5964
 20
-95.6498
 10
581.3495
 20
-95.949
 10
581.0503
 20
-96.1958
 10
580.707
 20
-96.3822
 10
580.3277
 20
-96.5
 10
579.9205
 20
-96.5411
 10
579.5133
 20
-96.5
 10
579.1341
 20
-96.3822
 10
578.7909
 20
-96.1958
 10
578.4919
 20
-95.949
 10
578.2452
 20
-95.6498
 10
578.0589
 20
-95.3064
 10
577.9411
 20
-94.9269
 10
577.9001
 20
-94.5195
 10
577.9411
 20
-94.1121
 10
578.0589
 20
-93.7327
 10
578.2452
 20
-93.3893
 10
578.4919
 20
-93.0901
 10
578.7909
 20
-92.8433
 10
579.1341
 20
-92.6569
 10
579.5133
 20
-92.5391
 10
579.9205
 20
-92.498
  0
LWPOLYLINE
  5
A1
330
1F
100
AcDbEntity
  8
Layer 1
 62
     7
370
    25
100
AcDbPolyline
 90
       33
 70
     1
 43
0.0
 10
607.7632
 20
-92.498
 10
608.1703
 20
-92.5391
 10
608.5496
 20
-92.6569
 10
608.8928
 20
-92.8433
 10
609.1918
 20
-93.0901
 10
609.4385
 20
-93.3893
 10
609.6248
 20
-93.7327
 10
609.7425
 20
-94.1121
 10
609.7836
 20
-94.5195
 10
609.7425
 20
-94.9269
 10
609.6248
 20
-95.3064
 10
609.4385
 20
-95.6498
 10
609.1918
 20
-95.949
 10
608.8928
 20
-96.1958
 10
608.5496
 20
-96.3822
 10
608.1703
 20
-96.5
 10
607.7632
 20
-96.5411
 10
607.3561
 20
-96.5
 10
606.9768
 20
-96.3822
 10
606.6336
 20
-96.1958
 10
606.3346
 20
-95.949
 10
606.0879
 20
-95.6498
 10
605.9016
 20
-95.3064
 10
605.7839
 20
-94.9269
 10
605.7428
 20
-94.5195
 10
605.7839
 20
-94.1121
 10
605.9016
 20
-93.7327
 10
606.0879
 20
-93.3893
 10
606.3346
 20
-93.0901
 10
606.6336
 20
-92.8433
 10
606.9768
 20
-92.6569
 10
607.3561
 20
-92.5391
 10
607.7632
 20
-92.498
  0
LWPOLYLINE
  5
A2
330
1F
100
AcDbEntity
  8
Layer 1
 62
     7
370
    25
100
AcDbPolyline
 90
       33
 70
     1
 43
0.0
 10
635.606
 20
-92.498
 10
636.0131
 20
-92.5391
 10
636.3924
 20
-92.6569
 10
636.7355
 20
-92.8433
 10
637.0345
 20
-93.0901
 10
637.2812
 20
-93.3893
 10
637.4675
 20
-93.7327
 10
637.5853
 20
-94.1121
 10
637.6263
 20
-94.5195
 10
637.5853
 20
-94.9269
 10
637.4675
 20
-95.3064
 10
637.2812
 20
-95.6498
 10
637.0345
 20
-95.949
 10
636.7355
 20
-96.1958
 10
636.3924
 20
-96.3822
 10
636.0131
 20
-96.5
 10
635.606
 20
-96.5411
 10
635.1988
 20
-96.5
 10
634.8196
 20
-96.3822
 10
634.4764
 20
-96.1958
 10
634.1774
 20
-95.949
 10
633.9307
 20
-95.6498
 10
633.7444
 20
-95.3064
 10
633.6266
 20
-94.9269
 10
633.5856
 20
-94.5195
 10
633.6266
 20
-94.1121
 10
633.7444
 20
-93.7327
 10
633.9307
 20
-93.3893
 10
634.1774
 20
-93.0901
 10
634.4764
 20
-92.8433
 10
634.8196
 20
-92.6569
 10
635.1988
 20
-92.5391
 10
635.606
 20
-92.498
  0
LWPOLYLINE
  5
A3
330
1F
100
AcDbEntity
  8
Layer 1
 62
     7
370
    25
100
AcDbPolyline
 90
       33
 70
     1
 43
0.0
 10
663.4487
 20
-92.498
 10
663.8558
 20
-92.5391
 10
664.2351
 20
-92.6569
 10
664.5783
 20
-92.8433
 10
664.8773
 20
-93.0901
 10
665.124
 20
-93.3893
 10
665.3103
 20
-93.7327
 10
665.428
 20
-94.1121
 10
665.4691
 20
-94.5195
 10
665.428
 20
-94.9269
 10
665.3103
 20
-95.3064
 10
665.124
 20
-95.6498
 10
664.8773
 20
-95.949
 10
664.5783
 20
-96.1958
 10
664.2351
 20
-96.3822
 10
663.8558
 20
-96.5
 10
663.4487
 20
-96.5411
 10
663.0416
 20
-96.5
 10
662.6623
 20
-96.3822
 10
662.3192
 20
-96.1958
 10
662.0202
 20
-95.949
 10
661.7735
 20
-95.6498
 10
661.5872
 20
-95.3064
 10
661.4694
 20
-94.9269
 10
661.4284
 20
-94.5195
 10
661.4694
 20
-94.1121
 10
661.5872
 20
-93.7327
 10
661.7735
 20
-93.3893
 10
662.0202
 20
-93.0901
 10
662.3192
 20
-92.8433
 10
662.6623
 20
-92.6569
 10
663.0416
 20
-92.5391
 10
663.4487
 20
-92.498
  0
LWPOLYLINE
  5
A4
330
1F
100
AcDbEntity
  8
Layer 1
 62
     7
370
    25
100
AcDbPolyline
 90
       33
 70
     1
 43
0.0
 10
691.2915
 20
-92.498
 10
691.6986
 20
-92.5391
 10
692.0779
 20
-92.6569
 10
692.421
 20
-92.8433
 10
692.72
 20
-93.0901
 10
692.9667
 20
-93.3893
 10
693.153
 20
-93.7327
 10
693.2708
 20
-94.1121
 10
693.3118
 20
-94.5195
 10
693.2708
 20
-94.9269
 10
693.153
 20
-95.3064
 10
692.9667
 20
-95.6498
 10
692.72
 20
-95.949
 10
692.421
 20
-96.1958
 10
692.0779
 20
-96.3822
 10
691.6986
 20
-96.5
 10
691.2915
 20
-96.5411
 10
690.8843
 20
-96.5
 10
690.5051
 20
-96.3822
 10
690.1619
 20
-96.1958
 10
689.8629
 20
-95.949
 10
689.6162
 20
-95.6498
 10
689.4299
 20
-95.3064
 10
689.3121
 20
-94.9269
 10
689.2711
 20
-94.5195
 10
689.3121
 20
-94.1121
 10
689.4299
 20
-93.7327
 10
689.6162
 20
-93.3893
 10
689.8629
 20
-93.0901
 10
690.1619
 20
-92.8433
 10
690.5051
 20
-92.6569
 10
690.8843
 20
-92.5391
 10
691.2915
 20
-92.498
  0
LWPOLYLINE
  5
A5
330
1F
100
AcDbEntity
  8
Layer 1
 62
     7
370
    25
100
AcDbPolyline
 90
       33
 70
     1
 43
0.0
 10
440.7075
 20
-117.3544
 10
441.1147
 20
-117.3955
 10
441.4939
 20
-117.5133
 10
441.8371
 20
-117.6997
 10
442.1361
 20
-117.9465
 10
442.3828
 20
-118.2457
 10
442.5691
 20
-118.5891
 10
442.6869
 20
-118.9685
 10
442.7279
 20
-119.3759
 10
442.6869
 20
-119.7834
 10
442.5691
 20
-120.1629
 10
442.3828
 20
-120.5064
 10
442.1361
 20
-120.8058
 10
441.8371
 20
-121.0528
 10
441.4939
 20
-121.2393
 10
441.1147
 20
-121.3572
 10
440.7075
 20
-121.3983
 10
440.3004
 20
-121.3572
 10
439.9211
 20
-121.2393
 10
439.578
 20
-121.0528
 10
439.279
 20
-120.8058
 10
439.0323
 20
-120.5064
 10
438.846
 20
-120.1629
 10
438.7282
 20
-119.7834
 10
438.6872
 20
-119.3759
 10
438.7282
 20
-118.9685
 10
438.846
 20
-118.5891
 10
439.0323
 20
-118.2457
 10
439.279
 20
-117.9465
 10
439.578
 20
-117.6997
 10
439.9211
 20
-117.5133
 10
440.3004
 20
-117.3955
 10
440.7075
 20
-117.3544
  0
LWPOLYLINE
  5
A6
330
1F
100
AcDbEntity
  8
Layer 1
 62
     7
370
    25
100
AcDbPolyline
 90
       33
 70
     1
 43
0.0
 10
468.5503
 20
-117.3544
 10
468.9574
 20
-117.3955
 10
469.3367
 20
-117.5133
 10
469.6798
 20
-117.6997
 10
469.9788
 20
-117.9465
 10
470.2255
 20
-118.2457
 10
470.4118
 20
-118.5891
 10
470.5296
 20
-118.9685
 10
470.5706
 20
-119.3759
 10
470.5296
 20
-119.7834
 10
470.4118
 20
-120.1629
 10
470.2255
 20
-120.5064
 10
469.9788
 20
-120.8058
 10
469.6798
 20
-121.0528
 10
469.3367
 20
-121.2393
 10
468.9574
 20
-121.3572
 10
468.5503
 20
-121.3983
 10
468.1432
 20
-121.3572
 10
467.7639
 20
-121.2393
 10
467.4207
 20
-121.0528
 10
467.1217
 20
-120.8058
 10
466.875
 20
-120.5064
 10
466.6887
 20
-120.1629
 10
466.571
 20
-119.7834
 10
466.5299
 20
-119.3759
 10
466.571
 20
-118.9685
 10
466.6887
 20
-118.5891
 10
466.875
 20
-118.2457
 10
467.1217
 20
-117.9465
 10
467.4207
 20
-117.6997
 10
467.7639
 20
-117.5133
 10
468.1432
 20
-117.3955
 10
468.5503
 20
-117.3544
  0
LWPOLYLINE
  5
A7
330
1F
100
AcDbEntity
  8
Layer 1
 62
     7
370
    25
100
AcDbPolyline
 90
       33
 70
     1
 43
0.0
 10
496.393
 20
-117.3544
 10
496.8002
 20
-117.3955
 10
497.1794
 20
-117.5133
 10
497.5226
 20
-117.6997
 10
497.8216
 20
-117.9465
 10
498.0683
 20
-118.2457
 10
498.2546
 20
-118.5891
 10
498.3724
 20
-118.9685
 10
498.4134
 20
-119.3759
 10
498.3724
 20
-119.7834
 10
498.2546
 20
-120.1629
 10
498.0683
 20
-120.5064
 10
497.8216
 20
-120.8058
 10
497.5226
 20
-121.0528
 10
497.1794
 20
-121.2393
 10
496.8002
 20
-121.3572
 10
496.393
 20
-121.3983
 10
495.9859
 20
-121.3572
 10
495.6066
 20
-121.2393
 10
495.2635
 20
-121.0528
 10
494.9645
 20
-120.8058
 10
494.7178
 20
-120.5064
 10
494.5315
 20
-120.1629
 10
494.4137
 20
-119.7834
 10
494.3727
 20
-119.3759
 10
494.4137
 20
-118.9685
 10
494.5315
 20
-118.5891
 10
494.7178
 20
-118.2457
 10
494.9645
 20
-117.9465
 10
495.2635
 20
-117.6997
 10
495.6066
 20
-117.5133
 10
495.9859
 20
-117.3955
 10
496.393
 20
-117.3544
  0
LWPOLYLINE
  5
A8
330
1F
100
AcDbEntity
  8
Layer 1
 62
     7
370
    25
100
AcDbPolyline
 90
       33
 70
     1
 43
0.0
 10
524.2358
 20
-117.3544
 10
524.6429
 20
-117.3955
 10
525.0222
 20
-117.5133
 10
525.3653
 20
-117.6997
 10
525.6643
 20
-117.9465
 10
525.911
 20
-118.2457
 10
526.0973
 20
-118.5891
 10
526.2151
 20
-118.9685
 10
526.2561
 20
-119.3759
 10
526.2151
 20
-119.7834
 10
526.0973
 20
-120.1629
 10
525.911
 20
-120.5064
 10
525.6643
 20
-120.8058
 10
525.3653
 20
-121.0528
 10
525.0222
 20
-121.2393
 10
524.6429
 20
-121.3572
 10
524.2358
 20
-121.3983
 10
523.8287
 20
-121.3572
 10
523.4494
 20
-121.2393
 10
523.1062
 20
-121.0528
 10
522.8072
 20
-120.8058
 10
522.5605
 20
-120.5064
 10
522.3742
 20
-120.1629
 10
522.2565
 20
-119.7834
 10
522.2154
 20
-119.3759
 10
522.2565
 20
-118.9685
 10
522.3742
 20
-118.5891
 10
522.5605
 20
-118.2457
 10
522.8072
 20
-117.9465
 10
523.1062
 20
-117.6997
 10
523.4494
 20
-117.5133
 10
523.8287
 20
-117.3955
 10
524.2358
 20
-117.3544
  0
LWPOLYLINE
  5
A9
330
1F
100
AcDbEntity
  8
Layer 1
 62
     7
370
    25
100
AcDbPolyline
 90
       33
 70
     1
 43
0.0
 10
552.0785
 20
-117.3544
 10
552.4857
 20
-117.3955
 10
552.8649
 20
-117.5133
 10
553.2081
 20
-117.6997
 10
553.5071
 20
-117.9465
 10
553.7538
 20
-118.2457
 10
553.9401
 20
-118.5891
 10
554.0579
 20
-118.9685
 10
554.0989
 20
-119.3759
 10
554.0579
 20
-119.7834
 10
553.9401
 20
-120.1629
 10
553.7538
 20
-120.5064
 10
553.5071
 20
-120.8058
 10
553.2081
 20
-121.0528
 10
552.8649
 20
-121.2393
 10
552.4857
 20
-121.3572
 10
552.0785
 20
-121.3983
 10
551.6713
 20
-121.3572
 10
551.292
 20
-121.2393
 10
550.9487
 20
-121.0528
 10
550.6495
 20
-120.8058
 10
550.4026
 20
-120.5064
 10
550.2162
 20
-120.1629
 10
550.0984
 20
-119.7834
 10
550.0573
 20
-119.3759
 10
550.0984
 20
-118.9685
 10
550.2162
 20
-118.5891
 10
550.4026
 20
-118.2457
 10
550.6495
 20
-117.9465
 10
550.9487
 20
-117.6997
 10
551.292
 20
-117.5133
 10
551.6713
 20
-117.3955
 10
552.0785
 20
-117.3544
  0
LWPOLYLINE
  5
AA
330
1F
100
AcDbEntity
  8
Layer 1
 62
     7
370
    25
100
AcDbPolyline
 90
       33
 70
     1
 43
0.0
 10
579.9205
 20
-117.3544
 10
580.3277
 20
-117.3955
 10
580.707
 20
-117.5133
 10
581.0503
 20
-117.6997
 10
581.3495
 20
-117.9465
 10
581.5964
 20
-118.2457
 10
581.7828
 20
-118.5891
 10
581.9006
 20
-118.9685
 10
581.9417
 20
-119.3759
 10
581.9006
 20
-119.7834
 10
581.7828
 20
-120.1629
 10
581.5964
 20
-120.5064
 10
581.3495
 20
-120.8058
 10
581.0503
 20
-121.0528
 10
580.707
 20
-121.2393
 10
580.3277
 20
-121.3572
 10
579.9205
 20
-121.3983
 10
579.5133
 20
-121.3572
 10
579.1341
 20
-121.2393
 10
578.7909
 20
-121.0528
 10
578.4919
 20
-120.8058
 10
578.2452
 20
-120.5064
 10
578.0589
 20
-120.1629
 10
577.9411
 20
-119.7834
 10
577.9001
 20
-119.3759
 10
577.9411
 20
-118.9685
 10
578.0589
 20
-118.5891
 10
578.2452
 20
-118.2457
 10
578.4919
 20
-117.9465
 10
578.7909
 20
-117.6997
 10
579.1341
 20
-117.5133
 10
579.5133
 20
-117.3955
 10
579.9205
 20
-117.3544
  0
LWPOLYLINE
  5
AB
330
1F
100
AcDbEntity
  8
Layer 1
 62
     7
370
    25
100
AcDbPolyline
 90
       33
 70
     1
 43
0.0
 10
607.7632
 20
-117.3544
 10
608.1703
 20
-117.3955
 10
608.5496
 20
-117.5133
 10
608.8928
 20
-117.6997
 10
609.1918
 20
-117.9465
 10
609.4385
 20
-118.2457
 10
609.6248
 20
-118.5891
 10
609.7425
 20
-118.9685
 10
609.7836
 20
-119.3759
 10
609.7425
 20
-119.7834
 10
609.6248
 20
-120.1629
 10
609.4385
 20
-120.5064
 10
609.1918
 20
-120.8058
 10
608.8928
 20
-121.0528
 10
608.5496
 20
-121.2393
 10
608.1703
 20
-121.3572
 10
607.7632
 20
-121.3983
 10
607.3561
 20
-121.3572
 10
606.9768
 20
-121.2393
 10
606.6336
 20
-121.0528
 10
606.3346
 20
-120.8058
 10
606.0879
 20
-120.5064
 10
605.9016
 20
-120.1629
 10
605.7839
 20
-119.7834
 10
605.7428
 20
-119.3759
 10
605.7839
 20
-118.9685
 10
605.9016
 20
-118.5891
 10
606.0879
 20
-118.2457
 10
606.3346
 20
-117.9465
 10
606.6336
 20
-117.6997
 10
606.9768
 20
-117.5133
 10
607.3561
 20
-117.3955
 10
607.7632
 20
-117.3544
  0
LWPOLYLINE
  5
AC
330
1F
100
AcDbEntity
  8
Layer 1
 62
     7
370
    25
100
AcDbPolyline
 90
       33
 70
     1
 43
0.0
 10
635.606
 20
-117.3544
 10
636.0131
 20
-117.3955
 10
636.3924
 20
-117.5133
 10
636.7355
 20
-117.6997
 10
637.0345
 20
-117.9465
 10
637.2812
 20
-118.2457
 10
637.4675
 20
-118.5891
 10
637.5853
 20
-118.9685
 10
637.6263
 20
-119.3759
 10
637.5853
 20
-119.7834
 10
637.4675
 20
-120.1629
 10
637.2812
 20
-120.5064
 10
637.0345
 20
-120.8058
 10
636.7355
 20
-121.0528
 10
636.3924
 20
-121.2393
 10
636.0131
 20
-121.3572
 10
635.606
 20
-121.3983
 10
635.1988
 20
-121.3572
 10
634.8196
 20
-121.2393
 10
634.4764
 20
-121.0528
 10
634.1774
 20
-120.8058
 10
633.9307
 20
-120.5064
 10
633.7444
 20
-120.1629
 10
633.6266
 20
-119.7834
 10
633.5856
 20
-119.3759
 10
633.6266
 20
-118.9685
 10
633.7444
 20
-118.5891
 10
633.9307
 20
-118.2457
 10
634.1774
 20
-117.9465
 10
634.4764
 20
-117.6997
 10
634.8196
 20
-117.5133
 10
635.1988
 20
-117.3955
 10
635.606
 20
-117.3544
  0
LWPOLYLINE
  5
AD
330
1F
100
AcDbEntity
  8
Layer 1
 62
     7
370
    25
100
AcDbPolyline
 90
       33
 70
     1
 43
0.0
 10
663.4487
 20
-117.3544
 10
663.8558
 20
-117.3955
 10
664.2351
 20
-117.5133
 10
664.5783
 20
-117.6997
 10
664.8773
 20
-117.9465
 10
665.124
 20
-118.2457
 10
665.3103
 20
-118.5891
 10
665.428
 20
-118.9685
 10
665.4691
 20
-119.3759
 10
665.428
 20
-119.7834
 10
665.3103
 20
-120.1629
 10
665.124
 20
-120.5064
 10
664.8773
 20
-120.8058
 10
664.5783
 20
-121.0528
 10
664.2351
 20
-121.2393
 10
663.8558
 20
-121.3572
 10
663.4487
 20
-121.3983
 10
663.0416
 20
-121.3572
 10
662.6623
 20
-121.2393
 10
662.3192
 20
-121.0528
 10
662.0202
 20
-120.8058
 10
661.7735
 20
-120.5064
 10
661.5872
 20
-120.1629
 10
661.4694
 20
-119.7834
 10
661.4284
 20
-119.3759
 10
661.4694
 20
-118.9685
 10
661.5872
 20
-118.5891
 10
661.7735
 20
-118.2457
 10
662.0202
 20
-117.9465
 10
662.3192
 20
-117.6997
 10
662.6623
 20
-117.5133
 10
663.0416
 20
-117.3955
 10
663.4487
 20
-117.3544
  0
LWPOLYLINE
  5
AE
330
1F
100
AcDbEntity
  8
Layer 1
 62
     7
370
    25
100
AcDbPolyline
 90
       33
 70
     1
 43
0.0
 10
691.2915
 20
-117.3544
 10
691.6986
 20
-117.3955
 10
692.0779
 20
-117.5133
 10
692.421
 20
-117.6997
 10
692.72
 20
-117.9465
 10
692.9667
 20
-118.2457
 10
693.153
 20
-118.5891
 10
693.2708
 20
-118.9685
 10
693.3118
 20
-119.3759
 10
693.2708
 20
-119.7834
 10
693.153
 20
-120.1629
 10
692.9667
 20
-120.5064
 10
692.72
 20
-120.8058
 10
692.421
 20
-121.0528
 10
692.0779
 20
-121.2393
 10
691.6986
 20
-121.3572
 10
691.2915
 20
-121.3983
 10
690.8843
 20
-121.3572
 10
690.5051
 20
-121.2393
 10
690.1619
 20
-121.0528
 10
689.8629
 20
-120.8058
 10
689.6162
 20
-120.5064
 10
689.4299
 20
-120.1629
 10
689.3121
 20
-119.7834
 10
689.2711
 20
-119.3759
 10
689.3121
 20
-118.9685
 10
689.4299
 20
-118.5891
 10
689.6162
 20
-118.2457
 10
689.8629
 20
-117.9465
 10
690.1619
 20
-117.6997
 10
690.5051
 20
-117.5133
 10
690.8843
 20
-117.3955
 10
691.2915
 20
-117.3544
  0
LWPOLYLINE
  5
AF
330
1F
100
AcDbEntity
  8
Layer 1
 62
     7
370
    25
100
AcDbPolyline
 90
       33
 70
     1
 43
0.0
 10
440.7075
 20
-142.2116
 10
441.1147
 20
-142.2527
 10
441.4939
 20
-142.3705
 10
441.8371
 20
-142.5569
 10
442.1361
 20
-142.8037
 10
442.3828
 20
-143.1029
 10
442.5691
 20
-143.4463
 10
442.6869
 20
-143.8257
 10
442.7279
 20
-144.2331
 10
442.6869
 20
-144.6405
 10
442.5691
 20
-145.02
 10
442.3828
 20
-145.3634
 10
442.1361
 20
-145.6626
 10
441.8371
 20
-145.9094
 10
441.4939
 20
-146.0958
 10
441.1147
 20
-146.2136
 10
440.7075
 20
-146.2547
 10
440.3004
 20
-146.2136
 10
439.9211
 20
-146.0958
 10
439.578
 20
-145.9094
 10
439.279
 20
-145.6626
 10
439.0323
 20
-145.3634
 10
438.846
 20
-145.02
 10
438.7282
 20
-144.6405
 10
438.6872
 20
-144.2331
 10
438.7282
 20
-143.8257
 10
438.846
 20
-143.4463
 10
439.0323
 20
-143.1029
 10
439.279
 20
-142.8037
 10
439.578
 20
-142.5569
 10
439.9211
 20
-142.3705
 10
440.3004
 20
-142.2527
 10
440.7075
 20
-142.2116
  0
LWPOLYLINE
  5
B0
330
1F
100
AcDbEntity
  8
Layer 1
 62
     7
370
    25
100
AcDbPolyline
 90
       33
 70
     1
 43
0.0
 10
496.393
 20
-142.2116
 10
496.8002
 20
-142.2527
 10
497.1794
 20
-142.3705
 10
497.5226
 20
-142.5569
 10
497.8216
 20
-142.8037
 10
498.0683
 20
-143.1029
 10
498.2546
 20
-143.4463
 10
498.3724
 20
-143.8257
 10
498.4134
 20
-144.2331
 10
498.3724
 20
-144.6405
 10
498.2546
 20
-145.02
 10
498.0683
 20
-145.3634
 10
497.8216
 20
-145.6626
 10
497.5226
 20
-145.9094
 10
497.1794
 20
-146.0958
 10
496.8002
 20
-146.2136
 10
496.393
 20
-146.2547
 10
495.9859
 20
-146.2136
 10
495.6066
 20
-146.0958
 10
495.2635
 20
-145.9094
 10
494.9645
 20
-145.6626
 10
494.7178
 20
-145.3634
 10
494.5315
 20
-145.02
 10
494.4137
 20
-144.6405
 10
494.3727
 20
-144.2331
 10
494.4137
 20
-143.8257
 10
494.5315
 20
-143.4463
 10
494.7178
 20
-143.1029
 10
494.9645
 20
-142.8037
 10
495.2635
 20
-142.5569
 10
495.6066
 20
-142.3705
 10
495.9859
 20
-142.2527
 10
496.393
 20
-142.2116
  0
LWPOLYLINE
  5
B1
330
1F
100
AcDbEntity
  8
Layer 1
 62
     7
370
    25
100
AcDbPolyline
 90
       33
 70
     1
 43
0.0
 10
524.2358
 20
-142.2116
 10
524.6429
 20
-142.2527
 10
525.0222
 20
-142.3705
 10
525.3653
 20
-142.5569
 10
525.6643
 20
-142.8037
 10
525.911
 20
-143.1029
 10
526.0973
 20
-143.4463
 10
526.2151
 20
-143.8257
 10
526.2561
 20
-144.2331
 10
526.2151
 20
-144.6405
 10
526.0973
 20
-145.02
 10
525.911
 20
-145.3634
 10
525.6643
 20
-145.6626
 10
525.3653
 20
-145.9094
 10
525.0222
 20
-146.0958
 10
524.6429
 20
-146.2136
 10
524.2358
 20
-146.2547
 10
523.8287
 20
-146.2136
 10
523.4494
 20
-146.0958
 10
523.1062
 20
-145.9094
 10
522.8072
 20
-145.6626
 10
522.5605
 20
-145.3634
 10
522.3742
 20
-145.02
 10
522.2565
 20
-144.6405
 10
522.2154
 20
-144.2331
 10
522.2565
 20
-143.8257
 10
522.3742
 20
-143.4463
 10
522.5605
 20
-143.1029
 10
522.8072
 20
-142.8037
 10
523.1062
 20
-142.5569
 10
523.4494
 20
-142.3705
 10
523.8287
 20
-142.2527
 10
524.2358
 20
-142.2116
  0
LWPOLYLINE
  5
B2
330
1F
100
AcDbEntity
  8
Layer 1
 62
     7
370
    25
100
AcDbPolyline
 90
       33
 70
     1
 43
0.0
 10
552.0785
 20
-142.2116
 10
552.4857
 20
-142.2527
 10
552.8649
 20
-142.3705
 10
553.2081
 20
-142.5569
 10
553.5071
 20
-142.8037
 10
553.7538
 20
-143.1029
 10
553.9401
 20
-143.4463
 10
554.0579
 20
-143.8257
 10
554.0989
 20
-144.2331
 10
554.0579
 20
-144.6405
 10
553.9401
 20
-145.02
 10
553.7538
 20
-145.3634
 10
553.5071
 20
-145.6626
 10
553.2081
 20
-145.9094
 10
552.8649
 20
-146.0958
 10
552.4857
 20
-146.2136
 10
552.0785
 20
-146.2547
 10
551.6713
 20
-146.2136
 10
551.292
 20
-146.0958
 10
550.9487
 20
-145.9094
 10
550.6495
 20
-145.6626
 10
550.4026
 20
-145.3634
 10
550.2162
 20
-145.02
 10
550.0984
 20
-144.6405
 10
550.0573
 20
-144.2331
 10
550.0984
 20
-143.8257
 10
550.2162
 20
-143.4463
 10
550.4026
 20
-143.1029
 10
550.6495
 20
-142.8037
 10
550.9487
 20
-142.5569
 10
551.292
 20
-142.3705
 10
551.6713
 20
-142.2527
 10
552.0785
 20
-142.2116
  0
LWPOLYLINE
  5
B3
330
1F
100
AcDbEntity
  8
Layer 1
 62
     7
370
    25
100
AcDbPolyline
 90
       33
 70
     1
 43
0.0
 10
579.9205
 20
-142.2116
 10
580.3277
 20
-142.2527
 10
580.707
 20
-142.3705
 10
581.0503
 20
-142.5569
 10
581.3495
 20
-142.8037
 10
581.5964
 20
-143.1029
 10
581.7828
 20
-143.4463
 10
581.9006
 20
-143.8257
 10
581.9417
 20
-144.2331
 10
581.9006
 20
-144.6405
 10
581.7828
 20
-145.02
 10
581.5964
 20
-145.3634
 10
581.3495
 20
-145.6626
 10
581.0503
 20
-145.9094
 10
580.707
 20
-146.0958
 10
580.3277
 20
-146.2136
 10
579.9205
 20
-146.2547
 10
579.5133
 20
-146.2136
 10
579.1341
 20
-146.0958
 10
578.7909
 20
-145.9094
 10
578.4919
 20
-145.6626
 10
578.2452
 20
-145.3634
 10
578.0589
 20
-145.02
 10
577.9411
 20
-144.6405
 10
577.9001
 20
-144.2331
 10
577.9411
 20
-143.8257
 10
578.0589
 20
-143.4463
 10
578.2452
 20
-143.1029
 10
578.4919
 20
-142.8037
 10
578.7909
 20
-142.5569
 10
579.1341
 20
-142.3705
 10
579.5133
 20
-142.2527
 10
579.9205
 20
-142.2116
  0
LWPOLYLINE
  5
B4
330
1F
100
AcDbEntity
  8
Layer 1
 62
     7
370
    25
100
AcDbPolyline
 90
       33
 70
     1
 43
0.0
 10
607.7632
 20
-142.2116
 10
608.1703
 20
-142.2527
 10
608.5496
 20
-142.3705
 10
608.8928
 20
-142.5569
 10
609.1918
 20
-142.8037
 10
609.4385
 20
-143.1029
 10
609.6248
 20
-143.4463
 10
609.7425
 20
-143.8257
 10
609.7836
 20
-144.2331
 10
609.7425
 20
-144.6405
 10
609.6248
 20
-145.02
 10
609.4385
 20
-145.3634
 10
609.1918
 20
-145.6626
 10
608.8928
 20
-145.9094
 10
608.5496
 20
-146.0958
 10
608.1703
 20
-146.2136
 10
607.7632
 20
-146.2547
 10
607.3561
 20
-146.2136
 10
606.9768
 20
-146.0958
 10
606.6336
 20
-145.9094
 10
606.3346
 20
-145.6626
 10
606.0879
 20
-145.3634
 10
605.9016
 20
-145.02
 10
605.7839
 20
-144.6405
 10
605.7428
 20
-144.2331
 10
605.7839
 20
-143.8257
 10
605.9016
 20
-143.4463
 10
606.0879
 20
-143.1029
 10
606.3346
 20
-142.8037
 10
606.6336
 20
-142.5569
 10
606.9768
 20
-142.3705
 10
607.3561
 20
-142.2527
 10
607.7632
 20
-142.2116
  0
LWPOLYLINE
  5
B5
330
1F
100
AcDbEntity
  8
Layer 1
 62
     7
370
    25
100
AcDbPolyline
 90
       33
 70
     1
 43
0.0
 10
635.606
 20
-142.2116
 10
636.0131
 20
-142.2527
 10
636.3924
 20
-142.3705
 10
636.7355
 20
-142.5569
 10
637.0345
 20
-142.8037
 10
637.2812
 20
-143.1029
 10
637.4675
 20
-143.4463
 10
637.5853
 20
-143.8257
 10
637.6263
 20
-144.2331
 10
637.5853
 20
-144.6405
 10
637.4675
 20
-145.02
 10
637.2812
 20
-145.3634
 10
637.0345
 20
-145.6626
 10
636.7355
 20
-145.9094
 10
636.3924
 20
-146.0958
 10
636.0131
 20
-146.2136
 10
635.606
 20
-146.2547
 10
635.1988
 20
-146.2136
 10
634.8196
 20
-146.0958
 10
634.4764
 20
-145.9094
 10
634.1774
 20
-145.6626
 10
633.9307
 20
-145.3634
 10
633.7444
 20
-145.02
 10
633.6266
 20
-144.6405
 10
633.5856
 20
-144.2331
 10
633.6266
 20
-143.8257
 10
633.7444
 20
-143.4463
 10
633.9307
 20
-143.1029
 10
634.1774
 20
-142.8037
 10
634.4764
 20
-142.5569
 10
634.8196
 20
-142.3705
 10
635.1988
 20
-142.2527
 10
635.606
 20
-142.2116
  0
LWPOLYLINE
  5
B6
330
1F
100
AcDbEntity
  8
Layer 1
 62
     7
370
    25
100
AcDbPolyline
 90
       33
 70
     1
 43
0.0
 10
691.2915
 20
-142.2116
 10
691.6986
 20
-142.2527
 10
692.0779
 20
-142.3705
 10
692.421
 20
-142.5569
 10
692.72
 20
-142.8037
 10
692.9667
 20
-143.1029
 10
693.153
 20
-143.4463
 10
693.2708
 20
-143.8257
 10
693.3118
 20
-144.2331
 10
693.2708
 20
-144.6405
 10
693.153
 20
-145.02
 10
692.9667
 20
-145.3634
 10
692.72
 20
-145.6626
 10
692.421
 20
-145.9094
 10
692.0779
 20
-146.0958
 10
691.6986
 20
-146.2136
 10
691.2915
 20
-146.2547
 10
690.8843
 20
-146.2136
 10
690.5051
 20
-146.0958
 10
690.1619
 20
-145.9094
 10
689.8629
 20
-145.6626
 10
689.6162
 20
-145.3634
 10
689.4299
 20
-145.02
 10
689.3121
 20
-144.6405
 10
689.2711
 20
-144.2331
 10
689.3121
 20
-143.8257
 10
689.4299
 20
-143.4463
 10
689.6162
 20
-143.1029
 10
689.8629
 20
-142.8037
 10
690.1619
 20
-142.5569
 10
690.5051
 20
-142.3705
 10
690.8843
 20
-142.2527
 10
691.2915
 20
-142.2116
  0
LWPOLYLINE
  5
B7
330
1F
100
AcDbEntity
  8
Layer 1
 62
     7
370
    25
100
AcDbPolyline
 90
       33
 70
     1
 43
0.0
 10
440.7075
 20
-167.0688
 10
441.1147
 20
-167.1099
 10
441.4939
 20
-167.2277
 10
441.8371
 20
-167.4141
 10
442.1361
 20
-167.6609
 10
442.3828
 20
-167.9601
 10
442.5691
 20
-168.3035
 10
442.6869
 20
-168.683
 10
442.7279
 20
-169.0904
 10
442.6869
 20
-169.4978
 10
442.5691
 20
-169.8772
 10
442.3828
 20
-170.2206
 10
442.1361
 20
-170.5198
 10
441.8371
 20
-170.7666
 10
441.4939
 20
-170.953
 10
441.1147
 20
-171.0708
 10
440.7075
 20
-171.1119
 10
440.3004
 20
-171.0708
 10
439.9211
 20
-170.953
 10
439.578
 20
-170.7666
 10
439.279
 20
-170.5198
 10
439.0323
 20
-170.2206
 10
438.846
 20
-169.8772
 10
438.7282
 20
-169.4978
 10
438.6872
 20
-169.0904
 10
438.7282
 20
-168.683
 10
438.846
 20
-168.3035
 10
439.0323
 20
-167.9601
 10
439.279
 20
-167.6609
 10
439.578
 20
-167.4141
 10
439.9211
 20
-167.2277
 10
440.3004
 20
-167.1099
 10
440.7075
 20
-167.0688
  0
LWPOLYLINE
  5
B8
330
1F
100
AcDbEntity
  8
Layer 1
 62
     7
370
    25
100
AcDbPolyline
 90
       33
 70
     1
 43
0.0
 10
468.5503
 20
-167.0688
 10
468.9574
 20
-167.1099
 10
469.3367
 20
-167.2277
 10
469.6798
 20
-167.4141
 10
469.9788
 20
-167.6609
 10
470.2255
 20
-167.9601
 10
470.4118
 20
-168.3035
 10
470.5296
 20
-168.683
 10
470.5706
 20
-169.0904
 10
470.5296
 20
-169.4978
 10
470.4118
 20
-169.8772
 10
470.2255
 20
-170.2206
 10
469.9788
 20
-170.5198
 10
469.6798
 20
-170.7666
 10
469.3367
 20
-170.953
 10
468.9574
 20
-171.0708
 10
468.5503
 20
-171.1119
 10
468.1432
 20
-171.0708
 10
467.7639
 20
-170.953
 10
467.4207
 20
-170.7666
 10
467.1217
 20
-170.5198
 10
466.875
 20
-170.2206
 10
466.6887
 20
-169.8772
 10
466.571
 20
-169.4978
 10
466.5299
 20
-169.0904
 10
466.571
 20
-168.683
 10
466.6887
 20
-168.3035
 10
466.875
 20
-167.9601
 10
467.1217
 20
-167.6609
 10
467.4207
 20
-167.4141
 10
467.7639
 20
-167.2277
 10
468.1432
 20
-167.1099
 10
468.5503
 20
-167.0688
  0
LWPOLYLINE
  5
B9
330
1F
100
AcDbEntity
  8
Layer 1
 62
     7
370
    25
100
AcDbPolyline
 90
       33
 70
     1
 43
0.0
 10
496.393
 20
-167.0688
 10
496.8002
 20
-167.1099
 10
497.1794
 20
-167.2277
 10
497.5226
 20
-167.4141
 10
497.8216
 20
-167.6609
 10
498.0683
 20
-167.9601
 10
498.2546
 20
-168.3035
 10
498.3724
 20
-168.683
 10
498.4134
 20
-169.0904
 10
498.3724
 20
-169.4978
 10
498.2546
 20
-169.8772
 10
498.0683
 20
-170.2206
 10
497.8216
 20
-170.5198
 10
497.5226
 20
-170.7666
 10
497.1794
 20
-170.953
 10
496.8002
 20
-171.0708
 10
496.393
 20
-171.1119
 10
495.9859
 20
-171.0708
 10
495.6066
 20
-170.953
 10
495.2635
 20
-170.7666
 10
494.9645
 20
-170.5198
 10
494.7178
 20
-170.2206
 10
494.5315
 20
-169.8772
 10
494.4137
 20
-169.4978
 10
494.3727
 20
-169.0904
 10
494.4137
 20
-168.683
 10
494.5315
 20
-168.3035
 10
494.7178
 20
-167.9601
 10
494.9645
 20
-167.6609
 10
495.2635
 20
-167.4141
 10
495.6066
 20
-167.2277
 10
495.9859
 20
-167.1099
 10
496.393
 20
-167.0688
  0
LWPOLYLINE
  5
BA
330
1F
100
AcDbEntity
  8
Layer 1
 62
     7
370
    25
100
AcDbPolyline
 90
       33
 70
     1
 43
0.0
 10
524.2358
 20
-167.0688
 10
524.6429
 20
-167.1099
 10
525.0222
 20
-167.2277
 10
525.3653
 20
-167.4141
 10
525.6643
 20
-167.6609
 10
525.911
 20
-167.9601
 10
526.0973
 20
-168.3035
 10
526.2151
 20
-168.683
 10
526.2561
 20
-169.0904
 10
526.2151
 20
-169.4978
 10
526.0973
 20
-169.8772
 10
525.911
 20
-170.2206
 10
525.6643
 20
-170.5198
 10
525.3653
 20
-170.7666
 10
525.0222
 20
-170.953
 10
524.6429
 20
-171.0708
 10
524.2358
 20
-171.1119
 10
523.8287
 20
-171.0708
 10
523.4494
 20
-170.953
 10
523.1062
 20
-170.7666
 10
522.8072
 20
-170.5198
 10
522.5605
 20
-170.2206
 10
522.3742
 20
-169.8772
 10
522.2565
 20
-169.4978
 10
522.2154
 20
-169.0904
 10
522.2565
 20
-168.683
 10
522.3742
 20
-168.3035
 10
522.5605
 20
-167.9601
 10
522.8072
 20
-167.6609
 10
523.1062
 20
-167.4141
 10
523.4494
 20
-167.2277
 10
523.8287
 20
-167.1099
 10
524.2358
 20
-167.0688
  0
LWPOLYLINE
  5
BB
330
1F
100
AcDbEntity
  8
Layer 1
 62
     7
370
    25
100
AcDbPolyline
 90
       33
 70
     1
 43
0.0
 10
552.0785
 20
-167.0688
 10
552.4857
 20
-167.1099
 10
552.8649
 20
-167.2277
 10
553.2081
 20
-167.4141
 10
553.5071
 20
-167.6609
 10
553.7538
 20
-167.9601
 10
553.9401
 20
-168.3035
 10
554.0579
 20
-168.683
 10
554.0989
 20
-169.0904
 10
554.0579
 20
-169.4978
 10
553.9401
 20
-169.8772
 10
553.7538
 20
-170.2206
 10
553.5071
 20
-170.5198
 10
553.2081
 20
-170.7666
 10
552.8649
 20
-170.953
 10
552.4857
 20
-171.0708
 10
552.0785
 20
-171.1119
 10
551.6713
 20
-171.0708
 10
551.292
 20
-170.953
 10
550.9487
 20
-170.7666
 10
550.6495
 20
-170.5198
 10
550.4026
 20
-170.2206
 10
550.2162
 20
-169.8772
 10
550.0984
 20
-169.4978
 10
550.0573
 20
-169.0904
 10
550.0984
 20
-168.683
 10
550.2162
 20
-168.3035
 10
550.4026
 20
-167.9601
 10
550.6495
 20
-167.6609
 10
550.9487
 20
-167.4141
 10
551.292
 20
-167.2277
 10
551.6713
 20
-167.1099
 10
552.0785
 20
-167.0688
  0
LWPOLYLINE
  5
BC
330
1F
100
AcDbEntity
  8
Layer 1
 62
     7
370
    25
100
AcDbPolyline
 90
       33
 70
     1
 43
0.0
 10
579.9205
 20
-167.0688
 10
580.3277
 20
-167.1099
 10
580.707
 20
-167.2277
 10
581.0503
 20
-167.4141
 10
581.3495
 20
-167.6609
 10
581.5964
 20
-167.9601
 10
581.7828
 20
-168.3035
 10
581.9006
 20
-168.683
 10
581.9417
 20
-169.0904
 10
581.9006
 20
-169.4978
 10
581.7828
 20
-169.8772
 10
581.5964
 20
-170.2206
 10
581.3495
 20
-170.5198
 10
581.0503
 20
-170.7666
 10
580.707
 20
-170.953
 10
580.3277
 20
-171.0708
 10
579.9205
 20
-171.1119
 10
579.5133
 20
-171.0708
 10
579.1341
 20
-170.953
 10
578.7909
 20
-170.7666
 10
578.4919
 20
-170.5198
 10
578.2452
 20
-170.2206
 10
578.0589
 20
-169.8772
 10
577.9411
 20
-169.4978
 10
577.9001
 20
-169.0904
 10
577.9411
 20
-168.683
 10
578.0589
 20
-168.3035
 10
578.2452
 20
-167.9601
 10
578.4919
 20
-167.6609
 10
578.7909
 20
-167.4141
 10
579.1341
 20
-167.2277
 10
579.5133
 20
-167.1099
 10
579.9205
 20
-167.0688
  0
LWPOLYLINE
  5
BD
330
1F
100
AcDbEntity
  8
Layer 1
 62
     7
370
    25
100
AcDbPolyline
 90
       33
 70
     1
 43
0.0
 10
607.7632
 20
-167.0688
 10
608.1703
 20
-167.1099
 10
608.5496
 20
-167.2277
 10
608.8928
 20
-167.4141
 10
609.1918
 20
-167.6609
 10
609.4385
 20
-167.9601
 10
609.6248
 20
-168.3035
 10
609.7425
 20
-168.683
 10
609.7836
 20
-169.0904
 10
609.7425
 20
-169.4978
 10
609.6248
 20
-169.8772
 10
609.4385
 20
-170.2206
 10
609.1918
 20
-170.5198
 10
608.8928
 20
-170.7666
 10
608.5496
 20
-170.953
 10
608.1703
 20
-171.0708
 10
607.7632
 20
-171.1119
 10
607.3561
 20
-171.0708
 10
606.9768
 20
-170.953
 10
606.6336
 20
-170.7666
 10
606.3346
 20
-170.5198
 10
606.0879
 20
-170.2206
 10
605.9016
 20
-169.8772
 10
605.7839
 20
-169.4978
 10
605.7428
 20
-169.0904
 10
605.7839
 20
-168.683
 10
605.9016
 20
-168.3035
 10
606.0879
 20
-167.9601
 10
606.3346
 20
-167.6609
 10
606.6336
 20
-167.4141
 10
606.9768
 20
-167.2277
 10
607.3561
 20
-167.1099
 10
607.7632
 20
-167.0688
  0
LWPOLYLINE
  5
BE
330
1F
100
AcDbEntity
  8
Layer 1
 62
     7
370
    25
100
AcDbPolyline
 90
       33
 70
     1
 43
0.0
 10
635.606
 20
-167.0688
 10
636.0131
 20
-167.1099
 10
636.3924
 20
-167.2277
 10
636.7355
 20
-167.4141
 10
637.0345
 20
-167.6609
 10
637.2812
 20
-167.9601
 10
637.4675
 20
-168.3035
 10
637.5853
 20
-168.683
 10
637.6263
 20
-169.0904
 10
637.5853
 20
-169.4978
 10
637.4675
 20
-169.8772
 10
637.2812
 20
-170.2206
 10
637.0345
 20
-170.5198
 10
636.7355
 20
-170.7666
 10
636.3924
 20
-170.953
 10
636.0131
 20
-171.0708
 10
635.606
 20
-171.1119
 10
635.1988
 20
-171.0708
 10
634.8196
 20
-170.953
 10
634.4764
 20
-170.7666
 10
634.1774
 20
-170.5198
 10
633.9307
 20
-170.2206
 10
633.7444
 20
-169.8772
 10
633.6266
 20
-169.4978
 10
633.5856
 20
-169.0904
 10
633.6266
 20
-168.683
 10
633.7444
 20
-168.3035
 10
633.9307
 20
-167.9601
 10
634.1774
 20
-167.6609
 10
634.4764
 20
-167.4141
 10
634.8196
 20
-167.2277
 10
635.1988
 20
-167.1099
 10
635.606
 20
-167.0688
  0
LWPOLYLINE
  5
BF
330
1F
100
AcDbEntity
  8
Layer 1
 62
     7
370
    25
100
AcDbPolyline
 90
       33
 70
     1
 43
0.0
 10
663.4487
 20
-167.0688
 10
663.8558
 20
-167.1099
 10
664.2351
 20
-167.2277
 10
664.5783
 20
-167.4141
 10
664.8773
 20
-167.6609
 10
665.124
 20
-167.9601
 10
665.3103
 20
-168.3035
 10
665.428
 20
-168.683
 10
665.4691
 20
-169.0904
 10
665.428
 20
-169.4978
 10
665.3103
 20
-169.8772
 10
665.124
 20
-170.2206
 10
664.8773
 20
-170.5198
 10
664.5783
 20
-170.7666
 10
664.2351
 20
-170.953
 10
663.8558
 20
-171.0708
 10
663.4487
 20
-171.1119
 10
663.0416
 20
-171.0708
 10
662.6623
 20
-170.953
 10
662.3192
 20
-170.7666
 10
662.0202
 20
-170.5198
 10
661.7735
 20
-170.2206
 10
661.5872
 20
-169.8772
 10
661.4694
 20
-169.4978
 10
661.4284
 20
-169.0904
 10
661.4694
 20
-168.683
 10
661.5872
 20
-168.3035
 10
661.7735
 20
-167.9601
 10
662.0202
 20
-167.6609
 10
662.3192
 20
-167.4141
 10
662.6623
 20
-167.2277
 10
663.0416
 20
-167.1099
 10
663.4487
 20
-167.0688
  0
LWPOLYLINE
  5
C0
330
1F
100
AcDbEntity
  8
Layer 1
 62
     7
370
    25
100
AcDbPolyline
 90
       33
 70
     1
 43
0.0
 10
691.2915
 20
-167.0688
 10
691.6986
 20
-167.1099
 10
692.0779
 20
-167.2277
 10
692.421
 20
-167.4141
 10
692.72
 20
-167.6609
 10
692.9667
 20
-167.9601
 10
693.153
 20
-168.3035
 10
693.2708
 20
-168.683
 10
693.3118
 20
-169.0904
 10
693.2708
 20
-169.4978
 10
693.153
 20
-169.8772
 10
692.9667
 20
-170.2206
 10
692.72
 20
-170.5198
 10
692.421
 20
-170.7666
 10
692.0779
 20
-170.953
 10
691.6986
 20
-171.0708
 10
691.2915
 20
-171.1119
 10
690.8843
 20
-171.0708
 10
690.5051
 20
-170.953
 10
690.1619
 20
-170.7666
 10
689.8629
 20
-170.5198
 10
689.6162
 20
-170.2206
 10
689.4299
 20
-169.8772
 10
689.3121
 20
-169.4978
 10
689.2711
 20
-169.0904
 10
689.3121
 20
-168.683
 10
689.4299
 20
-168.3035
 10
689.6162
 20
-167.9601
 10
689.8629
 20
-167.6609
 10
690.1619
 20
-167.4141
 10
690.5051
 20
-167.2277
 10
690.8843
 20
-167.1099
 10
691.2915
 20
-167.0688
  0
LWPOLYLINE
  5
C1
330
1F
100
AcDbEntity
  8
Layer 1
 62
     7
370
    25
100
AcDbPolyline
 90
       16
 70
     1
 43
0.0
 10
672.0943
 20
-144.0894
 10
671.212
 20
-147.7913
 10
669.1581
 20
-150.6548
 10
665.9271
 20
-152.3529
 10
662.4196
 20
-152.64
 10
658.8957
 20
-151.4932
 10
656.2714
 20
-149.2226
 10
654.8015
 20
-146.0746
 10
654.8015
 20
-142.3727
 10
656.2714
 20
-139.2434
 10
658.8957
 20
-136.9515
 10
662.4196
 20
-135.826
 10
665.9271
 20
-136.0945
 10
669.1581
 20
-137.8112
 10
671.212
 20
-140.672
 10
672.0943
 20
-144.0894
  0
LWPOLYLINE
  5
C2
330
1F
100
AcDbEntity
  8
Layer 1
 62
     7
370
    25
100
AcDbPolyline
 90
       16
 70
     1
 43
0.0
 10
672.0943
 20
29.6308
 10
671.212
 20
26.1983
 10
669.1581
 20
23.3525
 10
665.9271
 20
21.6367
 10
662.4196
 20
21.3487
 10
658.8957
 20
22.4929
 10
656.2714
 20
24.7847
 10
654.8015
 20
27.915
 10
654.8015
 20
31.616
 10
656.2714
 20
34.7649
 10
658.8957
 20
37.0346
 10
662.4196
 20
38.1823
 10
665.9271
 20
37.8943
 10
669.1581
 20
36.1776
 10
671.212
 20
33.3327
 10
672.0943
 20
29.6308
  0
LWPOLYLINE
  5
C3
330
1F
100
AcDbEntity
  8
Layer 1
 62
     7
370
    25
100
AcDbPolyline
 90
       16
 70
     1
 43
0.0
 10
477.197
 20
-144.0894
 10
476.6093
 20
-147.7913
 10
474.2607
 20
-150.6548
 10
471.3408
 20
-152.3529
 10
467.5222
 20
-152.64
 10
464.0147
 20
-151.4932
 10
461.3741
 20
-149.2226
 10
459.9041
 20
-146.0746
 10
459.9041
 20
-142.3727
 10
461.3741
 20
-139.2434
 10
464.0147
 20
-136.9515
 10
467.5222
 20
-135.826
 10
471.3408
 20
-136.0945
 10
474.2607
 20
-137.8112
 10
476.6093
 20
-140.672
 10
477.197
 20
-144.0894
  0
LWPOLYLINE
  5
C4
330
1F
100
AcDbEntity
  8
Layer 1
 62
     7
370
    25
100
AcDbPolyline
 90
       16
 70
     1
 43
0.0
 10
477.197
 20
29.6308
 10
476.6093
 20
26.1983
 10
474.2607
 20
23.3525
 10
471.3408
 20
21.6367
 10
467.5222
 20
21.3487
 10
464.0147
 20
22.4929
 10
461.3741
 20
24.7847
 10
459.9041
 20
27.915
 10
459.9041
 20
31.616
 10
461.3741
 20
34.7649
 10
464.0147
 20
37.0346
 10
467.5222
 20
38.1823
 10
471.3408
 20
37.8943
 10
474.2607
 20
36.1776
 10
476.6093
 20
33.3327
 10
477.197
 20
29.6308
  0
LWPOLYLINE
  5
C5
330
1F
100
AcDbEntity
  8
Layer 1
 62
   250
100
AcDbPolyline
 90
        9
 70
     1
 43
0.0
 10
393.7226
 20
140.1811
 10
393.7226
 20
174.6754
 10
397.4989
 20
174.6754
 10
397.4989
 20
159.2683
 10
460.2901
 20
159.2683
 10
460.2901
 20
155.5889
 10
397.4989
 20
155.5889
 10
397.4989
 20
140.1811
 10
393.7226
 20
140.1811
  0
LWPOLYLINE
  5
C6
330
1F
100
AcDbEntity
  8
Layer 1
 62
   250
100
AcDbPolyline
 90
        4
 70
     1
 43
0.0
 10
526.0886
 20
168.1909
 10
526.0886
 20
155.9361
 10
517.7685
 20
155.9361
 10
526.0886
 20
168.1909
  0
LWPOLYLINE
  5
C7
330
1F
100
AcDbEntity
  8
Layer 1
 62
   250
100
AcDbPolyline
 90
       11
 70
     1
 43
0.0
 10
528.4248
 20
153.691
 10
531.1772
 20
153.691
 10
531.1772
 20
155.9361
 10
528.4248
 20
155.9361
 10
528.3929
 20
170.5593
 10
525.2569
 20
170.5593
 10
513.7998
 20
153.691
 10
526.0886
 20
153.691
 10
526.0886
 20
149.3566
 10
528.4248
 20
149.3566
 10
528.4248
 20
153.691
  0
LWPOLYLINE
  5
C8
330
1F
100
AcDbEntity
  8
Layer 1
 62
   250
100
AcDbPolyline
 90
      129
 70
     1
 43
0.0
 10
543.3873
 20
168.0971
 10
543.7568
 20
167.8525
 10
544.1013
 20
167.5748
 10
544.4208
 20
167.264
 10
544.7153
 20
166.9201
 10
544.9848
 20
166.543
 10
545.2292
 20
166.1327
 10
545.4486
 20
165.6894
 10
545.643
 20
165.2129
 10
545.8606
 20
164.5806
 10
546.0492
 20
163.9392
 10
546.2087
 20
163.2884
 10
546.3392
 20
162.6285
 10
546.4407
 20
161.9593
 10
546.5131
 20
161.2808
 10
546.5566
 20
160.593
 10
546.5711
 20
159.8959
 10
546.5696
 20
159.7285
 10
546.5651
 20
159.5539
 10
546.5577
 20
159.372
 10
546.5472
 20
159.1828
 10
546.5338
 20
158.9862
 10
546.5174
 20
158.7824
 10
546.498
 20
158.5712
 10
546.4756
 20
158.3527
 10
546.3644
 20
157.5144
 10
546.2193
 20
156.7224
 10
546.0402
 20
155.9767
 10
545.8272
 20
155.2773
 10
545.5802
 20
154.6243
 10
545.2993
 20
154.0175
 10
544.9843
 20
153.4569
 10
544.6354
 20
152.9426
 10
544.3168
 20
152.5553
 10
543.9812
 20
152.2196
 10
543.6286
 20
151.9356
 10
543.259
 20
151.7032
 10
542.8724
 20
151.5224
 10
542.4688
 20
151.3933
 10
542.0482
 20
151.3158
 10
541.6107
 20
151.29
 10
541.1224
 20
151.3156
 10
540.6575
 20
151.3924
 10
540.2162
 20
151.5203
 10
539.7984
 20
151.6994
 10
539.4041
 20
151.9296
 10
539.0333
 20
152.211
 10
538.6861
 20
152.5435
 10
538.3624
 20
152.9271
 10
538.2253
 20
153.1131
 10
538.0943
 20
153.3049
 10
537.9693
 20
153.5027
 10
537.8503
 20
153.7063
 10
537.7373
 20
153.9158
 10
537.6303
 20
154.1313
 10
537.5293
 20
154.3526
 10
537.4343
 20
154.5798
 10
537.345
 20
154.8104
 10
537.2612
 20
155.0425
 10
537.1829
 20
155.2761
 10
537.1102
 20
155.5112
 10
537.0428
 20
155.7477
 10
536.981
 20
155.9857
 10
536.9247
 20
156.225
 10
536.8739
 20
156.4658
 10
536.8276
 20
156.7066
 10
536.7849
 20
156.9454
 10
536.7456
 20
157.1822
 10
536.7099
 20
157.4171
 10
536.6776
 20
157.65
 10
536.6488
 20
157.8809
 10
536.6235
 20
158.11
 10
536.6017
 20
158.3371
 10
536.5831
 20
158.5676
 10
536.567
 20
158.8068
 10
536.5533
 20
159.0546
 10
536.5421
 20
159.311
 10
536.5334
 20
159.5758
 10
536.5271
 20
159.8491
 10
536.5234
 20
160.1307
 10
536.5221
 20
160.4207
 10
536.5276
 20
160.7239
 10
536.5441
 20
161.0446
 10
536.5716
 20
161.383
 10
536.6101
 20
161.7391
 10
536.6595
 20
162.113
 10
536.72
 20
162.5046
 10
536.7915
 20
162.9142
 10
536.8739
 20
163.3416
 10
536.9245
 20
163.5792
 10
536.9801
 20
163.8162
 10
537.0407
 20
164.0529
 10
537.1063
 20
164.289
 10
537.1768
 20
164.5246
 10
537.2524
 20
164.7597
 10
537.3329
 20
164.9943
 10
537.4184
 20
165.2284
 10
537.5096
 20
165.4593
 10
537.6073
 20
165.6844
 10
537.7116
 20
165.9036
 10
537.8223
 20
166.1171
 10
537.9396
 20
166.3246
 10
538.0634
 20
166.5263
 10
538.1938
 20
166.7221
 10
538.3306
 20
166.9121
 10
538.4739
 20
167.0945
 10
538.6243
 20
167.2677
 10
538.7817
 20
167.4316
 10
538.9461
 20
167.5864
 10
539.1176
 20
167.7319
 10
539.2961
 20
167.8681
 10
539.4816
 20
167.995
 10
539.6741
 20
168.1126
 10
539.8749
 20
168.2185
 10
540.0845
 20
168.3103
 10
540.3031
 20
168.388
 10
540.5307
 20
168.4516
 10
540.7672
 20
168.501
 10
541.0128
 20
168.5364
 10
541.2674
 20
168.5576
 10
541.5311
 20
168.5647
 10
541.7946
 20
168.5574
 10
542.0491
 20
168.5355
 10
542.2946
 20
168.4989
 10
542.5311
 20
168.4478
 10
542.7587
 20
168.382
 10
542.9772
 20
168.3017
 10
543.1868
 20
168.2067
 10
543.3873
 20
168.0971
  0
LWPOLYLINE
  5
C9
330
1F
100
AcDbEntity
  8
Layer 1
 62
   250
100
AcDbPolyline
 90
       65
 70
     1
 43
0.0
 10
541.6425
 20
149.0759
 10
542.577
 20
149.1336
 10
543.452
 20
149.3068
 10
544.2674
 20
149.5955
 10
545.0232
 20
149.9996
 10
545.7195
 20
150.5193
 10
546.3563
 20
151.1544
 10
546.9336
 20
151.905
 10
547.4515
 20
152.7712
 10
547.8152
 20
153.5269
 10
548.1304
 20
154.3245
 10
548.3972
 20
155.164
 10
548.6155
 20
156.0454
 10
548.7853
 20
156.9686
 10
548.9066
 20
157.9338
 10
548.9793
 20
158.9408
 10
549.0036
 20
159.9898
 10
548.9793
 20
161.0388
 10
548.9066
 20
162.0458
 10
548.7853
 20
163.0109
 10
548.6155
 20
163.9342
 10
548.3972
 20
164.8155
 10
548.1304
 20
165.655
 10
547.8152
 20
166.4526
 10
547.4515
 20
167.2083
 10
546.9336
 20
168.0742
 10
546.3563
 20
168.8247
 10
545.7195
 20
169.4597
 10
545.0232
 20
169.9792
 10
544.2674
 20
170.3833
 10
543.452
 20
170.672
 10
542.577
 20
170.8452
 10
541.6425
 20
170.9029
 10
540.7082
 20
170.8452
 10
539.8334
 20
170.672
 10
539.0181
 20
170.3833
 10
538.2622
 20
169.9792
 10
537.5658
 20
169.4597
 10
536.9289
 20
168.8247
 10
536.3515
 20
168.0742
 10
535.8336
 20
167.2083
 10
535.4699
 20
166.4526
 10
535.1547
 20
165.655
 10
534.8879
 20
164.8155
 10
534.6696
 20
163.9342
 10
534.4998
 20
163.0109
 10
534.3785
 20
162.0458
 10
534.3058
 20
161.0388
 10
534.2815
 20
159.9898
 10
534.3058
 20
158.9408
 10
534.3785
 20
157.9338
 10
534.4998
 20
156.9686
 10
534.6696
 20
156.0454
 10
534.8879
 20
155.164
 10
535.1547
 20
154.3245
 10
535.4699
 20
153.5269
 10
535.8336
 20
152.7712
 10
536.3515
 20
151.905
 10
536.9289
 20
151.1544
 10
537.5658
 20
150.5193
 10
538.2622
 20
149.9996
 10
539.0181
 20
149.5955
 10
539.8334
 20
149.3068
 10
540.7082
 20
149.1336
 10
541.6425
 20
149.0759
  0
LWPOLYLINE
  5
CA
330
1F
100
AcDbEntity
  8
Layer 1
 62
   250
100
AcDbPolyline
 90
      129
 70
     1
 43
0.0
 10
561.3092
 20
168.0971
 10
561.6787
 20
167.8525
 10
562.0232
 20
167.5748
 10
562.3427
 20
167.264
 10
562.6372
 20
166.9201
 10
562.9066
 20
166.543
 10
563.1511
 20
166.1327
 10
563.3705
 20
165.6894
 10
563.5649
 20
165.2129
 10
563.7825
 20
164.5806
 10
563.9709
 20
163.9392
 10
564.1303
 20
163.2884
 10
564.2607
 20
162.6285
 10
564.362
 20
161.9593
 10
564.4344
 20
161.2808
 10
564.4777
 20
160.593
 10
564.4922
 20
159.8959
 10
564.4907
 20
159.7285
 10
564.4862
 20
159.5539
 10
564.4788
 20
159.372
 10
564.4684
 20
159.1828
 10
564.4551
 20
158.9862
 10
564.4388
 20
158.7824
 10
564.4196
 20
158.5712
 10
564.3975
 20
158.3527
 10
564.2863
 20
157.5144
 10
564.1412
 20
156.7224
 10
563.9621
 20
155.9767
 10
563.7491
 20
155.2773
 10
563.5021
 20
154.6243
 10
563.2212
 20
154.0175
 10
562.9062
 20
153.4569
 10
562.5573
 20
152.9426
 10
562.2387
 20
152.5553
 10
561.9031
 20
152.2196
 10
561.5505
 20
151.9356
 10
561.1809
 20
151.7032
 10
560.7943
 20
151.5224
 10
560.3907
 20
151.3933
 10
559.9701
 20
151.3158
 10
559.5326
 20
151.29
 10
559.0443
 20
151.3156
 10
558.5794
 20
151.3924
 10
558.1381
 20
151.5203
 10
557.7203
 20
151.6994
 10
557.326
 20
151.9296
 10
556.9552
 20
152.211
 10
556.608
 20
152.5435
 10
556.2843
 20
152.9271
 10
556.1472
 20
153.1131
 10
556.0162
 20
153.3049
 10
555.8912
 20
153.5027
 10
555.7722
 20
153.7063
 10
555.6592
 20
153.9158
 10
555.5522
 20
154.1313
 10
555.4512
 20
154.3526
 10
555.3562
 20
154.5798
 10
555.2669
 20
154.8104
 10
555.1831
 20
155.0425
 10
555.1048
 20
155.2761
 10
555.0321
 20
155.5112
 10
554.9647
 20
155.7477
 10
554.9029
 20
155.9857
 10
554.8466
 20
156.225
 10
554.7958
 20
156.4658
 10
554.7495
 20
156.7066
 10
554.7067
 20
156.9454
 10
554.6675
 20
157.1822
 10
554.6317
 20
157.4171
 10
554.5995
 20
157.65
 10
554.5707
 20
157.8809
 10
554.5454
 20
158.11
 10
554.5236
 20
158.3371
 10
554.505
 20
158.5676
 10
554.4889
 20
158.8068
 10
554.4752
 20
159.0546
 10
554.464
 20
159.311
 10
554.4553
 20
159.5758
 10
554.449
 20
159.8491
 10
554.4453
 20
160.1307
 10
554.444
 20
160.4207
 10
554.4495
 20
160.7239
 10
554.466
 20
161.0446
 10
554.4935
 20
161.383
 10
554.532
 20
161.7391
 10
554.5814
 20
162.113
 10
554.6419
 20
162.5046
 10
554.7134
 20
162.9142
 10
554.7958
 20
163.3416
 10
554.8464
 20
163.5792
 10
554.902
 20
163.8162
 10
554.9626
 20
164.0529
 10
555.0282
 20
164.289
 10
555.0987
 20
164.5246
 10
555.1743
 20
164.7597
 10
555.2548
 20
164.9943
 10
555.3403
 20
165.2284
 10
555.4315
 20
165.4593
 10
555.5292
 20
165.6844
 10
555.6335
 20
165.9036
 10
555.7442
 20
166.1171
 10
555.8615
 20
166.3246
 10
555.9853
 20
166.5263
 10
556.1156
 20
166.7221
 10
556.2524
 20
166.9121
 10
556.3957
 20
167.0945
 10
556.5461
 20
167.2677
 10
556.7035
 20
167.4316
 10
556.868
 20
167.5864
 10
557.0395
 20
167.7319
 10
557.218
 20
167.8681
 10
557.4035
 20
167.995
 10
557.596
 20
168.1126
 10
557.7968
 20
168.2185
 10
558.0064
 20
168.3103
 10
558.225
 20
168.388
 10
558.4526
 20
168.4516
 10
558.6891
 20
168.501
 10
558.9347
 20
168.5364
 10
559.1893
 20
168.5576
 10
559.453
 20
168.5647
 10
559.7165
 20
168.5574
 10
559.971
 20
168.5355
 10
560.2165
 20
168.4989
 10
560.453
 20
168.4478
 10
560.6806
 20
168.382
 10
560.8991
 20
168.3017
 10
561.1087
 20
168.2067
 10
561.3092
 20
168.0971
  0
LWPOLYLINE
  5
CB
330
1F
100
AcDbEntity
  8
Layer 1
 62
   250
100
AcDbPolyline
 90
       65
 70
     1
 43
0.0
 10
559.5644
 20
149.0759
 10
560.4989
 20
149.1336
 10
561.3738
 20
149.3068
 10
562.1892
 20
149.5955
 10
562.945
 20
149.9996
 10
563.6412
 20
150.5193
 10
564.2778
 20
151.1544
 10
564.8549
 20
151.905
 10
565.3725
 20
152.7712
 10
565.7362
 20
153.5269
 10
566.0515
 20
154.3245
 10
566.3182
 20
155.164
 10
566.5365
 20
156.0454
 10
566.7063
 20
156.9686
 10
566.8276
 20
157.9338
 10
566.9004
 20
158.9408
 10
566.9247
 20
159.9898
 10
566.9004
 20
161.0388
 10
566.8276
 20
162.0458
 10
566.7063
 20
163.0109
 10
566.5365
 20
163.9342
 10
566.3182
 20
164.8155
 10
566.0515
 20
165.655
 10
565.7362
 20
166.4526
 10
565.3725
 20
167.2083
 10
564.8549
 20
168.0742
 10
564.2778
 20
168.8247
 10
563.6412
 20
169.4597
 10
562.945
 20
169.9792
 10
562.1892
 20
170.3833
 10
561.3738
 20
170.672
 10
560.4989
 20
170.8452
 10
559.5644
 20
170.9029
 10
558.6301
 20
170.8452
 10
557.7553
 20
170.672
 10
556.9399
 20
170.3833
 10
556.184
 20
169.9792
 10
555.4876
 20
169.4597
 10
554.8507
 20
168.8247
 10
554.2734
 20
168.0742
 10
553.7555
 20
167.2083
 10
553.3918
 20
166.4526
 10
553.0765
 20
165.655
 10
552.8098
 20
164.8155
 10
552.5915
 20
163.9342
 10
552.4217
 20
163.0109
 10
552.3004
 20
162.0458
 10
552.2276
 20
161.0388
 10
552.2033
 20
159.9898
 10
552.2276
 20
158.9408
 10
552.3004
 20
157.9338
 10
552.4217
 20
156.9686
 10
552.5915
 20
156.0454
 10
552.8098
 20
155.164
 10
553.0765
 20
154.3245
 10
553.3918
 20
153.5269
 10
553.7555
 20
152.7712
 10
554.2734
 20
151.905
 10
554.8507
 20
151.1544
 10
555.4876
 20
150.5193
 10
556.184
 20
149.9996
 10
556.9399
 20
149.5955
 10
557.7553
 20
149.3068
 10
558.6301
 20
149.1336
 10
559.5644
 20
149.0759
  0
LWPOLYLINE
  5
CC
330
1F
100
AcDbEntity
  8
Layer 1
 62
   250
100
AcDbPolyline
 90
      165
 70
     1
 43
0.0
 10
588.7834
 20
149.4187
 10
591.0232
 20
149.4187
 10
591.0232
 20
157.9944
 10
591.0049
 20
158.5637
 10
590.9502
 20
159.1061
 10
590.8589
 20
159.6218
 10
590.7312
 20
160.1106
 10
590.567
 20
160.5726
 10
590.3663
 20
161.0079
 10
590.1292
 20
161.4165
 10
589.8556
 20
161.7983
 10
589.7026
 20
161.9807
 10
589.5402
 20
162.1539
 10
589.3683
 20
162.3178
 10
589.187
 20
162.4726
 10
588.9963
 20
162.6181
 10
588.796
 20
162.7543
 10
588.5863
 20
162.8812
 10
588.3671
 20
162.9988
 10
588.1341
 20
163.1047
 10
587.8831
 20
163.1965
 10
587.614
 20
163.2742
 10
587.327
 20
163.3378
 10
587.0219
 20
163.3872
 10
586.6989
 20
163.4226
 10
586.358
 20
163.4438
 10
585.9991
 20
163.4509
 10
585.6367
 20
163.4387
 10
585.2859
 20
163.4022
 10
584.9466
 20
163.3414
 10
584.6188
 20
163.2562
 10
584.3025
 20
163.1466
 10
583.9978
 20
163.0126
 10
583.7044
 20
162.8543
 10
583.4226
 20
162.6715
 10
583.178
 20
162.4893
 10
582.9445
 20
162.2936
 10
582.7219
 20
162.0844
 10
582.5104
 20
161.862
 10
582.3098
 20
161.6263
 10
582.1202
 20
161.3777
 10
581.9417
 20
161.1161
 10
581.7741
 20
160.8418
 10
581.6442
 20
161.0952
 10
581.5022
 20
161.3396
 10
581.348
 20
161.5742
 10
581.1819
 20
161.7983
 10
581.0292
 20
161.9807
 10
580.867
 20
162.1539
 10
580.6953
 20
162.3178
 10
580.5141
 20
162.4726
 10
580.3234
 20
162.6181
 10
580.1232
 20
162.7543
 10
579.9135
 20
162.8812
 10
579.6943
 20
162.9988
 10
579.4611
 20
163.1047
 10
579.2099
 20
163.1965
 10
578.9408
 20
163.2742
 10
578.6538
 20
163.3378
 10
578.3487
 20
163.3872
 10
578.0257
 20
163.4226
 10
577.6846
 20
163.4438
 10
577.3255
 20
163.4509
 10
576.9631
 20
163.4387
 10
576.6123
 20
163.4022
 10
576.273
 20
163.3414
 10
575.9452
 20
163.2562
 10
575.6289
 20
163.1466
 10
575.3241
 20
163.0126
 10
575.0307
 20
162.8543
 10
574.7489
 20
162.6715
 10
574.5161
 20
162.498
 10
574.2932
 20
162.3127
 10
574.0802
 20
162.1157
 10
573.8772
 20
161.9068
 10
573.6841
 20
161.686
 10
573.5011
 20
161.4532
 10
573.328
 20
161.2083
 10
573.165
 20
160.9512
 10
573.165
 20
163.1392
 10
570.9252
 20
163.1392
 10
570.9252
 20
149.4187
 10
573.165
 20
149.4187
 10
573.165
 20
156.4405
 10
573.217
 20
156.8493
 10
573.285
 20
157.2423
 10
573.369
 20
157.6195
 10
573.4691
 20
157.981
 10
573.5851
 20
158.3269
 10
573.7172
 20
158.6574
 10
573.8653
 20
158.9725
 10
574.0294
 20
159.2724
 10
574.1628
 20
159.4858
 10
574.3072
 20
159.6894
 10
574.4627
 20
159.8833
 10
574.6293
 20
160.0675
 10
574.8068
 20
160.242
 10
574.9954
 20
160.4067
 10
575.195
 20
160.5618
 10
575.4056
 20
160.7071
 10
575.6235
 20
160.8385
 10
575.8454
 20
160.9524
 10
576.0713
 20
161.0488
 10
576.3014
 20
161.1276
 10
576.5354
 20
161.189
 10
576.7735
 20
161.2328
 10
577.0157
 20
161.259
 10
577.2618
 20
161.2678
 10
577.5017
 20
161.2632
 10
577.7256
 20
161.2493
 10
577.9335
 20
161.2262
 10
578.1255
 20
161.1938
 10
578.3015
 20
161.1521
 10
578.4615
 20
161.1012
 10
578.6055
 20
161.041
 10
578.7335
 20
160.9716
 10
579.0562
 20
160.7392
 10
579.3359
 20
160.4669
 10
579.5724
 20
160.1547
 10
579.7659
 20
159.8025
 10
579.9164
 20
159.4104
 10
580.0239
 20
158.9783
 10
580.0883
 20
158.5063
 10
580.1098
 20
157.9944
 10
580.1098
 20
149.4187
 10
582.3504
 20
149.4187
 10
582.3504
 20
157.9944
 10
582.3345
 20
158.5191
 10
582.4174
 20
158.718
 10
582.5064
 20
158.9096
 10
582.6014
 20
159.0942
 10
582.7022
 20
159.2724
 10
582.8358
 20
159.4858
 10
582.9804
 20
159.6894
 10
583.1359
 20
159.8833
 10
583.3024
 20
160.0675
 10
583.4799
 20
160.242
 10
583.6684
 20
160.4067
 10
583.8679
 20
160.5618
 10
584.0784
 20
160.7071
 10
584.2965
 20
160.8385
 10
584.5186
 20
160.9524
 10
584.7447
 20
161.0488
 10
584.9748
 20
161.1276
 10
585.2088
 20
161.189
 10
585.4468
 20
161.2328
 10
585.6887
 20
161.259
 10
585.9346
 20
161.2678
 10
586.1747
 20
161.2632
 10
586.3988
 20
161.2493
 10
586.607
 20
161.2262
 10
586.799
 20
161.1938
 10
586.9751
 20
161.1521
 10
587.1352
 20
161.1012
 10
587.2792
 20
161.041
 10
587.4072
 20
160.9716
 10
587.7297
 20
160.7392
 10
588.0092
 20
160.4669
 10
588.2457
 20
160.1547
 10
588.4393
 20
159.8025
 10
588.5898
 20
159.4104
 10
588.6974
 20
158.9783
 10
588.7619
 20
158.5063
 10
588.7834
 20
157.9944
 10
588.7834
 20
149.4187
  0
LWPOLYLINE
  5
CD
330
1F
100
AcDbEntity
  8
Layer 1
 62
   250
100
AcDbPolyline
 90
      165
 70
     1
 43
0.0
 10
613.2019
 20
149.4187
 10
615.4417
 20
149.4187
 10
615.4417
 20
157.9944
 10
615.4234
 20
158.5637
 10
615.3687
 20
159.1061
 10
615.2774
 20
159.6218
 10
615.1497
 20
160.1106
 10
614.9855
 20
160.5726
 10
614.7848
 20
161.0079
 10
614.5477
 20
161.4165
 10
614.2741
 20
161.7983
 10
614.1211
 20
161.9807
 10
613.9587
 20
162.1539
 10
613.7869
 20
162.3178
 10
613.6056
 20
162.4726
 10
613.4148
 20
162.6181
 10
613.2146
 20
162.7543
 10
613.0048
 20
162.8812
 10
612.7856
 20
162.9988
 10
612.5526
 20
163.1047
 10
612.3016
 20
163.1965
 10
612.0325
 20
163.2742
 10
611.7455
 20
163.3378
 10
611.4404
 20
163.3872
 10
611.1174
 20
163.4226
 10
610.7765
 20
163.4438
 10
610.4176
 20
163.4509
 10
610.0552
 20
163.4387
 10
609.7044
 20
163.4022
 10
609.3651
 20
163.3414
 10
609.0373
 20
163.2562
 10
608.721
 20
163.1466
 10
608.4163
 20
163.0126
 10
608.1229
 20
162.8543
 10
607.8411
 20
162.6715
 10
607.5966
 20
162.4893
 10
607.3631
 20
162.2936
 10
607.1405
 20
162.0844
 10
606.929
 20
161.862
 10
606.7284
 20
161.6263
 10
606.5388
 20
161.3777
 10
606.3603
 20
161.1161
 10
606.1927
 20
160.8418
 10
606.0629
 20
161.0952
 10
605.9212
 20
161.3396
 10
605.7673
 20
161.5742
 10
605.6013
 20
161.7983
 10
605.4486
 20
161.9807
 10
605.2864
 20
162.1539
 10
605.1147
 20
162.3178
 10
604.9335
 20
162.4726
 10
604.7428
 20
162.6181
 10
604.5426
 20
162.7543
 10
604.3329
 20
162.8812
 10
604.1137
 20
162.9988
 10
603.8805
 20
163.1047
 10
603.6293
 20
163.1965
 10
603.3602
 20
163.2742
 10
603.0731
 20
163.3378
 10
602.768
 20
163.3872
 10
602.445
 20
163.4226
 10
602.1039
 20
163.4438
 10
601.7448
 20
163.4509
 10
601.3824
 20
163.4387
 10
601.0316
 20
163.4022
 10
600.6923
 20
163.3414
 10
600.3645
 20
163.2562
 10
600.0482
 20
163.1466
 10
599.7435
 20
163.0126
 10
599.4501
 20
162.8543
 10
599.1683
 20
162.6715
 10
598.9355
 20
162.498
 10
598.7126
 20
162.3127
 10
598.4996
 20
162.1157
 10
598.2966
 20
161.9068
 10
598.1035
 20
161.686
 10
597.9205
 20
161.4532
 10
597.7474
 20
161.2083
 10
597.5844
 20
160.9512
 10
597.5844
 20
163.1392
 10
595.3445
 20
163.1392
 10
595.3445
 20
149.4187
 10
597.5844
 20
149.4187
 10
597.5844
 20
156.4405
 10
597.6364
 20
156.8493
 10
597.7044
 20
157.2423
 10
597.7884
 20
157.6195
 10
597.8884
 20
157.981
 10
598.0045
 20
158.3269
 10
598.1366
 20
158.6574
 10
598.2847
 20
158.9725
 10
598.4488
 20
159.2724
 10
598.5822
 20
159.4858
 10
598.7266
 20
159.6894
 10
598.8821
 20
159.8833
 10
599.0486
 20
160.0675
 10
599.2262
 20
160.242
 10
599.4148
 20
160.4067
 10
599.6144
 20
160.5618
 10
599.825
 20
160.7071
 10
600.0429
 20
160.8385
 10
600.2648
 20
160.9524
 10
600.4907
 20
161.0488
 10
600.7208
 20
161.1276
 10
600.9548
 20
161.189
 10
601.1929
 20
161.2328
 10
601.4351
 20
161.259
 10
601.6812
 20
161.2678
 10
601.9211
 20
161.2632
 10
602.145
 20
161.2493
 10
602.3529
 20
161.2262
 10
602.5449
 20
161.1938
 10
602.7209
 20
161.1521
 10
602.8809
 20
161.1012
 10
603.0249
 20
161.041
 10
603.1529
 20
160.9716
 10
603.4756
 20
160.7392
 10
603.7552
 20
160.4669
 10
603.9918
 20
160.1547
 10
604.1853
 20
159.8025
 10
604.3357
 20
159.4104
 10
604.4432
 20
158.9783
 10
604.5076
 20
158.5063
 10
604.5291
 20
157.9944
 10
604.5291
 20
149.4187
 10
606.7689
 20
149.4187
 10
606.7689
 20
157.9944
 10
606.753
 20
158.5191
 10
606.8359
 20
158.718
 10
606.9249
 20
158.9096
 10
607.0199
 20
159.0942
 10
607.1207
 20
159.2724
 10
607.2543
 20
159.4858
 10
607.3989
 20
159.6894
 10
607.5544
 20
159.8833
 10
607.7209
 20
160.0675
 10
607.8984
 20
160.242
 10
608.0869
 20
160.4067
 10
608.2864
 20
160.5618
 10
608.497
 20
160.7071
 10
608.7151
 20
160.8385
 10
608.9372
 20
160.9524
 10
609.1633
 20
161.0488
 10
609.3934
 20
161.1276
 10
609.6274
 20
161.189
 10
609.8654
 20
161.2328
 10
610.1073
 20
161.259
 10
610.3532
 20
161.2678
 10
610.5933
 20
161.2632
 10
610.8174
 20
161.2493
 10
611.0255
 20
161.2262
 10
611.2176
 20
161.1938
 10
611.3936
 20
161.1521
 10
611.5537
 20
161.1012
 10
611.6977
 20
161.041
 10
611.8257
 20
160.9716
 10
612.1482
 20
160.7392
 10
612.4277
 20
160.4669
 10
612.6642
 20
160.1547
 10
612.8578
 20
159.8025
 10
613.0083
 20
159.4104
 10
613.1159
 20
158.9783
 10
613.1804
 20
158.5063
 10
613.2019
 20
157.9944
 10
613.2019
 20
149.4187
  0
LWPOLYLINE
  5
CE
330
1F
100
AcDbEntity
  8
Layer 1
 62
   250
100
AcDbPolyline
 90
        9
 70
     1
 43
0.0
 10
733.8418
 20
140.1811
 10
733.8418
 20
174.6754
 10
730.0655
 20
174.6754
 10
730.0655
 20
159.2683
 10
667.2743
 20
159.2683
 10
667.2743
 20
155.5889
 10
730.0655
 20
155.5889
 10
730.0655
 20
140.1811
 10
733.8418
 20
140.1811
  0
LWPOLYLINE
  5
CF
330
1F
100
AcDbEntity
  8
Layer 1
 62
   250
100
AcDbPolyline
 90
        4
 70
     1
 43
0.0
 10
781.5609
 20
-19.4582
 10
768.9831
 20
-19.4582
 10
768.9831
 20
-11.351
 10
781.5609
 20
-19.4582
  0
LWPOLYLINE
  5
D0
330
1F
100
AcDbEntity
  8
Layer 1
 62
   250
100
AcDbPolyline
 90
       11
 70
     1
 43
0.0
 10
766.6788
 20
-21.7344
 10
766.6788
 20
-24.4161
 10
768.9831
 20
-24.4161
 10
768.9831
 20
-21.7344
 10
783.9926
 20
-21.7034
 10
783.9926
 20
-18.6478
 10
766.6788
 20
-7.4842
 10
766.6788
 20
-19.4582
 10
762.2302
 20
-19.4582
 10
762.2302
 20
-21.7344
 10
766.6788
 20
-21.7344
  0
LWPOLYLINE
  5
D1
330
1F
100
AcDbEntity
  8
Layer 1
 62
   250
100
AcDbPolyline
 90
      129
 70
     1
 43
0.0
 10
781.4646
 20
-36.3118
 10
781.2136
 20
-36.6718
 10
780.9286
 20
-37.0074
 10
780.6096
 20
-37.3187
 10
780.2566
 20
-37.6057
 10
779.8695
 20
-37.8682
 10
779.4485
 20
-38.1064
 10
778.9935
 20
-38.3202
 10
778.5044
 20
-38.5096
 10
777.8555
 20
-38.7216
 10
777.1971
 20
-38.9053
 10
776.5292
 20
-39.0608
 10
775.8519
 20
-39.1879
 10
775.1651
 20
-39.2868
 10
774.4687
 20
-39.3574
 10
773.7628
 20
-39.3998
 10
773.0473
 20
-39.4139
 10
772.8755
 20
-39.4124
 10
772.6963
 20
-39.4081
 10
772.5096
 20
-39.4008
 10
772.3153
 20
-39.3906
 10
772.1136
 20
-39.3775
 10
771.9044
 20
-39.3615
 10
771.6876
 20
-39.3426
 10
771.4633
 20
-39.3208
 10
770.6029
 20
-39.2125
 10
769.79
 20
-39.0711
 10
769.0247
 20
-38.8966
 10
768.3069
 20
-38.6891
 10
767.6367
 20
-38.4484
 10
767.0139
 20
-38.1747
 10
766.4386
 20
-37.8678
 10
765.9107
 20
-37.5278
 10
765.5132
 20
-37.2174
 10
765.1686
 20
-36.8905
 10
764.8771
 20
-36.5469
 10
764.6386
 20
-36.1868
 10
764.453
 20
-35.8101
 10
764.3205
 20
-35.4169
 10
764.241
 20
-35.0071
 10
764.2145
 20
-34.5808
 10
764.2408
 20
-34.105
 10
764.3196
 20
-33.6522
 10
764.4509
 20
-33.2222
 10
764.6347
 20
-32.8151
 10
764.871
 20
-32.4309
 10
765.1598
 20
-32.0697
 10
765.5011
 20
-31.7314
 10
765.8948
 20
-31.416
 10
766.0857
 20
-31.2824
 10
766.2826
 20
-31.1548
 10
766.4855
 20
-31.033
 10
766.6945
 20
-30.917
 10
766.9096
 20
-30.8069
 10
767.1307
 20
-30.7027
 10
767.3578
 20
-30.6043
 10
767.591
 20
-30.5117
 10
767.8277
 20
-30.4247
 10
768.0659
 20
-30.3431
 10
768.3056
 20
-30.2668
 10
768.5469
 20
-30.1959
 10
768.7897
 20
-30.1303
 10
769.0339
 20
-30.0701
 10
769.2796
 20
-30.0152
 10
769.5267
 20
-29.9657
 10
769.7739
 20
-29.9206
 10
770.019
 20
-29.879
 10
770.262
 20
-29.8407
 10
770.5031
 20
-29.8059
 10
770.7422
 20
-29.7744
 10
770.9792
 20
-29.7464
 10
771.2143
 20
-29.7218
 10
771.4474
 20
-29.7005
 10
771.684
 20
-29.6824
 10
771.9295
 20
-29.6667
 10
772.1838
 20
-29.6534
 10
772.4469
 20
-29.6424
 10
772.7187
 20
-29.6339
 10
772.9992
 20
-29.6278
 10
773.2883
 20
-29.6241
 10
773.5859
 20
-29.6229
 10
773.8971
 20
-29.6283
 10
774.2263
 20
-29.6443
 10
774.5736
 20
-29.6711
 10
774.9391
 20
-29.7086
 10
775.3228
 20
-29.7568
 10
775.7248
 20
-29.8157
 10
776.1451
 20
-29.8854
 10
776.5838
 20
-29.9657
 10
776.8276
 20
-30.015
 10
777.071
 20
-30.0692
 10
777.3138
 20
-30.1282
 10
777.5562
 20
-30.1921
 10
777.798
 20
-30.2609
 10
778.0393
 20
-30.3345
 10
778.2801
 20
-30.4129
 10
778.5204
 20
-30.4962
 10
778.7574
 20
-30.5851
 10
778.9884
 20
-30.6803
 10
779.2134
 20
-30.7819
 10
779.4324
 20
-30.8898
 10
779.6455
 20
-31.004
 10
779.8525
 20
-31.1247
 10
780.0535
 20
-31.2516
 10
780.2484
 20
-31.3849
 10
780.4356
 20
-31.5245
 10
780.6134
 20
-31.6711
 10
780.7817
 20
-31.8244
 10
780.9405
 20
-31.9847
 10
781.0898
 20
-32.1517
 10
781.2296
 20
-32.3257
 10
781.3598
 20
-32.5064
 10
781.4805
 20
-32.694
 10
781.5892
 20
-32.8896
 10
781.6834
 20
-33.0939
 10
781.7632
 20
-33.3069
 10
781.8285
 20
-33.5286
 10
781.8793
 20
-33.7591
 10
781.9156
 20
-33.9983
 10
781.9373
 20
-34.2464
 10
781.9446
 20
-34.5033
 10
781.9371
 20
-34.76
 10
781.9146
 20
-35.008
 10
781.8771
 20
-35.2472
 10
781.8246
 20
-35.4777
 10
781.7571
 20
-35.6994
 10
781.6746
 20
-35.9123
 10
781.5771
 20
-36.1165
 10
781.4646
 20
-36.3118
  0
LWPOLYLINE
  5
D2
330
1F
100
AcDbEntity
  8
Layer 1
 62
   250
100
AcDbPolyline
 90
       65
 70
     1
 43
0.0
 10
761.942
 20
-34.6119
 10
762.0013
 20
-35.5224
 10
762.179
 20
-36.3749
 10
762.4753
 20
-37.1693
 10
762.8901
 20
-37.9057
 10
763.4234
 20
-38.5841
 10
764.0753
 20
-39.2046
 10
764.8458
 20
-39.7671
 10
765.7348
 20
-40.2716
 10
766.5104
 20
-40.626
 10
767.3291
 20
-40.9331
 10
768.1907
 20
-41.193
 10
769.0953
 20
-41.4057
 10
770.0428
 20
-41.5712
 10
771.0334
 20
-41.6893
 10
772.067
 20
-41.7603
 10
773.1436
 20
-41.7839
 10
774.2202
 20
-41.7603
 10
775.2538
 20
-41.6893
 10
776.2444
 20
-41.5712
 10
777.192
 20
-41.4057
 10
778.0966
 20
-41.193
 10
778.9581
 20
-40.9331
 10
779.7768
 20
-40.626
 10
780.5524
 20
-40.2716
 10
781.4414
 20
-39.7671
 10
782.2119
 20
-39.2046
 10
782.8638
 20
-38.5841
 10
783.3971
 20
-37.9057
 10
783.8119
 20
-37.1693
 10
784.1082
 20
-36.3749
 10
784.2859
 20
-35.5224
 10
784.3452
 20
-34.6119
 10
784.2859
 20
-33.7016
 10
784.1082
 20
-32.8492
 10
783.8119
 20
-32.0548
 10
783.3971
 20
-31.3183
 10
782.8638
 20
-30.6398
 10
782.2119
 20
-30.0192
 10
781.4414
 20
-29.4567
 10
780.5524
 20
-28.9521
 10
779.7768
 20
-28.5977
 10
778.9581
 20
-28.2906
 10
778.0966
 20
-28.0307
 10
777.192
 20
-27.818
 10
776.2444
 20
-27.6525
 10
775.2538
 20
-27.5344
 10
774.2202
 20
-27.4634
 10
773.1436
 20
-27.4398
 10
772.067
 20
-27.4634
 10
771.0334
 20
-27.5344
 10
770.0428
 20
-27.6525
 10
769.0953
 20
-27.818
 10
768.1907
 20
-28.0307
 10
767.3291
 20
-28.2906
 10
766.5104
 20
-28.5977
 10
765.7348
 20
-28.9521
 10
764.8458
 20
-29.4567
 10
764.0753
 20
-30.0192
 10
763.4234
 20
-30.6398
 10
762.8901
 20
-31.3183
 10
762.4753
 20
-32.0548
 10
762.179
 20
-32.8492
 10
762.0013
 20
-33.7016
 10
761.942
 20
-34.6119
  0
LWPOLYLINE
  5
D3
330
1F
100
AcDbEntity
  8
Layer 1
 62
   250
100
AcDbPolyline
 90
      129
 70
     1
 43
0.0
 10
781.4646
 20
-53.7734
 10
781.2136
 20
-54.1334
 10
780.9286
 20
-54.469
 10
780.6096
 20
-54.7803
 10
780.2566
 20
-55.0673
 10
779.8695
 20
-55.3298
 10
779.4485
 20
-55.568
 10
778.9935
 20
-55.7818
 10
778.5044
 20
-55.9712
 10
777.8555
 20
-56.1832
 10
777.1971
 20
-56.3669
 10
776.5292
 20
-56.5224
 10
775.8519
 20
-56.6495
 10
775.1651
 20
-56.7484
 10
774.4687
 20
-56.819
 10
773.7628
 20
-56.8614
 10
773.0473
 20
-56.8755
 10
772.8755
 20
-56.874
 10
772.6963
 20
-56.8697
 10
772.5096
 20
-56.8624
 10
772.3153
 20
-56.8522
 10
772.1136
 20
-56.8391
 10
771.9044
 20
-56.8231
 10
771.6876
 20
-56.8042
 10
771.4633
 20
-56.7824
 10
770.6029
 20
-56.6741
 10
769.79
 20
-56.5327
 10
769.0247
 20
-56.3582
 10
768.3069
 20
-56.1507
 10
767.6367
 20
-55.91
 10
767.0139
 20
-55.6363
 10
766.4386
 20
-55.3294
 10
765.9107
 20
-54.9894
 10
765.5132
 20
-54.679
 10
765.1686
 20
-54.3521
 10
764.8771
 20
-54.0085
 10
764.6386
 20
-53.6484
 10
764.453
 20
-53.2717
 10
764.3205
 20
-52.8785
 10
764.241
 20
-52.4687
 10
764.2145
 20
-52.0424
 10
764.2408
 20
-51.5666
 10
764.3196
 20
-51.1137
 10
764.4509
 20
-50.6837
 10
764.6347
 20
-50.2767
 10
764.871
 20
-49.8925
 10
765.1598
 20
-49.5312
 10
765.5011
 20
-49.1929
 10
765.8948
 20
-48.8775
 10
766.0857
 20
-48.7439
 10
766.2826
 20
-48.6163
 10
766.4855
 20
-48.4945
 10
766.6945
 20
-48.3786
 10
766.9096
 20
-48.2685
 10
767.1307
 20
-48.1643
 10
767.3578
 20
-48.0659
 10
767.591
 20
-47.9733
 10
767.8277
 20
-47.8863
 10
768.0659
 20
-47.8047
 10
768.3056
 20
-47.7284
 10
768.5469
 20
-47.6575
 10
768.7897
 20
-47.5919
 10
769.0339
 20
-47.5317
 10
769.2796
 20
-47.4768
 10
769.5267
 20
-47.4273
 10
769.7739
 20
-47.3822
 10
770.019
 20
-47.3405
 10
770.262
 20
-47.3023
 10
770.5031
 20
-47.2674
 10
770.7422
 20
-47.236
 10
770.9792
 20
-47.208
 10
771.2143
 20
-47.1834
 10
771.4474
 20
-47.1621
 10
771.684
 20
-47.144
 10
771.9295
 20
-47.1282
 10
772.1838
 20
-47.1149
 10
772.4469
 20
-47.104
 10
772.7187
 20
-47.0955
 10
772.9992
 20
-47.0894
 10
773.2883
 20
-47.0857
 10
773.5859
 20
-47.0845
 10
773.8971
 20
-47.0899
 10
774.2263
 20
-47.1059
 10
774.5736
 20
-47.1327
 10
774.9391
 20
-47.1702
 10
775.3228
 20
-47.2184
 10
775.7248
 20
-47.2773
 10
776.1451
 20
-47.347
 10
776.5838
 20
-47.4273
 10
776.8276
 20
-47.4766
 10
777.071
 20
-47.5308
 10
777.3138
 20
-47.5898
 10
777.5562
 20
-47.6537
 10
777.798
 20
-47.7225
 10
778.0393
 20
-47.7961
 10
778.2801
 20
-47.8745
 10
778.5204
 20
-47.9578
 10
778.7574
 20
-48.0467
 10
778.9884
 20
-48.1419
 10
779.2134
 20
-48.2434
 10
779.4324
 20
-48.3513
 10
779.6455
 20
-48.4656
 10
779.8525
 20
-48.5862
 10
780.0535
 20
-48.7132
 10
780.2484
 20
-48.8465
 10
780.4356
 20
-48.9861
 10
780.6134
 20
-49.1327
 10
780.7817
 20
-49.286
 10
780.9405
 20
-49.4463
 10
781.0898
 20
-49.6133
 10
781.2296
 20
-49.7873
 10
781.3598
 20
-49.968
 10
781.4805
 20
-50.1556
 10
781.5892
 20
-50.3512
 10
781.6834
 20
-50.5554
 10
781.7632
 20
-50.7684
 10
781.8285
 20
-50.9901
 10
781.8793
 20
-51.2206
 10
781.9156
 20
-51.4599
 10
781.9373
 20
-51.708
 10
781.9446
 20
-51.9649
 10
781.9371
 20
-52.2216
 10
781.9146
 20
-52.4695
 10
781.8771
 20
-52.7087
 10
781.8246
 20
-52.9392
 10
781.7571
 20
-53.1609
 10
781.6746
 20
-53.3739
 10
781.5771
 20
-53.578
 10
781.4646
 20
-53.7734
  0
LWPOLYLINE
  5
D4
330
1F
100
AcDbEntity
  8
Layer 1
 62
   250
100
AcDbPolyline
 90
       65
 70
     1
 43
0.0
 10
761.942
 20
-52.0734
 10
762.0013
 20
-52.9839
 10
762.179
 20
-53.8364
 10
762.4753
 20
-54.6308
 10
762.8901
 20
-55.3673
 10
763.4234
 20
-56.0457
 10
764.0753
 20
-56.6661
 10
764.8458
 20
-57.2286
 10
765.7348
 20
-57.7332
 10
766.5104
 20
-58.0876
 10
767.3291
 20
-58.3947
 10
768.1907
 20
-58.6546
 10
769.0953
 20
-58.8673
 10
770.0428
 20
-59.0328
 10
771.0334
 20
-59.1509
 10
772.067
 20
-59.2219
 10
773.1436
 20
-59.2455
 10
774.2202
 20
-59.2219
 10
775.2538
 20
-59.1509
 10
776.2444
 20
-59.0328
 10
777.192
 20
-58.8673
 10
778.0966
 20
-58.6546
 10
778.9581
 20
-58.3947
 10
779.7768
 20
-58.0876
 10
780.5524
 20
-57.7332
 10
781.4414
 20
-57.2286
 10
782.2119
 20
-56.6661
 10
782.8638
 20
-56.0457
 10
783.3971
 20
-55.3673
 10
783.8119
 20
-54.6308
 10
784.1082
 20
-53.8364
 10
784.2859
 20
-52.9839
 10
784.3452
 20
-52.0734
 10
784.2859
 20
-51.1631
 10
784.1082
 20
-50.3108
 10
783.8119
 20
-49.5164
 10
783.3971
 20
-48.7799
 10
782.8638
 20
-48.1014
 10
782.2119
 20
-47.4808
 10
781.4414
 20
-46.9183
 10
780.5524
 20
-46.4137
 10
779.7768
 20
-46.0593
 10
778.9581
 20
-45.7522
 10
778.0966
 20
-45.4923
 10
777.192
 20
-45.2796
 10
776.2444
 20
-45.1141
 10
775.2538
 20
-44.996
 10
774.2202
 20
-44.925
 10
773.1436
 20
-44.9014
 10
772.067
 20
-44.925
 10
771.0334
 20
-44.996
 10
770.0428
 20
-45.1141
 10
769.0953
 20
-45.2796
 10
768.1907
 20
-45.4923
 10
767.3291
 20
-45.7522
 10
766.5104
 20
-46.0593
 10
765.7348
 20
-46.4137
 10
764.8458
 20
-46.9183
 10
764.0753
 20
-47.4808
 10
763.4234
 20
-48.1014
 10
762.8901
 20
-48.7799
 10
762.4753
 20
-49.5164
 10
762.179
 20
-50.3108
 10
762.0013
 20
-51.1631
 10
761.942
 20
-52.0734
  0
LWPOLYLINE
  5
D5
330
1F
100
AcDbEntity
  8
Layer 1
 62
   250
100
AcDbPolyline
 90
      165
 70
     1
 43
0.0
 10
762.2938
 20
-80.542
 10
762.2938
 20
-82.7242
 10
771.0956
 20
-82.7242
 10
771.6799
 20
-82.7064
 10
772.2367
 20
-82.6531
 10
772.7659
 20
-82.5641
 10
773.2676
 20
-82.4397
 10
773.7418
 20
-82.2797
 10
774.1886
 20
-82.0842
 10
774.6079
 20
-81.8531
 10
774.9998
 20
-81.5866
 10
775.187
 20
-81.4376
 10
775.3648
 20
-81.2793
 10
775.5331
 20
-81.1119
 10
775.6919
 20
-80.9352
 10
775.8412
 20
-80.7493
 10
775.981
 20
-80.5542
 10
776.1113
 20
-80.3499
 10
776.232
 20
-80.1363
 10
776.3407
 20
-79.9093
 10
776.4349
 20
-79.6648
 10
776.5146
 20
-79.4026
 10
776.5799
 20
-79.123
 10
776.6307
 20
-78.8258
 10
776.667
 20
-78.5111
 10
776.6887
 20
-78.1789
 10
776.696
 20
-77.8292
 10
776.6835
 20
-77.4761
 10
776.646
 20
-77.1343
 10
776.5836
 20
-76.8037
 10
776.4961
 20
-76.4843
 10
776.3836
 20
-76.1762
 10
776.2462
 20
-75.8792
 10
776.0836
 20
-75.5934
 10
775.8961
 20
-75.3188
 10
775.7091
 20
-75.0806
 10
775.5082
 20
-74.853
 10
775.2935
 20
-74.6362
 10
775.0651
 20
-74.4301
 10
774.8233
 20
-74.2347
 10
774.5681
 20
-74.05
 10
774.2996
 20
-73.876
 10
774.0181
 20
-73.7127
 10
774.2782
 20
-73.5862
 10
774.5291
 20
-73.4478
 10
774.7699
 20
-73.2976
 10
774.9998
 20
-73.1357
 10
775.187
 20
-72.9869
 10
775.3648
 20
-72.8289
 10
775.5331
 20
-72.6616
 10
775.6919
 20
-72.4851
 10
775.8412
 20
-72.2993
 10
775.981
 20
-72.1042
 10
776.1113
 20
-71.8999
 10
776.232
 20
-71.6863
 10
776.3407
 20
-71.4591
 10
776.4349
 20
-71.2144
 10
776.5146
 20
-70.9522
 10
776.5799
 20
-70.6725
 10
776.6307
 20
-70.3753
 10
776.667
 20
-70.0605
 10
776.6887
 20
-69.7282
 10
776.696
 20
-69.3783
 10
776.6835
 20
-69.0253
 10
776.646
 20
-68.6835
 10
776.5836
 20
-68.3531
 10
776.4961
 20
-68.0339
 10
776.3836
 20
-67.7258
 10
776.2462
 20
-67.429
 10
776.0836
 20
-67.1433
 10
775.8961
 20
-66.8688
 10
775.718
 20
-66.6419
 10
775.5278
 20
-66.4248
 10
775.3256
 20
-66.2172
 10
775.1112
 20
-66.0194
 10
774.8845
 20
-65.8313
 10
774.6456
 20
-65.6529
 10
774.3942
 20
-65.4843
 10
774.1303
 20
-65.3255
 10
776.376
 20
-65.3255
 10
776.376
 20
-63.1432
 10
762.2938
 20
-63.1432
 10
762.2938
 20
-65.3255
 10
769.5008
 20
-65.3255
 10
769.9204
 20
-65.3762
 10
770.3237
 20
-65.4424
 10
770.7109
 20
-65.5243
 10
771.0819
 20
-65.6218
 10
771.4369
 20
-65.7348
 10
771.7761
 20
-65.8635
 10
772.0995
 20
-66.0078
 10
772.4073
 20
-66.1677
 10
772.6263
 20
-66.2977
 10
772.8353
 20
-66.4384
 10
773.0343
 20
-66.5899
 10
773.2234
 20
-66.7522
 10
773.4025
 20
-66.9252
 10
773.5716
 20
-67.1089
 10
773.7307
 20
-67.3034
 10
773.8799
 20
-67.5086
 10
774.0148
 20
-67.7206
 10
774.1316
 20
-67.9366
 10
774.2305
 20
-68.1566
 10
774.3115
 20
-68.3807
 10
774.3744
 20
-68.6086
 10
774.4193
 20
-68.8406
 10
774.4463
 20
-69.0765
 10
774.4553
 20
-69.3163
 10
774.4506
 20
-69.55
 10
774.4363
 20
-69.7682
 10
774.4126
 20
-69.9708
 10
774.3793
 20
-70.1578
 10
774.3366
 20
-70.3293
 10
774.2843
 20
-70.4852
 10
774.2226
 20
-70.6255
 10
774.1513
 20
-70.7502
 10
773.9128
 20
-71.0646
 10
773.6333
 20
-71.3371
 10
773.3129
 20
-71.5676
 10
772.9514
 20
-71.7561
 10
772.5489
 20
-71.9027
 10
772.1055
 20
-72.0074
 10
771.621
 20
-72.0702
 10
771.0956
 20
-72.0911
 10
762.2938
 20
-72.0911
 10
762.2938
 20
-74.2742
 10
771.0956
 20
-74.2742
 10
771.6342
 20
-74.2587
 10
771.8383
 20
-74.3394
 10
772.0349
 20
-74.4262
 10
772.2245
 20
-74.5188
 10
772.4073
 20
-74.617
 10
772.6263
 20
-74.7472
 10
772.8353
 20
-74.888
 10
773.0343
 20
-75.0395
 10
773.2234
 20
-75.2017
 10
773.4025
 20
-75.3746
 10
773.5716
 20
-75.5583
 10
773.7307
 20
-75.7527
 10
773.8799
 20
-75.9578
 10
774.0148
 20
-76.1703
 10
774.1316
 20
-76.3867
 10
774.2305
 20
-76.607
 10
774.3115
 20
-76.8312
 10
774.3744
 20
-77.0592
 10
774.4193
 20
-77.291
 10
774.4463
 20
-77.5268
 10
774.4553
 20
-77.7663
 10
774.4506
 20
-78.0003
 10
774.4363
 20
-78.2187
 10
774.4126
 20
-78.4214
 10
774.3793
 20
-78.6086
 10
774.3366
 20
-78.7801
 10
774.2843
 20
-78.936
 10
774.2226
 20
-79.0764
 10
774.1513
 20
-79.2011
 10
773.9128
 20
-79.5153
 10
773.6333
 20
-79.7876
 10
773.3129
 20
-80.0181
 10
772.9514
 20
-80.2067
 10
772.5489
 20
-80.3533
 10
772.1055
 20
-80.4581
 10
771.621
 20
-80.521
 10
771.0956
 20
-80.542
 10
762.2938
 20
-80.542
  0
LWPOLYLINE
  5
D6
330
1F
100
AcDbEntity
  8
Layer 1
 62
   250
100
AcDbPolyline
 90
      165
 70
     1
 43
0.0
 10
762.2938
 20
-104.3341
 10
762.2938
 20
-106.5164
 10
771.0956
 20
-106.5164
 10
771.6799
 20
-106.4986
 10
772.2367
 20
-106.4453
 10
772.7659
 20
-106.3563
 10
773.2676
 20
-106.2319
 10
773.7418
 20
-106.0719
 10
774.1886
 20
-105.8764
 10
774.6079
 20
-105.6453
 10
774.9998
 20
-105.3788
 10
775.187
 20
-105.2298
 10
775.3648
 20
-105.0715
 10
775.5331
 20
-104.9041
 10
775.6919
 20
-104.7274
 10
775.8412
 20
-104.5415
 10
775.981
 20
-104.3464
 10
776.1113
 20
-104.1421
 10
776.232
 20
-103.9285
 10
776.3407
 20
-103.7015
 10
776.4349
 20
-103.4569
 10
776.5146
 20
-103.1948
 10
776.5799
 20
-102.9151
 10
776.6307
 20
-102.6179
 10
776.667
 20
-102.3032
 10
776.6887
 20
-101.971
 10
776.696
 20
-101.6214
 10
776.6835
 20
-101.2683
 10
776.646
 20
-100.9265
 10
776.5836
 20
-100.5959
 10
776.4961
 20
-100.2765
 10
776.3836
 20
-99.9684
 10
776.2462
 20
-99.6714
 10
776.0836
 20
-99.3856
 10
775.8961
 20
-99.111
 10
775.7091
 20
-98.8728
 10
775.5082
 20
-98.6452
 10
775.2935
 20
-98.4284
 10
775.0651
 20
-98.2223
 10
774.8233
 20
-98.0269
 10
774.5681
 20
-97.8422
 10
774.2996
 20
-97.6682
 10
774.0181
 20
-97.5049
 10
774.2782
 20
-97.3784
 10
774.5291
 20
-97.24
 10
774.7699
 20
-97.0898
 10
774.9998
 20
-96.9279
 10
775.187
 20
-96.7791
 10
775.3648
 20
-96.6211
 10
775.5331
 20
-96.4538
 10
775.6919
 20
-96.2773
 10
775.8412
 20
-96.0915
 10
775.981
 20
-95.8964
 10
776.1113
 20
-95.6921
 10
776.232
 20
-95.4785
 10
776.3407
 20
-95.2513
 10
776.4349
 20
-95.0066
 10
776.5146
 20
-94.7444
 10
776.5799
 20
-94.4647
 10
776.6307
 20
-94.1675
 10
776.667
 20
-93.8527
 10
776.6887
 20
-93.5204
 10
776.696
 20
-93.1705
 10
776.6835
 20
-92.8174
 10
776.646
 20
-92.4756
 10
776.5836
 20
-92.145
 10
776.4961
 20
-91.8256
 10
776.3836
 20
-91.5175
 10
776.2462
 20
-91.2205
 10
776.0836
 20
-90.9347
 10
775.8961
 20
-90.6601
 10
775.718
 20
-90.4333
 10
775.5278
 20
-90.2161
 10
775.3256
 20
-90.0086
 10
775.1112
 20
-89.8108
 10
774.8845
 20
-89.6227
 10
774.6456
 20
-89.4443
 10
774.3942
 20
-89.2757
 10
774.1303
 20
-89.1169
 10
776.376
 20
-89.1169
 10
776.376
 20
-86.9346
 10
762.2938
 20
-86.9346
 10
762.2938
 20
-89.1169
 10
769.5008
 20
-89.1169
 10
769.9204
 20
-89.1675
 10
770.3237
 20
-89.2338
 10
770.7109
 20
-89.3156
 10
771.0819
 20
-89.4131
 10
771.4369
 20
-89.5262
 10
771.7761
 20
-89.6549
 10
772.0995
 20
-89.7992
 10
772.4073
 20
-89.9591
 10
772.6263
 20
-90.0891
 10
772.8353
 20
-90.2298
 10
773.0343
 20
-90.3813
 10
773.2234
 20
-90.5436
 10
773.4025
 20
-90.7166
 10
773.5716
 20
-90.9003
 10
773.7307
 20
-91.0948
 10
773.8799
 20
-91.3
 10
774.0148
 20
-91.5122
 10
774.1316
 20
-91.7284
 10
774.2305
 20
-91.9486
 10
774.3115
 20
-92.1727
 10
774.3744
 20
-92.4008
 10
774.4193
 20
-92.6328
 10
774.4463
 20
-92.8687
 10
774.4553
 20
-93.1085
 10
774.4506
 20
-93.3422
 10
774.4363
 20
-93.5603
 10
774.4126
 20
-93.7629
 10
774.3793
 20
-93.95
 10
774.3366
 20
-94.1215
 10
774.2843
 20
-94.2774
 10
774.2226
 20
-94.4177
 10
774.1513
 20
-94.5424
 10
773.9128
 20
-94.8568
 10
773.6333
 20
-95.1293
 10
773.3129
 20
-95.3598
 10
772.9514
 20
-95.5483
 10
772.5489
 20
-95.6949
 10
772.1055
 20
-95.7996
 10
771.621
 20
-95.8624
 10
771.0956
 20
-95.8833
 10
762.2938
 20
-95.8833
 10
762.2938
 20
-98.0664
 10
771.0956
 20
-98.0664
 10
771.6342
 20
-98.0509
 10
771.8383
 20
-98.1316
 10
772.0349
 20
-98.2184
 10
772.2245
 20
-98.3109
 10
772.4073
 20
-98.4091
 10
772.6263
 20
-98.5393
 10
772.8353
 20
-98.6801
 10
773.0343
 20
-98.8317
 10
773.2234
 20
-98.9939
 10
773.4025
 20
-99.1668
 10
773.5716
 20
-99.3504
 10
773.7307
 20
-99.5448
 10
773.8799
 20
-99.75
 10
774.0148
 20
-99.9625
 10
774.1316
 20
-100.1789
 10
774.2305
 20
-100.3992
 10
774.3115
 20
-100.6234
 10
774.3744
 20
-100.8514
 10
774.4193
 20
-101.0832
 10
774.4463
 20
-101.319
 10
774.4553
 20
-101.5585
 10
774.4506
 20
-101.7925
 10
774.4363
 20
-102.0109
 10
774.4126
 20
-102.2136
 10
774.3793
 20
-102.4008
 10
774.3366
 20
-102.5723
 10
774.2843
 20
-102.7282
 10
774.2226
 20
-102.8686
 10
774.1513
 20
-102.9933
 10
773.9128
 20
-103.3075
 10
773.6333
 20
-103.5798
 10
773.3129
 20
-103.8102
 10
772.9514
 20
-103.9988
 10
772.5489
 20
-104.1455
 10
772.1055
 20
-104.2503
 10
771.621
 20
-104.3131
 10
771.0956
 20
-104.3341
 10
762.2938
 20
-104.3341
  0
LWPOLYLINE
  5
D7
330
1F
100
AcDbEntity
  8
Layer 1
 62
   250
100
AcDbPolyline
 90
        9
 70
     1
 43
0.0
 10
793.4778
 20
107.8612
 10
758.0742
 20
107.8612
 10
758.0742
 20
104.1818
 10
773.8875
 20
104.1818
 10
773.8875
 20
43.0033
 10
777.6639
 20
43.0033
 10
777.6639
 20
104.1818
 10
793.4778
 20
104.1818
 10
793.4778
 20
107.8612
  0
LWPOLYLINE
  5
D8
330
1F
100
AcDbEntity
  8
Layer 1
 62
   250
100
AcDbPolyline
 90
        9
 70
     1
 43
0.0
 10
793.4778
 20
-221.8645
 10
758.0742
 20
-221.8645
 10
758.0742
 20
-218.1852
 10
773.8875
 20
-218.1852
 10
773.8875
 20
-157.0067
 10
777.6639
 20
-157.0067
 10
777.6639
 20
-218.1852
 10
793.4778
 20
-218.1852
 10
793.4778
 20
-221.8645
  0
LWPOLYLINE
  5
D9
330
1F
100
AcDbEntity
  8
Layer 1
 62
     7
370
     9
100
AcDbPolyline
 90
       33
 70
     1
 43
0.0
 10
566.0119
 20
-39.8119
 10
569.6132
 20
-40.1656
 10
572.9675
 20
-41.1801
 10
576.0029
 20
-42.7854
 10
578.6475
 20
-44.9114
 10
580.8296
 20
-47.4881
 10
582.4771
 20
-50.4456
 10
583.5184
 20
-53.7137
 10
583.8814
 20
-57.2225
 10
583.5184
 20
-60.7313
 10
582.4771
 20
-63.9994
 10
580.8296
 20
-66.9569
 10
578.6475
 20
-69.5336
 10
576.0029
 20
-71.6595
 10
572.9675
 20
-73.2648
 10
569.6132
 20
-74.2793
 10
566.0119
 20
-74.633
 10
562.4106
 20
-74.2793
 10
559.0563
 20
-73.2648
 10
556.0209
 20
-71.6595
 10
553.3763
 20
-69.5336
 10
551.1942
 20
-66.9569
 10
549.5467
 20
-63.9994
 10
548.5054
 20
-60.7313
 10
548.1424
 20
-57.2225
 10
548.5054
 20
-53.7137
 10
549.5467
 20
-50.4456
 10
551.1942
 20
-47.4881
 10
553.3763
 20
-44.9114
 10
556.0209
 20
-42.7854
 10
559.0563
 20
-41.1801
 10
562.4106
 20
-40.1656
 10
566.0119
 20
-39.8119
  0
LWPOLYLINE
  5
DA
330
1F
100
AcDbEntity
  8
Layer 1
 62
     7
370
     9
100
AcDbPolyline
 90
        9
 70
     0
 43
0.0
 10
569.7098
 20
-43.7762
 10
570.1645
 20
-43.9025
 10
570.6128
 20
-44.043
 10
571.0546
 20
-44.1973
 10
571.4895
 20
-44.3652
 10
571.9173
 20
-44.5465
 10
572.3377
 20
-44.7409
 10
572.7504
 20
-44.9481
 10
573.1552
 20
-45.1678
  0
LWPOLYLINE
  5
DB
330
1F
100
AcDbEntity
  8
Layer 1
 62
     7
370
     9
100
AcDbPolyline
 90
        9
 70
     0
 43
0.0
 10
578.3844
 20
-50.2627
 10
578.6099
 20
-50.6571
 10
578.8225
 20
-51.0592
 10
579.022
 20
-51.4688
 10
579.2081
 20
-51.8856
 10
579.3805
 20
-52.3093
 10
579.5389
 20
-52.7397
 10
579.6831
 20
-53.1765
 10
579.8127
 20
-53.6195
  0
LWPOLYLINE
  5
DC
330
1F
100
AcDbEntity
  8
Layer 1
 62
     7
370
     9
100
AcDbPolyline
 90
        9
 70
     0
 43
0.0
 10
579.8127
 20
-60.8254
 10
579.6831
 20
-61.2684
 10
579.5389
 20
-61.7052
 10
579.3805
 20
-62.1356
 10
579.2081
 20
-62.5594
 10
579.022
 20
-62.9762
 10
578.8225
 20
-63.3858
 10
578.6099
 20
-63.7879
 10
578.3844
 20
-64.1823
  0
LWPOLYLINE
  5
DD
330
1F
100
AcDbEntity
  8
Layer 1
 62
     7
370
     9
100
AcDbPolyline
 90
        9
 70
     0
 43
0.0
 10
573.1552
 20
-69.2772
 10
572.7504
 20
-69.4969
 10
572.3377
 20
-69.7041
 10
571.9173
 20
-69.8984
 10
571.4895
 20
-70.0797
 10
571.0546
 20
-70.2477
 10
570.6128
 20
-70.402
 10
570.1645
 20
-70.5425
 10
569.7098
 20
-70.6688
  0
LWPOLYLINE
  5
DE
330
1F
100
AcDbEntity
  8
Layer 1
 62
     7
370
     9
100
AcDbPolyline
 90
        9
 70
     0
 43
0.0
 10
562.314
 20
-70.6688
 10
561.8593
 20
-70.5425
 10
561.411
 20
-70.402
 10
560.9692
 20
-70.2477
 10
560.5343
 20
-70.0797
 10
560.1065
 20
-69.8984
 10
559.6861
 20
-69.7041
 10
559.2734
 20
-69.4969
 10
558.8686
 20
-69.2772
  0
LWPOLYLINE
  5
DF
330
1F
100
AcDbEntity
  8
Layer 1
 62
     7
370
     9
100
AcDbPolyline
 90
        9
 70
     0
 43
0.0
 10
553.6394
 20
-64.1823
 10
553.4139
 20
-63.7879
 10
553.2013
 20
-63.3858
 10
553.0018
 20
-62.9762
 10
552.8157
 20
-62.5594
 10
552.6433
 20
-62.1356
 10
552.4849
 20
-61.7052
 10
552.3407
 20
-61.2684
 10
552.2111
 20
-60.8254
  0
LWPOLYLINE
  5
E0
330
1F
100
AcDbEntity
  8
Layer 1
 62
     7
370
     9
100
AcDbPolyline
 90
        9
 70
     0
 43
0.0
 10
552.2111
 20
-53.6195
 10
552.3407
 20
-53.1765
 10
552.4849
 20
-52.7397
 10
552.6433
 20
-52.3093
 10
552.8157
 20
-51.8856
 10
553.0018
 20
-51.4688
 10
553.2013
 20
-51.0592
 10
553.4139
 20
-50.6571
 10
553.6394
 20
-50.2627
  0
LWPOLYLINE
  5
E1
330
1F
100
AcDbEntity
  8
Layer 1
 62
     7
370
     9
100
AcDbPolyline
 90
        9
 70
     0
 43
0.0
 10
558.8686
 20
-45.1678
 10
559.2733
 20
-44.9481
 10
559.686
 20
-44.7409
 10
560.1064
 20
-44.5466
 10
560.5342
 20
-44.3653
 10
560.9692
 20
-44.1974
 10
561.411
 20
-44.043
 10
561.8593
 20
-43.9026
 10
562.314
 20
-43.7762
  0
LWPOLYLINE
  5
E2
330
1F
100
AcDbEntity
  8
Layer 1
 62
     7
370
     9
100
AcDbPolyline
 90
        2
 70
     0
 43
0.0
 10
570.6368
 20
-40.4052
 10
569.7098
 20
-43.7762
  0
LWPOLYLINE
  5
E3
330
1F
100
AcDbEntity
  8
Layer 1
 62
     7
370
     9
100
AcDbPolyline
 90
        2
 70
     0
 43
0.0
 10
562.314
 20
-70.6688
 10
561.387
 20
-74.0397
  0
LWPOLYLINE
  5
E4
330
1F
100
AcDbEntity
  8
Layer 1
 62
     7
370
     9
100
AcDbPolyline
 90
        2
 70
     0
 43
0.0
 10
581.4873
 20
-48.5173
 10
578.3853
 20
-50.2622
  0
LWPOLYLINE
  5
E5
330
1F
100
AcDbEntity
  8
Layer 1
 62
     7
370
     9
100
AcDbPolyline
 90
        2
 70
     0
 43
0.0
 10
553.6385
 20
-64.1828
 10
550.5365
 20
-65.9277
  0
LWPOLYLINE
  5
E6
330
1F
100
AcDbEntity
  8
Layer 1
 62
     7
370
     9
100
AcDbPolyline
 90
        2
 70
     0
 43
0.0
 10
583.2725
 20
-61.7286
 10
579.8127
 20
-60.8254
  0
LWPOLYLINE
  5
E7
330
1F
100
AcDbEntity
  8
Layer 1
 62
     7
370
     9
100
AcDbPolyline
 90
        2
 70
     0
 43
0.0
 10
552.2111
 20
-53.6195
 10
548.7513
 20
-52.7163
  0
LWPOLYLINE
  5
E8
330
1F
100
AcDbEntity
  8
Layer 1
 62
     7
370
     9
100
AcDbPolyline
 90
        2
 70
     0
 43
0.0
 10
574.9466
 20
-72.3004
 10
573.1557
 20
-69.278
  0
LWPOLYLINE
  5
E9
330
1F
100
AcDbEntity
  8
Layer 1
 62
     7
370
     9
100
AcDbPolyline
 90
        2
 70
     0
 43
0.0
 10
558.8681
 20
-45.1669
 10
557.0772
 20
-42.1445
  0
LWPOLYLINE
  5
EA
330
1F
100
AcDbEntity
  8
Layer 1
 62
     7
370
     9
100
AcDbPolyline
 90
        2
 70
     0
 43
0.0
 10
561.387
 20
-40.4052
 10
562.314
 20
-43.7762
  0
LWPOLYLINE
  5
EB
330
1F
100
AcDbEntity
  8
Layer 1
 62
     7
370
     9
100
AcDbPolyline
 90
        2
 70
     0
 43
0.0
 10
569.7098
 20
-70.6688
 10
570.6368
 20
-74.0397
  0
LWPOLYLINE
  5
EC
330
1F
100
AcDbEntity
  8
Layer 1
 62
     7
370
     9
100
AcDbPolyline
 90
        2
 70
     0
 43
0.0
 10
574.9466
 20
-42.1445
 10
573.1557
 20
-45.1669
  0
LWPOLYLINE
  5
ED
330
1F
100
AcDbEntity
  8
Layer 1
 62
     7
370
     9
100
AcDbPolyline
 90
        2
 70
     0
 43
0.0
 10
558.8681
 20
-69.278
 10
557.0772
 20
-72.3004
  0
LWPOLYLINE
  5
EE
330
1F
100
AcDbEntity
  8
Layer 1
 62
     7
370
     9
100
AcDbPolyline
 90
        2
 70
     0
 43
0.0
 10
583.2725
 20
-52.7163
 10
579.8127
 20
-53.6195
  0
LWPOLYLINE
  5
EF
330
1F
100
AcDbEntity
  8
Layer 1
 62
     7
370
     9
100
AcDbPolyline
 90
        2
 70
     0
 43
0.0
 10
552.2111
 20
-60.8254
 10
548.7513
 20
-61.7286
  0
LWPOLYLINE
  5
F0
330
1F
100
AcDbEntity
  8
Layer 1
 62
     7
370
     9
100
AcDbPolyline
 90
        2
 70
     0
 43
0.0
 10
581.4873
 20
-65.9277
 10
578.3853
 20
-64.1828
  0
LWPOLYLINE
  5
F1
330
1F
100
AcDbEntity
  8
Layer 1
 62
     7
370
     9
100
AcDbPolyline
 90
        2
 70
     0
 43
0.0
 10
553.6385
 20
-50.2622
 10
550.5365
 20
-48.5173
  0
LWPOLYLINE
  5
F2
330
1F
100
AcDbEntity
  8
Layer 1
 62
     7
370
     9
100
AcDbPolyline
 90
       33
 70
     1
 43
0.0
 10
566.0119
 20
-44.2383
 10
568.6976
 20
-44.5021
 10
571.1991
 20
-45.2587
 10
573.4628
 20
-46.4558
 10
575.4351
 20
-48.0413
 10
577.0623
 20
-49.9629
 10
578.291
 20
-52.1685
 10
579.0676
 20
-54.6058
 10
579.3383
 20
-57.2225
 10
579.0676
 20
-59.8392
 10
578.291
 20
-62.2765
 10
577.0623
 20
-64.4821
 10
575.4351
 20
-66.4037
 10
573.4628
 20
-67.9892
 10
571.1991
 20
-69.1863
 10
568.6976
 20
-69.9429
 10
566.0119
 20
-70.2067
 10
563.3262
 20
-69.9429
 10
560.8247
 20
-69.1863
 10
558.561
 20
-67.9892
 10
556.5887
 20
-66.4037
 10
554.9614
 20
-64.4821
 10
553.7327
 20
-62.2765
 10
552.9562
 20
-59.8392
 10
552.6854
 20
-57.2225
 10
552.9562
 20
-54.6058
 10
553.7327
 20
-52.1685
 10
554.9614
 20
-49.9629
 10
556.5887
 20
-48.0413
 10
558.561
 20
-46.4558
 10
560.8247
 20
-45.2587
 10
563.3262
 20
-44.5021
 10
566.0119
 20
-44.2383
  0
LWPOLYLINE
  5
F3
330
1F
100
AcDbEntity
  8
Layer 1
 62
     7
370
     9
100
AcDbPolyline
 90
       33
 70
     1
 43
0.0
 10
566.0119
 20
-46.4474
 10
568.2407
 20
-46.6663
 10
570.3166
 20
-47.2942
 10
572.1951
 20
-48.2876
 10
573.8318
 20
-49.6034
 10
575.1823
 20
-51.198
 10
576.2019
 20
-53.0284
 10
576.8463
 20
-55.0509
 10
577.071
 20
-57.2225
 10
576.8463
 20
-59.3941
 10
576.2019
 20
-61.4166
 10
575.1823
 20
-63.247
 10
573.8318
 20
-64.8416
 10
572.1951
 20
-66.1574
 10
570.3166
 20
-67.1508
 10
568.2407
 20
-67.7787
 10
566.0119
 20
-67.9976
 10
563.7831
 20
-67.7787
 10
561.7072
 20
-67.1508
 10
559.8286
 20
-66.1574
 10
558.1919
 20
-64.8416
 10
556.8415
 20
-63.247
 10
555.8219
 20
-61.4166
 10
555.1775
 20
-59.3941
 10
554.9528
 20
-57.2225
 10
555.1775
 20
-55.0509
 10
555.8219
 20
-53.0284
 10
556.8415
 20
-51.198
 10
558.1919
 20
-49.6034
 10
559.8286
 20
-48.2876
 10
561.7072
 20
-47.2942
 10
563.7831
 20
-46.6663
 10
566.0119
 20
-46.4474
  0
LWPOLYLINE
  5
F4
330
1F
100
AcDbEntity
  8
Layer 1
 62
     7
370
     9
100
AcDbPolyline
 90
       33
 70
     1
 43
0.0
 10
566.0119
 20
-48.5173
 10
567.8125
 20
-48.6942
 10
569.4896
 20
-49.2014
 10
571.0073
 20
-50.004
 10
572.3297
 20
-51.067
 10
573.4207
 20
-52.3554
 10
574.2445
 20
-53.8341
 10
574.7651
 20
-55.4681
 10
574.9466
 20
-57.2225
 10
574.7651
 20
-58.9769
 10
574.2445
 20
-60.6109
 10
573.4207
 20
-62.0896
 10
572.3297
 20
-63.378
 10
571.0073
 20
-64.4409
 10
569.4896
 20
-65.2436
 10
567.8125
 20
-65.7508
 10
566.0119
 20
-65.9277
 10
564.2113
 20
-65.7508
 10
562.5342
 20
-65.2436
 10
561.0165
 20
-64.4409
 10
559.6942
 20
-63.378
 10
558.6031
 20
-62.0896
 10
557.7793
 20
-60.6109
 10
557.2587
 20
-58.9769
 10
557.0772
 20
-57.2225
 10
557.2587
 20
-55.4681
 10
557.7793
 20
-53.8341
 10
558.6031
 20
-52.3554
 10
559.6942
 20
-51.067
 10
561.0165
 20
-50.004
 10
562.5342
 20
-49.2014
 10
564.2113
 20
-48.6942
 10
566.0119
 20
-48.5173
  0
LWPOLYLINE
  5
F5
330
1F
100
AcDbEntity
  8
Layer 1
 62
     7
370
     9
100
AcDbPolyline
 90
       33
 70
     1
 43
0.0
 10
566.0119
 20
-50.5722
 10
567.3875
 20
-50.7073
 10
568.6687
 20
-51.0948
 10
569.8281
 20
-51.708
 10
570.8383
 20
-52.5201
 10
571.6718
 20
-53.5043
 10
572.3011
 20
-54.6339
 10
572.6988
 20
-55.8822
 10
572.8375
 20
-57.2225
 10
572.6988
 20
-58.5627
 10
572.3011
 20
-59.8111
 10
571.6718
 20
-60.9407
 10
570.8383
 20
-61.9249
 10
569.8281
 20
-62.7369
 10
568.6687
 20
-63.3501
 10
567.3875
 20
-63.7376
 10
566.0119
 20
-63.8727
 10
564.6363
 20
-63.7376
 10
563.3551
 20
-63.3501
 10
562.1957
 20
-62.7369
 10
561.1855
 20
-61.9249
 10
560.352
 20
-60.9407
 10
559.7227
 20
-59.8111
 10
559.325
 20
-58.5627
 10
559.1863
 20
-57.2225
 10
559.325
 20
-55.8822
 10
559.7227
 20
-54.6339
 10
560.352
 20
-53.5043
 10
561.1855
 20
-52.5201
 10
562.1957
 20
-51.708
 10
563.3551
 20
-51.0948
 10
564.6363
 20
-50.7073
 10
566.0119
 20
-50.5722
  0
LWPOLYLINE
  5
F6
330
1F
100
AcDbEntity
  8
Layer 1
 62
     7
370
     9
100
AcDbPolyline
 90
       33
 70
     1
 43
0.0
 10
566.0119
 20
-52.7162
 10
566.944
 20
-52.8078
 10
567.8122
 20
-53.0703
 10
568.5978
 20
-53.4858
 10
569.2823
 20
-54.0361
 10
569.8471
 20
-54.703
 10
570.2735
 20
-55.4685
 10
570.543
 20
-56.3143
 10
570.637
 20
-57.2225
 10
570.543
 20
-58.1306
 10
570.2735
 20
-58.9765
 10
569.8471
 20
-59.7419
 10
569.2823
 20
-60.4089
 10
568.5978
 20
-60.9592
 10
567.8122
 20
-61.3747
 10
566.944
 20
-61.6372
 10
566.0119
 20
-61.7288
 10
565.0798
 20
-61.6372
 10
564.2116
 20
-61.3747
 10
563.426
 20
-60.9592
 10
562.7415
 20
-60.4089
 10
562.1767
 20
-59.7419
 10
561.7503
 20
-58.9765
 10
561.4808
 20
-58.1306
 10
561.3868
 20
-57.2225
 10
561.4808
 20
-56.3143
 10
561.7503
 20
-55.4685
 10
562.1767
 20
-54.703
 10
562.7415
 20
-54.0361
 10
563.426
 20
-53.4858
 10
564.2116
 20
-53.0703
 10
565.0798
 20
-52.8078
 10
566.0119
 20
-52.7162
  0
LWPOLYLINE
  5
F7
330
1F
100
AcDbEntity
  8
Layer 1
 62
     7
370
     9
100
AcDbPolyline
 90
       33
 70
     1
 43
0.0
 10
566.0119
 20
-54.8136
 10
566.5102
 20
-54.8625
 10
566.9742
 20
-55.0029
 10
567.3942
 20
-55.225
 10
567.7601
 20
-55.5192
 10
568.062
 20
-55.8757
 10
568.29
 20
-56.2849
 10
568.4341
 20
-56.7371
 10
568.4843
 20
-57.2225
 10
568.4341
 20
-57.7079
 10
568.29
 20
-58.1601
 10
568.062
 20
-58.5693
 10
567.7601
 20
-58.9258
 10
567.3942
 20
-59.22
 10
566.9742
 20
-59.4421
 10
566.5102
 20
-59.5825
 10
566.0119
 20
-59.6314
 10
565.5136
 20
-59.5825
 10
565.0496
 20
-59.4421
 10
564.6296
 20
-59.22
 10
564.2637
 20
-58.9258
 10
563.9618
 20
-58.5693
 10
563.7338
 20
-58.1601
 10
563.5897
 20
-57.7079
 10
563.5395
 20
-57.2225
 10
563.5897
 20
-56.7371
 10
563.7338
 20
-56.2849
 10
563.9618
 20
-55.8757
 10
564.2637
 20
-55.5192
 10
564.6296
 20
-55.225
 10
565.0496
 20
-55.0029
 10
565.5136
 20
-54.8625
 10
566.0119
 20
-54.8136
  0
LWPOLYLINE
  5
F8
330
1F
100
AcDbEntity
  8
Layer 1
 62
     7
370
     9
100
AcDbPolyline
 90
        2
 70
     0
 43
0.0
 10
566.0119
 20
-44.2383
 10
566.0119
 20
-70.2067
  0
LWPOLYLINE
  5
F9
330
1F
100
AcDbEntity
  8
Layer 1
 62
     7
370
     9
100
AcDbPolyline
 90
        2
 70
     0
 43
0.0
 10
571.1115
 20
-45.2265
 10
570.2476
 20
-47.2584
  0
LWPOLYLINE
  5
FA
330
1F
100
AcDbEntity
  8
Layer 1
 62
     7
370
     9
100
AcDbPolyline
 90
        2
 70
     0
 43
0.0
 10
573.3727
 20
-46.4033
 10
572.1255
 20
-48.2365
  0
LWPOLYLINE
  5
FB
330
1F
100
AcDbEntity
  8
Layer 1
 62
     7
370
     9
100
AcDbPolyline
 90
        2
 70
     0
 43
0.0
 10
577.0426
 20
-49.9563
 10
575.1729
 20
-51.1887
  0
LWPOLYLINE
  5
FC
330
1F
100
AcDbEntity
  8
Layer 1
 62
     7
370
     9
100
AcDbPolyline
 90
        2
 70
     0
 43
0.0
 10
579.0476
 20
-54.603
 10
576.837
 20
-55.0489
  0
LWPOLYLINE
  5
FD
330
1F
100
AcDbEntity
  8
Layer 1
 62
     7
370
     9
100
AcDbPolyline
 90
        2
 70
     0
 43
0.0
 10
579.0857
 20
-59.6436
 10
576.8674
 20
-59.236
  0
LWPOLYLINE
  5
FE
330
1F
100
AcDbEntity
  8
Layer 1
 62
     7
370
     9
100
AcDbPolyline
 90
        2
 70
     0
 43
0.0
 10
577.1511
 20
-64.3187
 10
575.2592
 20
-63.1188
  0
LWPOLYLINE
  5
FF
330
1F
100
AcDbEntity
  8
Layer 1
 62
     7
370
     9
100
AcDbPolyline
 90
        2
 70
     0
 43
0.0
 10
573.5354
 20
-67.9239
 10
572.2548
 20
-66.1127
  0
LWPOLYLINE
  5
100
330
1F
100
AcDbEntity
  8
Layer 1
 62
     7
370
     9
100
AcDbPolyline
 90
        2
 70
     0
 43
0.0
 10
568.7832
 20
-69.9163
 10
568.3067
 20
-67.7664
  0
LWPOLYLINE
  5
101
330
1F
100
AcDbEntity
  8
Layer 1
 62
     7
370
     9
100
AcDbPolyline
 90
        2
 70
     0
 43
0.0
 10
563.6103
 20
-69.9957
 10
564.0099
 20
-67.831
  0
LWPOLYLINE
  5
102
330
1F
100
AcDbEntity
  8
Layer 1
 62
     7
370
     9
100
AcDbPolyline
 90
        2
 70
     0
 43
0.0
 10
558.7959
 20
-68.1502
 10
560.0114
 20
-66.2968
  0
LWPOLYLINE
  5
103
330
1F
100
AcDbEntity
  8
Layer 1
 62
     7
370
     9
100
AcDbPolyline
 90
        2
 70
     0
 43
0.0
 10
555.0654
 20
-64.6576
 10
556.9136
 20
-63.3948
  0
LWPOLYLINE
  5
104
330
1F
100
AcDbEntity
  8
Layer 1
 62
     7
370
     9
100
AcDbPolyline
 90
        2
 70
     0
 43
0.0
 10
552.9806
 20
-60.0444
 10
555.1832
 20
-59.5622
  0
LWPOLYLINE
  5
105
330
1F
100
AcDbEntity
  8
Layer 1
 62
     7
370
     9
100
AcDbPolyline
 90
        2
 70
     0
 43
0.0
 10
552.8556
 20
-55.0052
 10
555.0808
 20
-55.3764
  0
LWPOLYLINE
  5
106
330
1F
100
AcDbEntity
  8
Layer 1
 62
     7
370
     9
100
AcDbPolyline
 90
        2
 70
     0
 43
0.0
 10
554.7093
 20
-50.2991
 10
556.6219
 20
-51.4679
  0
LWPOLYLINE
  5
107
330
1F
100
AcDbEntity
  8
Layer 1
 62
     7
370
     9
100
AcDbPolyline
 90
        2
 70
     0
 43
0.0
 10
558.2624
 20
-46.6352
 10
559.5741
 20
-48.4255
  0
LWPOLYLINE
  5
108
330
1F
100
AcDbEntity
  8
Layer 1
 62
     7
370
     9
100
AcDbPolyline
 90
        2
 70
     0
 43
0.0
 10
562.9797
 20
-44.5653
 10
563.493
 20
-46.7075
  0
LWPOLYLINE
  5
109
330
1F
100
AcDbEntity
  8
Layer 1
 62
     7
370
     9
100
AcDbPolyline
 90
        2
 70
     0
 43
0.0
 10
568.5908
 20
-44.4792
 10
568.1537
 20
-46.6373
  0
LWPOLYLINE
  5
10A
330
1F
100
AcDbEntity
  8
Layer 1
 62
     7
370
     9
100
AcDbPolyline
 90
        2
 70
     0
 43
0.0
 10
578.2914
 20
-52.2136
 10
576.2097
 20
-53.0642
  0
LWPOLYLINE
  5
10B
330
1F
100
AcDbEntity
  8
Layer 1
 62
     7
370
     9
100
AcDbPolyline
 90
        2
 70
     0
 43
0.0
 10
578.342
 20
-62.1007
 10
576.249
 20
-61.2768
  0
LWPOLYLINE
  5
10C
330
1F
100
AcDbEntity
  8
Layer 1
 62
     7
370
     9
100
AcDbPolyline
 90
        2
 70
     0
 43
0.0
 10
571.2341
 20
-69.1573
 10
570.3429
 20
-67.1365
  0
LWPOLYLINE
  5
10D
330
1F
100
AcDbEntity
  8
Layer 1
 62
     7
370
     9
100
AcDbPolyline
 90
        2
 70
     0
 43
0.0
 10
561.0873
 20
-69.2936
 10
561.9144
 20
-67.2472
  0
LWPOLYLINE
  5
10E
330
1F
100
AcDbEntity
  8
Layer 1
 62
     7
370
     9
100
AcDbPolyline
 90
        2
 70
     0
 43
0.0
 10
553.7825
 20
-62.4306
 10
555.8485
 20
-61.5445
  0
LWPOLYLINE
  5
10F
330
1F
100
AcDbEntity
  8
Layer 1
 62
     7
370
     9
100
AcDbPolyline
 90
        2
 70
     0
 43
0.0
 10
553.5533
 20
-52.546
 10
555.6609
 20
-53.3337
  0
LWPOLYLINE
  5
110
330
1F
100
AcDbEntity
  8
Layer 1
 62
     7
370
     9
100
AcDbPolyline
 90
        2
 70
     0
 43
0.0
 10
560.5326
 20
-45.3686
 10
561.4603
 20
-47.3737
  0
LWPOLYLINE
  5
111
330
1F
100
AcDbEntity
  8
Layer 1
 62
     7
370
     9
100
AcDbPolyline
 90
        2
 70
     0
 43
0.0
 10
579.3383
 20
-57.2225
 10
552.6854
 20
-57.2225
  0
LWPOLYLINE
  5
112
330
1F
100
AcDbEntity
  8
Layer 1
 62
     7
370
     9
100
AcDbPolyline
 90
        2
 70
     0
 43
0.0
 10
575.4352
 20
-66.4037
 10
556.5886
 20
-48.0412
  0
LWPOLYLINE
  5
113
330
1F
100
AcDbEntity
  8
Layer 1
 62
     7
370
     9
100
AcDbPolyline
 90
        2
 70
     0
 43
0.0
 10
575.4352
 20
-48.0412
 10
556.5886
 20
-66.4037
  0
LWPOLYLINE
  5
114
330
1F
100
AcDbEntity
  8
Layer 1
 62
     7
370
     9
100
AcDbPolyline
 90
        2
 70
     0
 43
0.0
 10
567.76
 20
-55.5191
 10
569.2822
 20
-54.036
  0
LWPOLYLINE
  5
115
330
1F
100
AcDbEntity
  8
Layer 1
 62
     7
370
     9
100
AcDbPolyline
 90
        2
 70
     0
 43
0.0
 10
568.296
 20
-56.3005
 10
570.2848
 20
-55.4978
  0
LWPOLYLINE
  5
116
330
1F
100
AcDbEntity
  8
Layer 1
 62
     7
370
     9
100
AcDbPolyline
 90
        2
 70
     0
 43
0.0
 10
568.4843
 20
-57.2223
 10
570.637
 20
-57.2221
  0
LWPOLYLINE
  5
117
330
1F
100
AcDbEntity
  8
Layer 1
 62
     7
370
     9
100
AcDbPolyline
 90
        2
 70
     0
 43
0.0
 10
568.2962
 20
-58.1441
 10
570.2852
 20
-58.9466
  0
LWPOLYLINE
  5
118
330
1F
100
AcDbEntity
  8
Layer 1
 62
     7
370
     9
100
AcDbPolyline
 90
        2
 70
     0
 43
0.0
 10
567.7604
 20
-58.9257
 10
569.2827
 20
-60.4086
  0
LWPOLYLINE
  5
119
330
1F
100
AcDbEntity
  8
Layer 1
 62
     7
370
     9
100
AcDbPolyline
 90
        2
 70
     0
 43
0.0
 10
566.9584
 20
-59.4479
 10
567.7824
 20
-61.3856
  0
LWPOLYLINE
  5
11A
330
1F
100
AcDbEntity
  8
Layer 1
 62
     7
370
     9
100
AcDbPolyline
 90
        2
 70
     0
 43
0.0
 10
566.0123
 20
-59.6314
 10
566.0126
 20
-61.7288
  0
LWPOLYLINE
  5
11B
330
1F
100
AcDbEntity
  8
Layer 1
 62
     7
370
     9
100
AcDbPolyline
 90
        2
 70
     0
 43
0.0
 10
565.0661
 20
-59.4481
 10
564.2427
 20
-61.3862
  0
LWPOLYLINE
  5
11C
330
1F
100
AcDbEntity
  8
Layer 1
 62
     7
370
     9
100
AcDbPolyline
 90
        2
 70
     0
 43
0.0
 10
564.2639
 20
-58.9261
 10
562.742
 20
-60.4097
  0
LWPOLYLINE
  5
11D
330
1F
100
AcDbEntity
  8
Layer 1
 62
     7
370
     9
100
AcDbPolyline
 90
        2
 70
     0
 43
0.0
 10
563.7279
 20
-58.1446
 10
561.7392
 20
-58.9478
  0
LWPOLYLINE
  5
11E
330
1F
100
AcDbEntity
  8
Layer 1
 62
     7
370
     9
100
AcDbPolyline
 90
        2
 70
     0
 43
0.0
 10
563.5397
 20
-57.223
 10
561.3868
 20
-57.2235
  0
LWPOLYLINE
  5
11F
330
1F
100
AcDbEntity
  8
Layer 1
 62
     7
370
     9
100
AcDbPolyline
 90
        2
 70
     0
 43
0.0
 10
563.7276
 20
-56.3012
 10
561.7385
 20
-55.499
  0
LWPOLYLINE
  5
120
330
1F
100
AcDbEntity
  8
Layer 1
 62
     7
370
     9
100
AcDbPolyline
 90
        2
 70
     0
 43
0.0
 10
564.2632
 20
-55.5196
 10
562.7405
 20
-54.0369
  0
LWPOLYLINE
  5
121
330
1F
100
AcDbEntity
  8
Layer 1
 62
     7
370
     9
100
AcDbPolyline
 90
        2
 70
     0
 43
0.0
 10
565.0651
 20
-54.9972
 10
564.2407
 20
-53.0597
  0
LWPOLYLINE
  5
122
330
1F
100
AcDbEntity
  8
Layer 1
 62
     7
370
     9
100
AcDbPolyline
 90
        2
 70
     0
 43
0.0
 10
566.0112
 20
-54.8136
 10
566.0105
 20
-52.7162
  0
LWPOLYLINE
  5
123
330
1F
100
AcDbEntity
  8
Layer 1
 62
     7
370
     9
100
AcDbPolyline
 90
        2
 70
     0
 43
0.0
 10
566.9573
 20
-54.9967
 10
567.7804
 20
-53.0586
  0
LWPOLYLINE
  5
124
330
1F
100
AcDbEntity
  8
Layer 1
 62
     7
370
     9
100
AcDbPolyline
 90
        2
 70
     0
 43
0.0
 10
566.0119
 20
-52.7162
 10
566.0119
 20
-50.5722
  0
LWPOLYLINE
  5
125
330
1F
100
AcDbEntity
  8
Layer 1
 62
     7
370
     9
100
AcDbPolyline
 90
        2
 70
     0
 43
0.0
 10
564.8239
 20
-52.878
 10
564.2543
 20
-50.807
  0
LWPOLYLINE
  5
126
330
1F
100
AcDbEntity
  8
Layer 1
 62
     7
370
     9
100
AcDbPolyline
 90
        2
 70
     0
 43
0.0
 10
563.7192
 20
-53.3338
 10
562.619
 20
-51.4772
  0
LWPOLYLINE
  5
127
330
1F
100
AcDbEntity
  8
Layer 1
 62
     7
370
     9
100
AcDbPolyline
 90
        2
 70
     0
 43
0.0
 10
562.7732
 20
-54.0527
 10
561.2173
 20
-52.5368
  0
LWPOLYLINE
  5
128
330
1F
100
AcDbEntity
  8
Layer 1
 62
     7
370
     9
100
AcDbPolyline
 90
        2
 70
     0
 43
0.0
 10
562.0506
 20
-54.9857
 10
560.145
 20
-53.9137
  0
LWPOLYLINE
  5
129
330
1F
100
AcDbEntity
  8
Layer 1
 62
     7
370
     9
100
AcDbPolyline
 90
        2
 70
     0
 43
0.0
 10
561.6004
 20
-56.069
 10
559.4749
 20
-55.5142
  0
LWPOLYLINE
  5
12A
330
1F
100
AcDbEntity
  8
Layer 1
 62
     7
370
     9
100
AcDbPolyline
 90
        2
 70
     0
 43
0.0
 10
561.4533
 20
-57.2289
 10
559.2528
 20
-57.2291
  0
LWPOLYLINE
  5
12B
330
1F
100
AcDbEntity
  8
Layer 1
 62
     7
370
     9
100
AcDbPolyline
 90
        2
 70
     0
 43
0.0
 10
561.6194
 20
-58.3864
 10
559.4938
 20
-58.9416
  0
LWPOLYLINE
  5
12C
330
1F
100
AcDbEntity
  8
Layer 1
 62
     7
370
     9
100
AcDbPolyline
 90
        2
 70
     0
 43
0.0
 10
562.0873
 20
-59.4626
 10
560.1816
 20
-60.5349
  0
LWPOLYLINE
  5
12D
330
1F
100
AcDbEntity
  8
Layer 1
 62
     7
370
     9
100
AcDbPolyline
 90
        2
 70
     0
 43
0.0
 10
562.8251
 20
-60.3842
 10
561.2691
 20
-61.9005
  0
LWPOLYLINE
  5
12E
330
1F
100
AcDbEntity
  8
Layer 1
 62
     7
370
     9
100
AcDbPolyline
 90
        2
 70
     0
 43
0.0
 10
563.7825
 20
-61.0883
 10
562.6824
 20
-62.9453
  0
LWPOLYLINE
  5
12F
330
1F
100
AcDbEntity
  8
Layer 1
 62
     7
370
     9
100
AcDbPolyline
 90
        2
 70
     0
 43
0.0
 10
564.8943
 20
-61.5269
 10
564.3251
 20
-63.5982
  0
LWPOLYLINE
  5
130
330
1F
100
AcDbEntity
  8
Layer 1
 62
     7
370
     9
100
AcDbPolyline
 90
        2
 70
     0
 43
0.0
 10
566.0848
 20
-61.6703
 10
566.0852
 20
-63.8146
  0
LWPOLYLINE
  5
131
330
1F
100
AcDbEntity
  8
Layer 1
 62
     7
370
     9
100
AcDbPolyline
 90
        2
 70
     0
 43
0.0
 10
567.2728
 20
-61.5084
 10
567.8428
 20
-63.5796
  0
LWPOLYLINE
  5
132
330
1F
100
AcDbEntity
  8
Layer 1
 62
     7
370
     9
100
AcDbPolyline
 90
        2
 70
     0
 43
0.0
 10
568.3774
 20
-61.0526
 10
569.4781
 20
-62.9095
  0
LWPOLYLINE
  5
133
330
1F
100
AcDbEntity
  8
Layer 1
 62
     7
370
     9
100
AcDbPolyline
 90
        2
 70
     0
 43
0.0
 10
569.3231
 20
-60.3337
 10
570.8796
 20
-61.8499
  0
LWPOLYLINE
  5
134
330
1F
100
AcDbEntity
  8
Layer 1
 62
     7
370
     9
100
AcDbPolyline
 90
        2
 70
     0
 43
0.0
 10
570.0458
 20
-59.4009
 10
571.9519
 20
-60.4729
  0
LWPOLYLINE
  5
135
330
1F
100
AcDbEntity
  8
Layer 1
 62
     7
370
     9
100
AcDbPolyline
 90
        2
 70
     0
 43
0.0
 10
570.4959
 20
-58.3176
 10
572.622
 20
-58.8724
  0
LWPOLYLINE
  5
136
330
1F
100
AcDbEntity
  8
Layer 1
 62
     7
370
     9
100
AcDbPolyline
 90
        2
 70
     0
 43
0.0
 10
570.6431
 20
-57.1577
 10
572.8441
 20
-57.1575
  0
LWPOLYLINE
  5
137
330
1F
100
AcDbEntity
  8
Layer 1
 62
     7
370
     9
100
AcDbPolyline
 90
        2
 70
     0
 43
0.0
 10
570.477
 20
-56.0002
 10
572.6029
 20
-55.445
  0
LWPOLYLINE
  5
138
330
1F
100
AcDbEntity
  8
Layer 1
 62
     7
370
     9
100
AcDbPolyline
 90
        2
 70
     0
 43
0.0
 10
570.0091
 20
-54.924
 10
571.9151
 20
-53.8517
  0
LWPOLYLINE
  5
139
330
1F
100
AcDbEntity
  8
Layer 1
 62
     7
370
     9
100
AcDbPolyline
 90
        2
 70
     0
 43
0.0
 10
569.2713
 20
-54.0026
 10
570.8276
 20
-52.4862
  0
LWPOLYLINE
  5
13A
330
1F
100
AcDbEntity
  8
Layer 1
 62
     7
370
     9
100
AcDbPolyline
 90
        2
 70
     0
 43
0.0
 10
568.3139
 20
-53.2985
 10
569.4143
 20
-51.4414
  0
LWPOLYLINE
  5
13B
330
1F
100
AcDbEntity
  8
Layer 1
 62
     7
370
     9
100
AcDbPolyline
 90
        2
 70
     0
 43
0.0
 10
567.202
 20
-52.8599
 10
567.7717
 20
-50.7886
  0
LWPOLYLINE
  5
13C
330
1F
100
AcDbEntity
  8
Layer 1
 62
     7
370
     9
100
AcDbPolyline
 90
        2
 70
     0
 43
0.0
 10
566.0119
 20
-48.5173
 10
566.0119
 20
-50.5722
  0
LWPOLYLINE
  5
13D
330
1F
100
AcDbEntity
  8
Layer 1
 62
     7
370
     9
100
AcDbPolyline
 90
        2
 70
     0
 43
0.0
 10
562.5991
 20
-49.1831
 10
563.407
 20
-51.0814
  0
LWPOLYLINE
  5
13E
330
1F
100
AcDbEntity
  8
Layer 1
 62
     7
370
     9
100
AcDbPolyline
 90
        2
 70
     0
 43
0.0
 10
559.7084
 20
-51.0716
 10
561.2009
 20
-52.5237
  0
LWPOLYLINE
  5
13F
330
1F
100
AcDbEntity
  8
Layer 1
 62
     7
370
     9
100
AcDbPolyline
 90
        2
 70
     0
 43
0.0
 10
557.7804
 20
-53.8949
 10
559.7298
 20
-54.6793
  0
LWPOLYLINE
  5
140
330
1F
100
AcDbEntity
  8
Layer 1
 62
     7
370
     9
100
AcDbPolyline
 90
        2
 70
     0
 43
0.0
 10
557.1092
 20
-57.2223
 10
559.2183
 20
-57.2195
  0
LWPOLYLINE
  5
141
330
1F
100
AcDbEntity
  8
Layer 1
 62
     7
370
     9
100
AcDbPolyline
 90
        2
 70
     0
 43
0.0
 10
557.7972
 20
-60.5464
 10
559.7445
 20
-59.7568
  0
LWPOLYLINE
  5
142
330
1F
100
AcDbEntity
  8
Layer 1
 62
     7
370
     9
100
AcDbPolyline
 90
        2
 70
     0
 43
0.0
 10
559.7395
 20
-63.3604
 10
561.2279
 20
-61.9044
  0
LWPOLYLINE
  5
143
330
1F
100
AcDbEntity
  8
Layer 1
 62
     7
370
     9
100
AcDbPolyline
 90
        2
 70
     0
 43
0.0
 10
562.6399
 20
-65.2351
 10
563.4423
 20
-63.3347
  0
LWPOLYLINE
  5
144
330
1F
100
AcDbEntity
  8
Layer 1
 62
     7
370
     9
100
AcDbPolyline
 90
        2
 70
     0
 43
0.0
 10
566.0559
 20
-65.8845
 10
566.0502
 20
-63.8295
  0
LWPOLYLINE
  5
145
330
1F
100
AcDbEntity
  8
Layer 1
 62
     7
370
     9
100
AcDbPolyline
 90
        2
 70
     0
 43
0.0
 10
569.4667
 20
-65.2097
 10
568.6536
 20
-63.3134
  0
LWPOLYLINE
  5
146
330
1F
100
AcDbEntity
  8
Layer 1
 62
     7
370
     9
100
AcDbPolyline
 90
        2
 70
     0
 43
0.0
 10
572.3522
 20
-63.3134
 10
570.8557
 20
-61.8652
  0
LWPOLYLINE
  5
147
330
1F
100
AcDbEntity
  8
Layer 1
 62
     7
370
     9
100
AcDbPolyline
 90
        2
 70
     0
 43
0.0
 10
574.2724
 20
-60.4851
 10
572.3206
 20
-59.7057
  0
LWPOLYLINE
  5
148
330
1F
100
AcDbEntity
  8
Layer 1
 62
     7
370
     9
100
AcDbPolyline
 90
        2
 70
     0
 43
0.0
 10
574.9342
 20
-57.1558
 10
572.8249
 20
-57.1643
  0
LWPOLYLINE
  5
149
330
1F
100
AcDbEntity
  8
Layer 1
 62
     7
370
     9
100
AcDbPolyline
 90
        2
 70
     0
 43
0.0
 10
574.237
 20
-53.8334
 10
572.2918
 20
-54.6284
  0
LWPOLYLINE
  5
14A
330
1F
100
AcDbEntity
  8
Layer 1
 62
     7
370
     9
100
AcDbPolyline
 90
        2
 70
     0
 43
0.0
 10
572.2868
 20
-51.0246
 10
570.8026
 20
-52.4848
  0
LWPOLYLINE
  5
14B
330
1F
100
AcDbEntity
  8
Layer 1
 62
     7
370
     9
100
AcDbPolyline
 90
        2
 70
     0
 43
0.0
 10
569.3812
 20
-49.1576
 10
568.5842
 20
-51.0605
  0
LWPOLYLINE
  5
14C
330
1F
100
AcDbEntity
  8
Layer 1
 62
     7
370
     9
100
AcDbPolyline
 90
        2
 70
     0
 43
0.0
 10
565.9633
 20
-48.5173
 10
565.9751
 20
-50.5724
  0
LWPOLYLINE
  5
14D
330
1F
100
AcDbEntity
  8
Layer 1
 62
     7
370
     9
100
AcDbPolyline
 90
        2
 70
     0
 43
0.0
 10
567.708
 20
-48.6739
 10
567.307
 20
-50.6915
  0
LWPOLYLINE
  5
14E
330
1F
100
AcDbEntity
  8
Layer 1
 62
     7
370
     9
100
AcDbPolyline
 90
        2
 70
     0
 43
0.0
 10
569.3877
 20
-49.1601
 10
568.5892
 20
-51.0624
  0
LWPOLYLINE
  5
14F
330
1F
100
AcDbEntity
  8
Layer 1
 62
     7
370
     9
100
AcDbPolyline
 90
        2
 70
     0
 43
0.0
 10
570.9372
 20
-49.957
 10
569.7722
 20
-51.6705
  0
LWPOLYLINE
  5
150
330
1F
100
AcDbEntity
  8
Layer 1
 62
     7
370
     9
100
AcDbPolyline
 90
        2
 70
     0
 43
0.0
 10
572.2968
 20
-51.034
 10
570.8102
 20
-52.4923
  0
LWPOLYLINE
  5
151
330
1F
100
AcDbEntity
  8
Layer 1
 62
     7
370
     9
100
AcDbPolyline
 90
        2
 70
     0
 43
0.0
 10
573.4139
 20
-52.3493
 10
571.6632
 20
-53.496
  0
LWPOLYLINE
  5
152
330
1F
100
AcDbEntity
  8
Layer 1
 62
     7
370
     9
100
AcDbPolyline
 90
        2
 70
     0
 43
0.0
 10
574.2452
 20
-53.8521
 10
572.2981
 20
-54.6429
  0
LWPOLYLINE
  5
153
330
1F
100
AcDbEntity
  8
Layer 1
 62
     7
370
     9
100
AcDbPolyline
 90
        2
 70
     0
 43
0.0
 10
574.7587
 20
-55.4842
 10
572.6905
 20
-55.8887
  0
LWPOLYLINE
  5
154
330
1F
100
AcDbEntity
  8
Layer 1
 62
     7
370
     9
100
AcDbPolyline
 90
        2
 70
     0
 43
0.0
 10
574.9346
 20
-57.1828
 10
572.8251
 20
-57.1852
  0
LWPOLYLINE
  5
155
330
1F
100
AcDbEntity
  8
Layer 1
 62
     7
370
     9
100
AcDbPolyline
 90
        2
 70
     0
 43
0.0
 10
574.766
 20
-58.882
 10
572.6968
 20
-58.4824
  0
LWPOLYLINE
  5
156
330
1F
100
AcDbEntity
  8
Layer 1
 62
     7
370
     9
100
AcDbPolyline
 90
        2
 70
     0
 43
0.0
 10
574.2595
 20
-60.5163
 10
572.3104
 20
-59.73
  0
LWPOLYLINE
  5
157
330
1F
100
AcDbEntity
  8
Layer 1
 62
     7
370
     9
100
AcDbPolyline
 90
        2
 70
     0
 43
0.0
 10
573.4346
 20
-62.0225
 10
571.6811
 20
-60.8798
  0
LWPOLYLINE
  5
158
330
1F
100
AcDbEntity
  8
Layer 1
 62
     7
370
     9
100
AcDbPolyline
 90
        2
 70
     0
 43
0.0
 10
572.3231
 20
-63.3423
 10
570.8329
 20
-61.8875
  0
LWPOLYLINE
  5
159
330
1F
100
AcDbEntity
  8
Layer 1
 62
     7
370
     9
100
AcDbPolyline
 90
        2
 70
     0
 43
0.0
 10
570.9681
 20
-64.4247
 10
569.7989
 20
-62.714
  0
LWPOLYLINE
  5
15A
330
1F
100
AcDbEntity
  8
Layer 1
 62
     7
370
     9
100
AcDbPolyline
 90
        2
 70
     0
 43
0.0
 10
569.422
 20
-65.2279
 10
568.6189
 20
-63.3275
  0
LWPOLYLINE
  5
15B
330
1F
100
AcDbEntity
  8
Layer 1
 62
     7
370
     9
100
AcDbPolyline
 90
        2
 70
     0
 43
0.0
 10
567.7445
 20
-65.7209
 10
567.3385
 20
-63.7041
  0
LWPOLYLINE
  5
15C
330
1F
100
AcDbEntity
  8
Layer 1
 62
     7
370
     9
100
AcDbPolyline
 90
        2
 70
     0
 43
0.0
 10
566.0005
 20
-65.8846
 10
566.0072
 20
-63.8294
  0
LWPOLYLINE
  5
15D
330
1F
100
AcDbEntity
  8
Layer 1
 62
     7
370
     9
100
AcDbPolyline
 90
        2
 70
     0
 43
0.0
 10
564.2571
 20
-65.7127
 10
564.6766
 20
-63.6985
  0
LWPOLYLINE
  5
15E
330
1F
100
AcDbEntity
  8
Layer 1
 62
     7
370
     9
100
AcDbPolyline
 90
        2
 70
     0
 43
0.0
 10
562.5821
 20
-65.2119
 10
563.3979
 20
-63.3165
  0
LWPOLYLINE
  5
15F
330
1F
100
AcDbEntity
  8
Layer 1
 62
     7
370
     9
100
AcDbPolyline
 90
        2
 70
     0
 43
0.0
 10
561.04
 20
-64.4014
 10
562.2206
 20
-62.6982
  0
LWPOLYLINE
  5
160
330
1F
100
AcDbEntity
  8
Layer 1
 62
     7
370
     9
100
AcDbPolyline
 90
        2
 70
     0
 43
0.0
 10
559.6903
 20
-63.3127
 10
561.1903
 20
-61.8675
  0
LWPOLYLINE
  5
161
330
1F
100
AcDbEntity
  8
Layer 1
 62
     7
370
     9
100
AcDbPolyline
 90
        2
 70
     0
 43
0.0
 10
558.5854
 20
-61.9878
 10
560.3466
 20
-60.8563
  0
LWPOLYLINE
  5
162
330
1F
100
AcDbEntity
  8
Layer 1
 62
     7
370
     9
100
AcDbPolyline
 90
        2
 70
     0
 43
0.0
 10
557.7679
 20
-60.4778
 10
559.7223
 20
-59.7038
  0
LWPOLYLINE
  5
163
330
1F
100
AcDbEntity
  8
Layer 1
 62
     7
370
     9
100
AcDbPolyline
 90
        2
 70
     0
 43
0.0
 10
557.2694
 20
-58.8411
 10
559.3415
 20
-58.4547
  0
LWPOLYLINE
  5
164
330
1F
100
AcDbEntity
  8
Layer 1
 62
     7
370
     9
100
AcDbPolyline
 90
        2
 70
     0
 43
0.0
 10
557.1092
 20
-57.141
 10
559.2189
 20
-57.1572
  0
LWPOLYLINE
  5
165
330
1F
100
AcDbEntity
  8
Layer 1
 62
     7
370
     9
100
AcDbPolyline
 90
        2
 70
     0
 43
0.0
 10
557.2936
 20
-55.4433
 10
559.359
 20
-55.8612
  0
LWPOLYLINE
  5
166
330
1F
100
AcDbEntity
  8
Layer 1
 62
     7
370
     9
100
AcDbPolyline
 90
        2
 70
     0
 43
0.0
 10
557.8151
 20
-53.8136
 10
559.7568
 20
-54.6171
  0
LWPOLYLINE
  5
167
330
1F
100
AcDbEntity
  8
Layer 1
 62
     7
370
     9
100
AcDbPolyline
 90
        2
 70
     0
 43
0.0
 10
558.6537
 20
-52.3147
 10
560.3967
 20
-53.4729
  0
LWPOLYLINE
  5
168
330
1F
100
AcDbEntity
  8
Layer 1
 62
     7
370
     9
100
AcDbPolyline
 90
        2
 70
     0
 43
0.0
 10
559.7772
 20
-51.0046
 10
561.254
 20
-52.4727
  0
LWPOLYLINE
  5
169
330
1F
100
AcDbEntity
  8
Layer 1
 62
     7
370
     9
100
AcDbPolyline
 90
        2
 70
     0
 43
0.0
 10
561.142
 20
-49.934
 10
562.2955
 20
-51.6552
  0
LWPOLYLINE
  5
16A
330
1F
100
AcDbEntity
  8
Layer 1
 62
     7
370
     9
100
AcDbPolyline
 90
        2
 70
     0
 43
0.0
 10
562.6955
 20
-49.1442
 10
563.481
 20
-51.0521
  0
LWPOLYLINE
  5
16B
330
1F
100
AcDbEntity
  8
Layer 1
 62
     7
370
     9
100
AcDbPolyline
 90
        2
 70
     0
 43
0.0
 10
564.3775
 20
-48.6659
 10
564.7649
 20
-50.6867
  0
LWPOLYLINE
  5
16C
330
1F
100
AcDbEntity
  8
Layer 1
 62
     7
370
     9
100
AcDbPolyline
 90
        2
 70
     0
 43
0.0
 10
566.0119
 20
-46.4474
 10
566.0119
 20
-48.5173
  0
LWPOLYLINE
  5
16D
330
1F
100
AcDbEntity
  8
Layer 1
 62
     7
370
     9
100
AcDbPolyline
 90
        2
 70
     0
 43
0.0
 10
570.2269
 20
-47.2584
 10
569.4139
 20
-49.1707
  0
LWPOLYLINE
  5
16E
330
1F
100
AcDbEntity
  8
Layer 1
 62
     7
370
     9
100
AcDbPolyline
 90
        2
 70
     0
 43
0.0
 10
568.1426
 20
-46.6474
 10
567.7318
 20
-48.6781
  0
LWPOLYLINE
  5
16F
330
1F
100
AcDbEntity
  8
Layer 1
 62
     7
370
     9
100
AcDbPolyline
 90
        2
 70
     0
 43
0.0
 10
572.0977
 20
-48.2252
 10
570.9243
 20
-49.9505
  0
LWPOLYLINE
  5
170
330
1F
100
AcDbEntity
  8
Layer 1
 62
     7
370
     9
100
AcDbPolyline
 90
        2
 70
     0
 43
0.0
 10
575.1384
 20
-51.1512
 10
573.3792
 20
-52.3113
  0
LWPOLYLINE
  5
171
330
1F
100
AcDbEntity
  8
Layer 1
 62
     7
370
     9
100
AcDbPolyline
 90
        2
 70
     0
 43
0.0
 10
576.8066
 20
-54.985
 10
574.7265
 20
-55.4052
  0
LWPOLYLINE
  5
172
330
1F
100
AcDbEntity
  8
Layer 1
 62
     7
370
     9
100
AcDbPolyline
 90
        2
 70
     0
 43
0.0
 10
576.8511
 20
-59.1489
 10
574.7633
 20
-58.7656
  0
LWPOLYLINE
  5
173
330
1F
100
AcDbEntity
  8
Layer 1
 62
     7
370
     9
100
AcDbPolyline
 90
        2
 70
     0
 43
0.0
 10
575.2651
 20
-63.0155
 10
573.4843
 20
-61.8868
  0
LWPOLYLINE
  5
174
330
1F
100
AcDbEntity
  8
Layer 1
 62
     7
370
     9
100
AcDbPolyline
 90
        2
 70
     0
 43
0.0
 10
572.2875
 20
-66.0027
 10
571.082
 20
-64.2983
  0
LWPOLYLINE
  5
175
330
1F
100
AcDbEntity
  8
Layer 1
 62
     7
370
     9
100
AcDbPolyline
 90
        2
 70
     0
 43
0.0
 10
568.3668
 20
-67.6603
 10
567.9183
 20
-65.6371
  0
LWPOLYLINE
  5
176
330
1F
100
AcDbEntity
  8
Layer 1
 62
     7
370
     9
100
AcDbPolyline
 90
        2
 70
     0
 43
0.0
 10
564.0937
 20
-67.7387
 10
564.4695
 20
-65.7014
  0
LWPOLYLINE
  5
177
330
1F
100
AcDbEntity
  8
Layer 1
 62
     7
370
     9
100
AcDbPolyline
 90
        2
 70
     0
 43
0.0
 10
560.1119
 20
-66.2261
 10
561.2554
 20
-64.4815
  0
LWPOLYLINE
  5
178
330
1F
100
AcDbEntity
  8
Layer 1
 62
     7
370
     9
100
AcDbPolyline
 90
        2
 70
     0
 43
0.0
 10
557.0209
 20
-63.3502
 10
558.7601
 20
-62.1611
  0
LWPOLYLINE
  5
179
330
1F
100
AcDbEntity
  8
Layer 1
 62
     7
370
     9
100
AcDbPolyline
 90
        2
 70
     0
 43
0.0
 10
555.2867
 20
-59.5443
 10
557.3595
 20
-59.09
  0
LWPOLYLINE
  5
17A
330
1F
100
AcDbEntity
  8
Layer 1
 62
     7
370
     9
100
AcDbPolyline
 90
        2
 70
     0
 43
0.0
 10
555.1703
 20
-55.3816
 10
557.2646
 20
-55.7305
  0
LWPOLYLINE
  5
17B
330
1F
100
AcDbEntity
  8
Layer 1
 62
     7
370
     9
100
AcDbPolyline
 90
        2
 70
     0
 43
0.0
 10
556.6893
 20
-51.4893
 10
558.4896
 20
-52.5888
  0
LWPOLYLINE
  5
17C
330
1F
100
AcDbEntity
  8
Layer 1
 62
     7
370
     9
100
AcDbPolyline
 90
        2
 70
     0
 43
0.0
 10
559.9962
 20
-48.1992
 10
561.1576
 20
-49.9328
  0
LWPOLYLINE
  5
17D
330
1F
100
AcDbEntity
  8
Layer 1
 62
     7
370
     9
100
AcDbPolyline
 90
        2
 70
     0
 43
0.0
 10
563.9936
 20
-46.6317
 10
564.3832
 20
-48.6668
  0
LWPOLYLINE
  5
17E
330
1F
100
AcDbEntity
  8
Layer 1
 62
     7
370
     9
100
AcDbPolyline
 90
        2
 70
     0
 43
0.0
 10
573.8025
 20
-49.5792
 10
572.3004
 20
-51.0427
  0
LWPOLYLINE
  5
17F
330
1F
100
AcDbEntity
  8
Layer 1
 62
     7
370
     9
100
AcDbPolyline
 90
        2
 70
     0
 43
0.0
 10
576.1945
 20
-53.0564
 10
574.232
 20
-53.8484
  0
LWPOLYLINE
  5
180
330
1F
100
AcDbEntity
  8
Layer 1
 62
     7
370
     9
100
AcDbPolyline
 90
        2
 70
     0
 43
0.0
 10
577.0387
 20
-57.1606
 10
574.9146
 20
-57.1608
  0
LWPOLYLINE
  5
181
330
1F
100
AcDbEntity
  8
Layer 1
 62
     7
370
     9
100
AcDbPolyline
 90
        2
 70
     0
 43
0.0
 10
576.2066
 20
-61.2674
 10
574.2441
 20
-60.4755
  0
LWPOLYLINE
  5
182
330
1F
100
AcDbEntity
  8
Layer 1
 62
     7
370
     9
100
AcDbPolyline
 90
        2
 70
     0
 43
0.0
 10
573.8251
 20
-64.7514
 10
572.3229
 20
-63.288
  0
LWPOLYLINE
  5
183
330
1F
100
AcDbEntity
  8
Layer 1
 62
     7
370
     9
100
AcDbPolyline
 90
        2
 70
     0
 43
0.0
 10
570.2564
 20
-67.0822
 10
569.4433
 20
-65.1701
  0
LWPOLYLINE
  5
184
330
1F
100
AcDbEntity
  8
Layer 1
 62
     7
370
     9
100
AcDbPolyline
 90
        2
 70
     0
 43
0.0
 10
566.0439
 20
-67.9051
 10
566.0437
 20
-65.8353
  0
LWPOLYLINE
  5
185
330
1F
100
AcDbEntity
  8
Layer 1
 62
     7
370
     9
100
AcDbPolyline
 90
        2
 70
     0
 43
0.0
 10
561.8289
 20
-67.0947
 10
562.6417
 20
-65.1825
  0
LWPOLYLINE
  5
186
330
1F
100
AcDbEntity
  8
Layer 1
 62
     7
370
     9
100
AcDbPolyline
 90
        2
 70
     0
 43
0.0
 10
558.2529
 20
-64.7745
 10
559.7549
 20
-63.311
  0
LWPOLYLINE
  5
187
330
1F
100
AcDbEntity
  8
Layer 1
 62
     7
370
     9
100
AcDbPolyline
 90
        2
 70
     0
 43
0.0
 10
555.8604
 20
-61.2977
 10
557.8229
 20
-60.5055
  0
LWPOLYLINE
  5
188
330
1F
100
AcDbEntity
  8
Layer 1
 62
     7
370
     9
100
AcDbPolyline
 90
        2
 70
     0
 43
0.0
 10
555.0155
 20
-57.1936
 10
557.1398
 20
-57.1932
  0
LWPOLYLINE
  5
189
330
1F
100
AcDbEntity
  8
Layer 1
 62
     7
370
     9
100
AcDbPolyline
 90
        2
 70
     0
 43
0.0
 10
555.8469
 20
-53.0867
 10
557.8095
 20
-53.8784
  0
LWPOLYLINE
  5
18A
330
1F
100
AcDbEntity
  8
Layer 1
 62
     7
370
     9
100
AcDbPolyline
 90
        2
 70
     0
 43
0.0
 10
558.2279
 20
-49.6023
 10
559.7302
 20
-51.0655
  0
LWPOLYLINE
  5
18B
330
1F
100
AcDbEntity
  8
Layer 1
 62
     7
370
     9
100
AcDbPolyline
 90
        2
 70
     0
 43
0.0
 10
561.7962
 20
-47.271
 10
562.6095
 20
-49.1829
  0
LWPOLYLINE
  5
18C
330
1F
100
AcDbEntity
  8
Layer 1
 62
     7
370
     9
100
AcDbPolyline
 90
        2
 70
     0
 43
0.0
 10
566.0085
 20
-46.4474
 10
566.009
 20
-48.5171
  0
LWPOLYLINE
  5
18D
330
1F
100
AcDbEntity
  8
Layer 1
 62
     7
370
    18
100
AcDbPolyline
 90
       33
 70
     1
 43
0.0
 10
566.0116
 20
-38.9299
 10
569.7954
 20
-39.3015
 10
573.3196
 20
-40.3674
 10
576.5087
 20
-42.0539
 10
579.2873
 20
-44.2876
 10
581.5798
 20
-46.9948
 10
583.3108
 20
-50.102
 10
584.4048
 20
-53.5357
 10
584.7862
 20
-57.2223
 10
584.4048
 20
-60.9089
 10
583.3108
 20
-64.3426
 10
581.5798
 20
-67.4498
 10
579.2873
 20
-70.157
 10
576.5087
 20
-72.3907
 10
573.3196
 20
-74.0772
 10
569.7954
 20
-75.1431
 10
566.0116
 20
-75.5147
 10
562.2279
 20
-75.1431
 10
558.7038
 20
-74.0772
 10
555.5148
 20
-72.3907
 10
552.7364
 20
-70.157
 10
550.444
 20
-67.4498
 10
548.7132
 20
-64.3426
 10
547.6193
 20
-60.9089
 10
547.2379
 20
-57.2223
 10
547.6193
 20
-53.5357
 10
548.7132
 20
-50.102
 10
550.444
 20
-46.9948
 10
552.7364
 20
-44.2876
 10
555.5148
 20
-42.0539
 10
558.7038
 20
-40.3674
 10
562.2279
 20
-39.3015
 10
566.0116
 20
-38.9299
  0
LWPOLYLINE
  5
18E
330
1F
100
AcDbEntity
  8
Layer 1
 62
     7
370
     9
100
AcDbPolyline
 90
       11
 70
     0
 43
0.0
 10
556.7425
 20
-41.5226
 10
558.8685
 20
-45.1673
 10
558.9535
 20
-45.1167
 10
559.1915
 20
-44.9805
 10
559.5574
 20
-44.7821
 10
560.0257
 20
-44.5449
 10
560.5712
 20
-44.2921
 10
561.1685
 20
-44.0473
 10
561.7924
 20
-43.8337
 10
562.4175
 20
-43.6748
 10
561.3866
 20
-40.159
  0
LWPOLYLINE
  5
18F
330
1F
100
AcDbEntity
  8
Layer 1
 62
     7
370
     9
100
AcDbPolyline
 90
       11
 70
     0
 43
0.0
 10
570.759
 20
-39.7108
 10
569.6386
 20
-43.7583
 10
569.7355
 20
-43.7806
 10
570.003
 20
-43.847
 10
570.4063
 20
-43.9567
 10
570.9105
 20
-44.1091
 10
571.4806
 20
-44.3033
 10
572.0819
 20
-44.5387
 10
572.6795
 20
-44.8145
 10
573.2386
 20
-45.13
 10
575.0443
 20
-41.9246
  0
LWPOLYLINE
  5
190
330
1F
100
AcDbEntity
  8
Layer 1
 62
     7
370
     9
100
AcDbPolyline
 90
       11
 70
     0
 43
0.0
 10
582.0292
 20
-48.0298
 10
578.3106
 20
-50.1386
 10
578.3634
 20
-50.2209
 10
578.5056
 20
-50.4514
 10
578.713
 20
-50.8058
 10
578.9613
 20
-51.2596
 10
579.2263
 20
-51.7884
 10
579.4838
 20
-52.3679
 10
579.7094
 20
-52.9735
 10
579.8789
 20
-53.5809
 10
583.4766
 20
-52.5403
  0
LWPOLYLINE
  5
191
330
1F
100
AcDbEntity
  8
Layer 1
 62
     7
370
     9
100
AcDbPolyline
 90
       11
 70
     0
 43
0.0
 10
584.0332
 20
-61.6669
 10
579.8676
 20
-60.617
 10
579.8457
 20
-60.7117
 10
579.7804
 20
-60.973
 10
579.6719
 20
-61.367
 10
579.5207
 20
-61.8597
 10
579.3273
 20
-62.4172
 10
579.0919
 20
-63.0055
 10
578.815
 20
-63.5906
 10
578.497
 20
-64.1385
 10
581.8053
 20
-65.8647
  0
LWPOLYLINE
  5
192
330
1F
100
AcDbEntity
  8
Layer 1
 62
     7
370
     9
100
AcDbPolyline
 90
       11
 70
     0
 43
0.0
 10
575.6116
 20
-72.7328
 10
573.4089
 20
-69.1316
 10
573.325
 20
-69.1839
 10
573.0899
 20
-69.3248
 10
572.7283
 20
-69.5305
 10
572.2652
 20
-69.7772
 10
571.7252
 20
-70.0408
 10
571.1331
 20
-70.2976
 10
570.5139
 20
-70.5236
 10
569.8923
 20
-70.6951
 10
570.9973
 20
-74.1895
  0
LWPOLYLINE
  5
193
330
1F
100
AcDbEntity
  8
Layer 1
 62
     7
370
     9
100
AcDbPolyline
 90
       11
 70
     0
 43
0.0
 10
561.6364
 20
-74.8258
 10
562.6709
 20
-70.7566
 10
562.5735
 20
-70.7363
 10
562.3047
 20
-70.6753
 10
561.8992
 20
-70.5737
 10
561.3919
 20
-70.4315
 10
560.8178
 20
-70.2487
 10
560.2116
 20
-70.0255
 10
559.6083
 20
-69.7618
 10
559.0427
 20
-69.4576
 10
557.3052
 20
-72.6986
  0
LWPOLYLINE
  5
194
330
1F
100
AcDbEntity
  8
Layer 1
 62
     7
370
     9
100
AcDbPolyline
 90
       11
 70
     0
 43
0.0
 10
550.1925
 20
-66.735
 10
553.8658
 20
-64.5519
 10
553.8113
 20
-64.4707
 10
553.6642
 20
-64.2431
 10
553.4494
 20
-63.893
 10
553.1915
 20
-63.4442
 10
552.9153
 20
-62.9209
 10
552.6457
 20
-62.3467
 10
552.4073
 20
-61.7458
 10
552.2249
 20
-61.1419
 10
548.65
 20
-62.2546
  0
LWPOLYLINE
  5
195
330
1F
100
AcDbEntity
  8
Layer 1
 62
     7
370
     9
100
AcDbPolyline
 90
       11
 70
     0
 43
0.0
 10
547.9004
 20
-53.1411
 10
552.0873
 20
-54.1071
 10
552.1072
 20
-54.012
 10
552.167
 20
-53.7494
 10
552.2671
 20
-53.3533
 10
552.4078
 20
-52.8577
 10
552.5894
 20
-52.2964
 10
552.8123
 20
-51.7035
 10
553.0767
 20
-51.113
 10
553.3831
 20
-50.5588
 10
550.0389
 20
-48.8994
  0
ENDSEC
  0
SECTION
  2
OBJECTS
  0
DICTIONARY
  5
C
330
0
100
AcDbDictionary
281
     1
  3
ACAD_DETAILVIEWSTYLE
350
19D
  3
ACAD_GROUP
350
D
  3
ACAD_LAYOUT
350
1A
  3
ACAD_MATERIAL
350
43
  3
ACAD_MLEADERSTYLE
350
5B
  3
ACAD_MLINESTYLE
350
17
  3
ACAD_PLOTSETTINGS
350
19
  3
ACAD_PLOTSTYLENAME
350
E
  3
ACAD_SCALELIST
350
47
  3
ACAD_SECTIONVIEWSTYLE
350
19E
  3
ACAD_TABLESTYLE
350
59
  3
ACAD_VISUALSTYLE
350
2A
  3
ACDB_RECOMPOSE_DATA
350
19A
  3
AcDbVariableDictionary
350
196
  0
SUN
  5
5D
330
29
100
AcDbSun
 90
        1
290
     0
 63
     7
421
 16777215
 40
1.0
291
     1
 91
  2455826
 92
 54000000
292
     0
 70
     2
 71
   256
280
     1
  0
DICTIONARY
  5
19D
102
{ACAD_REACTORS
330
C
102
}
330
C
100
AcDbDictionary
281
     1
  0
DICTIONARY
  5
D
102
{ACAD_REACTORS
330
C
102
}
330
C
100
AcDbDictionary
281
     1
  0
DICTIONARY
  5
1A
102
{ACAD_REACTORS
330
C
102
}
330
C
100
AcDbDictionary
281
     1
  3
Layout1
350
1E
  3
Layout2
350
26
  3
Model
350
22
  0
DICTIONARY
  5
43
102
{ACAD_REACTORS
330
C
102
}
330
C
100
AcDbDictionary
281
     1
  3
ByBlock
350
45
  3
ByLayer
350
44
  3
Global
350
46
  0
DICTIONARY
  5
5B
102
{ACAD_REACTORS
330
C
102
}
330
C
100
AcDbDictionary
281
     1
  3
Standard
350
5C
  0
DICTIONARY
  5
17
102
{ACAD_REACTORS
330
C
102
}
330
C
100
AcDbDictionary
281
     1
  3
Standard
350
18
  0
DICTIONARY
  5
19
102
{ACAD_REACTORS
330
C
102
}
330
C
100
AcDbDictionary
281
     1
  0
ACDBDICTIONARYWDFLT
  5
E
102
{ACAD_REACTORS
330
C
102
}
330
C
100
AcDbDictionary
281
     1
  3
Normal
350
F
100
AcDbDictionaryWithDefault
340
F
  0
DICTIONARY
  5
47
102
{ACAD_REACTORS
330
C
102
}
330
C
100
AcDbDictionary
281
     1
  3
A0
350
48
  3
A1
350
49
  3
A2
350
4A
  3
A3
350
4B
  3
A4
350
4C
  3
A5
350
4D
  3
A6
350
4E
  3
A7
350
4F
  3
A8
350
50
  3
A9
350
51
  3
B1
350
52
  3
B2
350
53
  3
B3
350
54
  3
B4
350
55
  3
B5
350
56
  3
B6
350
57
  3
B7
350
58
  0
DICTIONARY
  5
19E
102
{ACAD_REACTORS
330
C
102
}
330
C
100
AcDbDictionary
281
     1
  0
DICTIONARY
  5
59
102
{ACAD_REACTORS
330
C
102
}
330
C
100
AcDbDictionary
281
     1
  3
Standard
350
5A
  0
DICTIONARY
  5
2A
102
{ACAD_REACTORS
330
C
102
}
330
C
100
AcDbDictionary
281
     1
  3
2dWireframe
350
2F
  3
Basic
350
32
  3
Brighten
350
36
  3
ColorChange
350
3A
  3
Conceptual
350
34
  3
Dim
350
35
  3
EdgeColorOff
350
3D
  3
Facepattern
350
39
  3
Flat
350
2B
  3
FlatWithEdges
350
2C
  3
Gouraud
350
2D
  3
GouraudWithEdges
350
2E
  3
Hidden
350
31
  3
JitterOff
350
3B
  3
Linepattern
350
38
  3
OverhangOff
350
3C
  3
Realistic
350
33
  3
Shaded
350
42
  3
Shaded with edges
350
41
  3
Shades of Gray
350
3E
  3
Sketchy
350
3F
  3
Thicken
350
37
  3
Wireframe
350
30
  3
X-Ray
350
40
  0
XRECORD
  5
19A
102
{ACAD_REACTORS
330
C
102
}
330
C
100
AcDbXrecord
280
     1
 90
        1
330
5A
  0
DICTIONARY
  5
196
102
{ACAD_REACTORS
330
C
102
}
330
C
100
AcDbDictionary
281
     1
  3
CANNOSCALE
350
197
  3
CMLEADERSTYLE
350
19C
  3
CTABLESTYLE
350
19B
  0
LAYOUT
  5
1E
102
{ACAD_REACTORS
330
1A
102
}
330
1A
100
AcDbPlotSettings
  1

  2
none_device
  4

  6

 40
0.0
 41
0.0
 42
0.0
 43
0.0
 44
0.0
 45
0.0
 46
0.0
 47
0.0
 48
0.0
 49
0.0
140
0.0
141
0.0
142
1.0
143
1.0
 70
   688
 72
     0
 73
     0
 74
     5
  7

 75
    16
 76
     0
 77
     2
 78
   300
147
1.0
148
0.0
149
0.0
100
AcDbLayout
  1
Layout1
 70
     1
 71
     1
 10
0.0
 20
0.0
 11
12.0
 21
9.0
 12
0.0
 22
0.0
 32
0.0
 14
1.000000000000000E+20
 24
1.000000000000000E+20
 34
1.000000000000000E+20
 15
-1.000000000000000E+20
 25
-1.000000000000000E+20
 35
-1.000000000000000E+20
146
0.0
 13
0.0
 23
0.0
 33
0.0
 16
1.0
 26
0.0
 36
0.0
 17
0.0
 27
1.0
 37
0.0
 76
     0
330
1B
  0
LAYOUT
  5
26
102
{ACAD_REACTORS
330
1A
102
}
330
1A
100
AcDbPlotSettings
  1

  2
none_device
  4

  6

 40
0.0
 41
0.0
 42
0.0
 43
0.0
 44
0.0
 45
0.0
 46
0.0
 47
0.0
 48
0.0
 49
0.0
140
0.0
141
0.0
142
1.0
143
1.0
 70
   688
 72
     0
 73
     0
 74
     5
  7

 75
    16
 76
     0
 77
     2
 78
   300
147
1.0
148
0.0
149
0.0
100
AcDbLayout
  1
Layout2
 70
     1
 71
     2
 10
0.0
 20
0.0
 11
0.0
 21
0.0
 12
0.0
 22
0.0
 32
0.0
 14
0.0
 24
0.0
 34
0.0
 15
0.0
 25
0.0
 35
0.0
146
0.0
 13
0.0
 23
0.0
 33
0.0
 16
1.0
 26
0.0
 36
0.0
 17
0.0
 27
1.0
 37
0.0
 76
     0
330
23
  0
LAYOUT
  5
22
102
{ACAD_REACTORS
330
1A
102
}
330
1A
100
AcDbPlotSettings
  1

  2
none_device
  4
Letter_(8.50_x_11.00_Inches)
  6

 40
6.35
 41
6.35
 42
6.35000508
 43
6.35000508
 44
215.9
 45
279.4
 46
0.0
 47
0.0
 48
0.0
 49
0.0
140
0.0
141
0.0
142
1.0
143
1.0
 70
  1712
 72
     0
 73
     0
 74
     0
  7

 75
     0
 76
     0
 77
     2
 78
   300
147
1.0
148
0.0
149
0.0
100
AcDbLayout
  1
Model
 70
     1
 71
     0
 10
0.0
 20
0.0
 11
12.0
 21
9.0
 12
0.0
 22
0.0
 32
0.0
 14
393.3015
 24
-225.5011
 34
0.0
 15
793.4778
 25
174.6754
 35
0.0
146
0.0
 13
0.0
 23
0.0
 33
0.0
 16
1.0
 26
0.0
 36
0.0
 17
0.0
 27
1.0
 37
0.0
 76
     0
330
1F
331
29
  0
MATERIAL
  5
45
102
{ACAD_REACTORS
330
43
102
}
330
43
100
AcDbMaterial
  1
ByBlock
 72
     1
 94
      127
  0
MATERIAL
  5
44
102
{ACAD_REACTORS
330
43
102
}
330
43
100
AcDbMaterial
  1
ByLayer
 72
     1
 94
      127
  0
MATERIAL
  5
46
102
{ACAD_REACTORS
330
43
102
}
330
43
100
AcDbMaterial
  1
Global
 72
     1
 94
      127
  0
MLEADERSTYLE
  5
5C
102
{ACAD_REACTORS
330
5B
102
}
330
5B
100
AcDbMLeaderStyle
179
     2
170
     2
171
     1
172
     0
 90
        2
 40
0.0
 41
0.0
173
     1
 91
-1056964608
340
14
 92
       -2
290
     1
 42
0.09
291
     1
 43
0.36
  3
Standard
341
0
 44
0.18
300

342
11
174
     1
178
     6
175
     1
176
     0
 93
-1056964608
 45
0.18
292
     0
297
     0
 46
0.18
343
0
 94
-1056964608
 47
1.0
 49
1.0
140
1.0
293
     1
141
0.0
294
     1
177
     0
142
1.0
295
     0
296
     0
143
0.125
271
     0
272
     9
273
     9
298
     0
  0
MLINESTYLE
  5
18
102
{ACAD_REACTORS
330
17
102
}
330
17
100
AcDbMlineStyle
  2
Standard
 70
     0
  3

 62
   256
 51
90.0
 52
90.0
 71
     2
 49
0.5
 62
   256
  6
BYLAYER
 49
-0.5
 62
   256
  6
BYLAYER
  0
ACDBPLACEHOLDER
  5
F
102
{ACAD_REACTORS
330
E
102
}
330
E
  0
SCALE
  5
48
102
{ACAD_REACTORS
330
47
102
}
330
47
100
AcDbScale
 70
     0
300
1:1
140
1.0
141
1.0
290
     1
  0
SCALE
  5
49
102
{ACAD_REACTORS
330
47
102
}
330
47
100
AcDbScale
 70
     0
300
1/128" = 1'-0"
140
0.0078125
141
12.0
290
     0
  0
SCALE
  5
4A
102
{ACAD_REACTORS
330
47
102
}
330
47
100
AcDbScale
 70
     0
300
1/64" = 1'-0"
140
0.015625
141
12.0
290
     0
  0
SCALE
  5
4B
102
{ACAD_REACTORS
330
47
102
}
330
47
100
AcDbScale
 70
     0
300
1/32" = 1'-0"
140
0.03125
141
12.0
290
     0
  0
SCALE
  5
4C
102
{ACAD_REACTORS
330
47
102
}
330
47
100
AcDbScale
 70
     0
300
1/16" = 1'-0"
140
0.0625
141
12.0
290
     0
  0
SCALE
  5
4D
102
{ACAD_REACTORS
330
47
102
}
330
47
100
AcDbScale
 70
     0
300
3/32" = 1'-0"
140
0.09375
141
12.0
290
     0
  0
SCALE
  5
4E
102
{ACAD_REACTORS
330
47
102
}
330
47
100
AcDbScale
 70
     0
300
1/8" = 1'-0"
140
0.125
141
12.0
290
     0
  0
SCALE
  5
4F
102
{ACAD_REACTORS
330
47
102
}
330
47
100
AcDbScale
 70
     0
300
3/16" = 1'-0"
140
0.1875
141
12.0
290
     0
  0
SCALE
  5
50
102
{ACAD_REACTORS
330
47
102
}
330
47
100
AcDbScale
 70
     0
300
1/4" = 1'-0"
140
0.25
141
12.0
290
     0
  0
SCALE
  5
51
102
{ACAD_REACTORS
330
47
102
}
330
47
100
AcDbScale
 70
     0
300
3/8" = 1'-0"
140
0.375
141
12.0
290
     0
  0
SCALE
  5
52
102
{ACAD_REACTORS
330
47
102
}
330
47
100
AcDbScale
 70
     0
300
1/2" = 1'-0"
140
0.5
141
12.0
290
     0
  0
SCALE
  5
53
102
{ACAD_REACTORS
330
47
102
}
330
47
100
AcDbScale
 70
     0
300
3/4" = 1'-0"
140
0.75
141
12.0
290
     0
  0
SCALE
  5
54
102
{ACAD_REACTORS
330
47
102
}
330
47
100
AcDbScale
 70
     0
300
1" = 1'-0"
140
1.0
141
12.0
290
     0
  0
SCALE
  5
55
102
{ACAD_REACTORS
330
47
102
}
330
47
100
AcDbScale
 70
     0
300
1-1/2" = 1'-0"
140
1.5
141
12.0
290
     0
  0
SCALE
  5
56
102
{ACAD_REACTORS
330
47
102
}
330
47
100
AcDbScale
 70
     0
300
3" = 1'-0"
140
3.0
141
12.0
290
     0
  0
SCALE
  5
57
102
{ACAD_REACTORS
330
47
102
}
330
47
100
AcDbScale
 70
     0
300
6" = 1'-0"
140
6.0
141
12.0
290
     0
  0
SCALE
  5
58
102
{ACAD_REACTORS
330
47
102
}
330
47
100
AcDbScale
 70
     0
300
1'-0" = 1'-0"
140
12.0
141
12.0
290
     0
  0
TABLESTYLE
  5
5A
102
{ACAD_REACTORS
330
59
102
}
102
{ACAD_XDICTIONARY
360
198
102
}
330
59
100
AcDbTableStyle
  3
Standard
 70
     0
 71
     0
 40
0.06
 41
0.06
280
     0
281
     0
  7
Standard
140
0.18
170
     2
 62
     0
 63
   257
283
     0
 90
        4
 91
        0
  1

274
    -2
284
     1
 64
     0
275
    -2
285
     1
 65
     0
276
    -2
286
     1
 66
     0
277
    -2
287
     1
 67
     0
278
    -2
288
     1
 68
     0
279
    -2
289
     1
 69
     0
  7
Standard
140
0.25
170
     5
 62
     0
 63
   257
283
     0
 90
        4
 91
        0
  1

274
    -2
284
     1
 64
     0
275
    -2
285
     1
 65
     0
276
    -2
286
     1
 66
     0
277
    -2
287
     1
 67
     0
278
    -2
288
     1
 68
     0
279
    -2
289
     1
 69
     0
  7
Standard
140
0.18
170
     5
 62
     0
 63
   257
283
     0
 90
        4
 91
        0
  1

274
    -2
284
     1
 64
     0
275
    -2
285
     1
 65
     0
276
    -2
286
     1
 66
     0
277
    -2
287
     1
 67
     0
278
    -2
288
     1
 68
     0
279
    -2
289
     1
 69
     0
  0
VISUALSTYLE
  5
2F
102
{ACAD_REACTORS
330
2A
102
}
330
2A
100
AcDbVisualStyle
  2
2dWireframe
 70
     4
177
     3
291
     0
 70
    58
 90
        0
176
     1
 90
        2
176
     1
 90
        0
176
     1
 90
        0
176
     1
 40
0.6
176
     1
 40
30.0
176
     1
 62
     7
420
 16777215
176
     1
 90
        1
176
     1
 90
        4
176
     1
 62
     7
176
     1
 62
   257
176
     1
 90
        1
176
     1
 90
        1
176
     1
 40
1.0
176
     1
 90
        0
176
     1
 62
   257
176
     1
 40
1.0
176
     1
 90
        1
176
     1
 90
        6
176
     1
 90
        2
176
     1
 62
     7
176
     1
 90
        5
176
     1
 90
        0
176
     1
 90
        0
176
     1
290
     0
176
     1
 90
        1
176
     1
 40
0.0
176
     1
 90
        0
176
     1
290
     1
176
     1
290
     1
176
     1
290
     0
176
     1
290
     0
176
     1
290
     0
176
     1
290
     0
176
     1
290
     0
176
     1
290
     0
176
     1
290
     0
176
     1
 90
       50
176
     1
 40
0.0
176
     1
 40
1.0
176
     1
 90
        0
176
     1
 62
    18
420
        0
176
     1
 90
       50
176
     1
 90
        3
176
     1
 62
     5
420
      255
176
     1
290
     0
176
     1
 90
       50
176
     1
 90
       50
176
     1
 90
       50
176
     1
290
     0
176
     1
 90
       50
176
     1
 62
   256
176
     0
 40
1.0
176
     0
 90
        2
176
     1
  1
strokes_ogs.tif
176
     1
290
     0
176
     1
 40
1.0
176
     1
 40
1.0
176
     1
  0
VISUALSTYLE
  5
32
102
{ACAD_REACTORS
330
2A
102
}
330
2A
100
AcDbVisualStyle
  2
Basic
 70
     7
177
     3
291
     1
 70
    58
 90
        1
176
     1
 90
        0
176
     1
 90
        1
176
     1
 90
        0
176
     1
 40
0.6
176
     1
 40
30.0
176
     1
 62
     7
420
 16777215
176
     1
 90
        0
176
     1
 90
        4
176
     1
 62
     7
176
     1
 62
   257
176
     1
 90
        1
176
     1
 90
        1
176
     1
 40
1.0
176
     1
 90
        8
176
     1
 62
     7
176
     1
 40
1.0
176
     1
 90
        1
176
     1
 90
        6
176
     1
 90
        2
176
     1
 62
     7
176
     1
 90
        5
176
     1
 90
        0
176
     1
 90
        0
176
     1
290
     0
176
     1
 90
        1
176
     1
 40
0.0
176
     1
 90
        0
176
     1
290
     0
176
     1
290
     1
176
     1
290
     1
176
     1
290
     0
176
     1
290
     0
176
     1
290
     0
176
     1
290
     0
176
     1
290
     0
176
     1
290
     0
176
     1
 90
       50
176
     1
 40
0.0
176
     1
 40
1.0
176
     1
 90
        0
176
     1
 62
    18
420
        0
176
     1
 90
       50
176
     1
 90
        3
176
     1
 62
     5
420
      255
176
     1
290
     0
176
     1
 90
       50
176
     1
 90
       50
176
     1
 90
       50
176
     1
290
     0
176
     1
 90
       50
176
     1
 62
   256
176
     0
 40
1.0
176
     0
 90
        2
176
     1
  1
strokes_ogs.tif
176
     1
290
     0
176
     1
 40
1.0
176
     1
 40
1.0
176
     1
  0
VISUALSTYLE
  5
36
102
{ACAD_REACTORS
330
2A
102
}
330
2A
100
AcDbVisualStyle
  2
Brighten
 70
    12
177
     3
291
     1
 70
    58
 90
        2
176
     1
 90
        2
176
     1
 90
        0
176
     1
 90
        0
176
     1
 40
0.6
176
     1
 40
30.0
176
     1
 62
     7
420
 16777215
176
     1
 90
        1
176
     1
 90
        4
176
     1
 62
     7
176
     1
 62
   257
176
     1
 90
        1
176
     1
 90
        1
176
     1
 40
1.0
176
     1
 90
        8
176
     1
 62
     7
176
     1
 40
1.0
176
     1
 90
        1
176
     1
 90
        6
176
     1
 90
        2
176
     1
 62
     7
176
     1
 90
        5
176
     1
 90
        0
176
     1
 90
        0
176
     1
290
     0
176
     1
 90
        1
176
     1
 40
50.0
176
     1
 90
        0
176
     1
290
     0
176
     1
290
     1
176
     1
290
     1
176
     1
290
     0
176
     1
290
     0
176
     1
290
     0
176
     1
290
     0
176
     1
290
     0
176
     1
290
     0
176
     1
 90
       50
176
     1
 40
0.0
176
     1
 40
1.0
176
     1
 90
        0
176
     1
 62
    18
420
        0
176
     1
 90
       50
176
     1
 90
        3
176
     1
 62
     5
420
      255
176
     1
290
     0
176
     1
 90
       50
176
     1
 90
       50
176
     1
 90
       50
176
     1
290
     0
176
     1
 90
       50
176
     1
 62
   256
176
     0
 40
1.0
176
     0
 90
        2
176
     1
  1
strokes_ogs.tif
176
     1
290
     0
176
     1
 40
1.0
176
     1
 40
1.0
176
     1
  0
VISUALSTYLE
  5
3A
102
{ACAD_REACTORS
330
2A
102
}
330
2A
100
AcDbVisualStyle
  2
ColorChange
 70
    16
177
     3
291
     1
 70
    58
 90
        2
176
     1
 90
        2
176
     1
 90
        3
176
     1
 90
        0
176
     1
 40
0.6
176
     1
 40
30.0
176
     1
 62
     8
420
  8421504
176
     1
 90
        1
176
     1
 90
        4
176
     1
 62
     7
176
     1
 62
   257
176
     1
 90
        1
176
     1
 90
        1
176
     1
 40
1.0
176
     1
 90
        8
176
     1
 62
     8
420
  8421504
176
     1
 40
1.0
176
     1
 90
        1
176
     1
 90
        6
176
     1
 90
        2
176
     1
 62
     7
176
     1
 90
        5
176
     1
 90
        0
176
     1
 90
        0
176
     1
290
     0
176
     1
 90
        1
176
     1
 40
0.0
176
     1
 90
        0
176
     1
290
     0
176
     1
290
     1
176
     1
290
     1
176
     1
290
     0
176
     1
290
     0
176
     1
290
     0
176
     1
290
     0
176
     1
290
     0
176
     1
290
     0
176
     1
 90
       50
176
     1
 40
0.0
176
     1
 40
1.0
176
     1
 90
        0
176
     1
 62
    18
420
        0
176
     1
 90
       50
176
     1
 90
        3
176
     1
 62
     5
420
      255
176
     1
290
     0
176
     1
 90
       50
176
     1
 90
       50
176
     1
 90
       50
176
     1
290
     0
176
     1
 90
       50
176
     1
 62
   256
176
     0
 40
1.0
176
     0
 90
        2
176
     1
  1
strokes_ogs.tif
176
     1
290
     0
176
     1
 40
1.0
176
     1
 40
1.0
176
     1
  0
VISUALSTYLE
  5
34
102
{ACAD_REACTORS
330
2A
102
}
330
2A
100
AcDbVisualStyle
  2
Conceptual
 70
     9
177
     3
291
     0
 70
    58
 90
        3
176
     1
 90
        2
176
     1
 90
        0
176
     1
 90
        0
176
     1
 40
0.6
176
     1
 40
30.0
176
     1
 62
     7
420
 16777215
176
     1
 90
        2
176
     1
 90
        2
176
     1
 62
     7
176
     1
 62
   257
176
     1
 90
        1
176
     1
 90
        1
176
     1
 40
179.0
176
     1
 90
        8
176
     1
 62
     7
176
     1
 40
1.0
176
     1
 90
        1
176
     1
 90
        6
176
     1
 90
        2
176
     1
 62
     7
176
     1
 90
        3
176
     1
 90
        0
176
     1
 90
        0
176
     1
290
     0
176
     1
 90
        1
176
     1
 40
0.0
176
     1
 90
        0
176
     1
290
     0
176
     1
290
     1
176
     1
290
     1
176
     1
290
     0
176
     1
290
     0
176
     1
290
     0
176
     1
290
     0
176
     1
290
     0
176
     1
290
     0
176
     1
 90
       50
176
     1
 40
0.0
176
     1
 40
1.0
176
     1
 90
        0
176
     1
 62
    18
420
        0
176
     1
 90
       50
176
     1
 90
        3
176
     1
 62
     5
420
      255
176
     1
290
     0
176
     1
 90
       50
176
     1
 90
       50
176
     1
 90
       50
176
     1
290
     0
176
     1
 90
       50
176
     1
 62
   256
176
     0
 40
1.0
176
     0
 90
        2
176
     1
  1
strokes_ogs.tif
176
     1
290
     0
176
     1
 40
1.0
176
     1
 40
1.0
176
     1
  0
VISUALSTYLE
  5
35
102
{ACAD_REACTORS
330
2A
102
}
330
2A
100
AcDbVisualStyle
  2
Dim
 70
    11
177
     3
291
     1
 70
    58
 90
        2
176
     1
 90
        2
176
     1
 90
        0
176
     1
 90
        0
176
     1
 40
0.6
176
     1
 40
30.0
176
     1
 62
     7
420
 16777215
176
     1
 90
        1
176
     1
 90
        4
176
     1
 62
     7
176
     1
 62
   257
176
     1
 90
        1
176
     1
 90
        1
176
     1
 40
1.0
176
     1
 90
        8
176
     1
 62
     7
176
     1
 40
1.0
176
     1
 90
        1
176
     1
 90
        6
176
     1
 90
        2
176
     1
 62
     7
176
     1
 90
        5
176
     1
 90
        0
176
     1
 90
        0
176
     1
290
     0
176
     1
 90
        1
176
     1
 40
-50.0
176
     1
 90
        0
176
     1
290
     0
176
     1
290
     1
176
     1
290
     1
176
     1
290
     0
176
     1
290
     0
176
     1
290
     0
176
     1
290
     0
176
     1
290
     0
176
     1
290
     0
176
     1
 90
       50
176
     1
 40
0.0
176
     1
 40
1.0
176
     1
 90
        0
176
     1
 62
    18
420
        0
176
     1
 90
       50
176
     1
 90
        3
176
     1
 62
     5
420
      255
176
     1
290
     0
176
     1
 90
       50
176
     1
 90
       50
176
     1
 90
       50
176
     1
290
     0
176
     1
 90
       50
176
     1
 62
   256
176
     0
 40
1.0
176
     0
 90
        2
176
     1
  1
strokes_ogs.tif
176
     1
290
     0
176
     1
 40
1.0
176
     1
 40
1.0
176
     1
  0
VISUALSTYLE
  5
3D
102
{ACAD_REACTORS
330
2A
102
}
330
2A
100
AcDbVisualStyle
  2
EdgeColorOff
 70
    22
177
     3
291
     1
 70
    58
 90
        2
176
     0
 90
        2
176
     0
 90
        0
176
     0
 90
        0
176
     0
 40
0.6
176
     0
 40
30.0
176
     0
 62
     7
420
 16777215
176
     0
 90
        1
176
     0
 90
        4
176
     0
 62
     7
176
     0
 62
   257
176
     0
 90
        1
176
     0
 90
        1
176
     0
 40
1.0
176
     0
 90
        8
176
     2
 62
     7
176
     0
 40
1.0
176
     0
 90
        1
176
     0
 90
        6
176
     0
 90
        2
176
     0
 62
     7
176
     0
 90
        5
176
     0
 90
        0
176
     0
 90
        0
176
     0
290
     0
176
     0
 90
        1
176
     0
 40
0.0
176
     0
 90
        0
176
     0
290
     0
176
     0
290
     1
176
     0
290
     1
176
     0
290
     0
176
     0
290
     0
176
     0
290
     0
176
     0
290
     0
176
     0
290
     0
176
     0
290
     0
176
     0
 90
       50
176
     0
 40
0.0
176
     0
 40
1.0
176
     0
 90
        0
176
     0
 62
    18
420
        0
176
     0
 90
       50
176
     0
 90
        3
176
     0
 62
     5
420
      255
176
     0
290
     0
176
     0
 90
       50
176
     0
 90
       50
176
     0
 90
       50
176
     0
290
     0
176
     0
 90
       50
176
     0
 62
   256
176
     0
 40
1.0
176
     0
 90
        2
176
     0
  1
strokes_ogs.tif
176
     0
290
     0
176
     0
 40
1.0
176
     0
 40
1.0
176
     0
  0
VISUALSTYLE
  5
39
102
{ACAD_REACTORS
330
2A
102
}
330
2A
100
AcDbVisualStyle
  2
Facepattern
 70
    15
177
     3
291
     1
 70
    58
 90
        2
176
     1
 90
        2
176
     1
 90
        0
176
     1
 90
        0
176
     1
 40
0.6
176
     1
 40
30.0
176
     1
 62
     7
420
 16777215
176
     1
 90
        1
176
     1
 90
        4
176
     1
 62
     7
176
     1
 62
   257
176
     1
 90
        1
176
     1
 90
        1
176
     1
 40
1.0
176
     1
 90
        8
176
     1
 62
     7
176
     1
 40
1.0
176
     1
 90
        1
176
     1
 90
        6
176
     1
 90
        2
176
     1
 62
     7
176
     1
 90
        5
176
     1
 90
        0
176
     1
 90
        0
176
     1
290
     0
176
     1
 90
        1
176
     1
 40
0.0
176
     1
 90
        0
176
     1
290
     0
176
     1
290
     1
176
     1
290
     1
176
     1
290
     0
176
     1
290
     0
176
     1
290
     0
176
     1
290
     0
176
     1
290
     0
176
     1
290
     0
176
     1
 90
       50
176
     1
 40
0.0
176
     1
 40
1.0
176
     1
 90
        0
176
     1
 62
    18
420
        0
176
     1
 90
       50
176
     1
 90
        3
176
     1
 62
     5
420
      255
176
     1
290
     0
176
     1
 90
       50
176
     1
 90
       50
176
     1
 90
       50
176
     1
290
     0
176
     1
 90
       50
176
     1
 62
   256
176
     0
 40
1.0
176
     0
 90
        2
176
     1
  1
strokes_ogs.tif
176
     1
290
     0
176
     1
 40
1.0
176
     1
 40
1.0
176
     1
  0
VISUALSTYLE
  5
2B
102
{ACAD_REACTORS
330
2A
102
}
330
2A
100
AcDbVisualStyle
  2
Flat
 70
     0
177
     3
291
     1
 70
    58
 90
        2
176
     1
 90
        1
176
     1
 90
        1
176
     1
 90
        2
176
     1
 40
0.6
176
     1
 40
30.0
176
     1
 62
     7
420
 16777215
176
     1
 90
        0
176
     1
 90
        0
176
     1
 62
     7
176
     1
 62
   257
176
     1
 90
        1
176
     1
 90
        1
176
     1
 40
1.0
176
     1
 90
        8
176
     1
 62
     7
176
     1
 40
1.0
176
     1
 90
        1
176
     1
 90
        6
176
     1
 90
        2
176
     1
 62
     7
176
     1
 90
        5
176
     1
 90
        0
176
     1
 90
        0
176
     1
290
     0
176
     1
 90
       13
176
     1
 40
0.0
176
     1
 90
        0
176
     1
290
     0
176
     1
290
     1
176
     1
290
     1
176
     1
290
     0
176
     1
290
     0
176
     1
290
     0
176
     1
290
     0
176
     1
290
     0
176
     1
290
     0
176
     1
 90
       50
176
     1
 40
0.0
176
     1
 40
1.0
176
     1
 90
        0
176
     1
 62
    18
420
        0
176
     1
 90
       50
176
     1
 90
        3
176
     1
 62
     5
420
      255
176
     1
290
     0
176
     1
 90
       50
176
     1
 90
       50
176
     1
 90
       50
176
     1
290
     0
176
     1
 90
       50
176
     1
 62
   256
176
     0
 40
1.0
176
     0
 90
        2
176
     1
  1
strokes_ogs.tif
176
     1
290
     0
176
     1
 40
1.0
176
     1
 40
1.0
176
     1
  0
VISUALSTYLE
  5
2C
102
{ACAD_REACTORS
330
2A
102
}
330
2A
100
AcDbVisualStyle
  2
FlatWithEdges
 70
     1
177
     3
291
     1
 70
    58
 90
        2
176
     1
 90
        1
176
     1
 90
        1
176
     1
 90
        2
176
     1
 40
0.6
176
     1
 40
30.0
176
     1
 62
     7
420
 16777215
176
     1
 90
        1
176
     1
 90
        0
176
     1
 62
     7
176
     1
 62
   257
176
     1
 90
        1
176
     1
 90
        1
176
     1
 40
1.0
176
     1
 90
        0
176
     1
 62
   257
176
     1
 40
1.0
176
     1
 90
        1
176
     1
 90
        6
176
     1
 90
        2
176
     1
 62
     7
176
     1
 90
        5
176
     1
 90
        0
176
     1
 90
        0
176
     1
290
     0
176
     1
 90
       13
176
     1
 40
0.0
176
     1
 90
        0
176
     1
290
     0
176
     1
290
     1
176
     1
290
     1
176
     1
290
     0
176
     1
290
     0
176
     1
290
     0
176
     1
290
     0
176
     1
290
     0
176
     1
290
     0
176
     1
 90
       50
176
     1
 40
0.0
176
     1
 40
1.0
176
     1
 90
        0
176
     1
 62
    18
420
        0
176
     1
 90
       50
176
     1
 90
        3
176
     1
 62
     5
420
      255
176
     1
290
     0
176
     1
 90
       50
176
     1
 90
       50
176
     1
 90
       50
176
     1
290
     0
176
     1
 90
       50
176
     1
 62
   256
176
     0
 40
1.0
176
     0
 90
        2
176
     1
  1
strokes_ogs.tif
176
     1
290
     0
176
     1
 40
1.0
176
     1
 40
1.0
176
     1
  0
VISUALSTYLE
  5
2D
102
{ACAD_REACTORS
330
2A
102
}
330
2A
100
AcDbVisualStyle
  2
Gouraud
 70
     2
177
     3
291
     1
 70
    58
 90
        2
176
     1
 90
        2
176
     1
 90
        1
176
     1
 90
        2
176
     1
 40
0.6
176
     1
 40
30.0
176
     1
 62
     7
420
 16777215
176
     1
 90
        0
176
     1
 90
        0
176
     1
 62
     7
176
     1
 62
   257
176
     1
 90
        1
176
     1
 90
        1
176
     1
 40
1.0
176
     1
 90
        0
176
     1
 62
     7
176
     1
 40
1.0
176
     1
 90
        1
176
     1
 90
        6
176
     1
 90
        2
176
     1
 62
     7
176
     1
 90
        5
176
     1
 90
        0
176
     1
 90
        0
176
     1
290
     0
176
     1
 90
       13
176
     1
 40
0.0
176
     1
 90
        0
176
     1
290
     0
176
     1
290
     1
176
     1
290
     1
176
     1
290
     0
176
     1
290
     0
176
     1
290
     0
176
     1
290
     0
176
     1
290
     0
176
     1
290
     0
176
     1
 90
       50
176
     1
 40
0.0
176
     1
 40
1.0
176
     1
 90
        0
176
     1
 62
    18
420
        0
176
     1
 90
       50
176
     1
 90
        3
176
     1
 62
     5
420
      255
176
     1
290
     0
176
     1
 90
       50
176
     1
 90
       50
176
     1
 90
       50
176
     1
290
     0
176
     1
 90
       50
176
     1
 62
   256
176
     0
 40
1.0
176
     0
 90
        2
176
     1
  1
strokes_ogs.tif
176
     1
290
     0
176
     1
 40
1.0
176
     1
 40
1.0
176
     1
  0
VISUALSTYLE
  5
2E
102
{ACAD_REACTORS
330
2A
102
}
330
2A
100
AcDbVisualStyle
  2
GouraudWithEdges
 70
     3
177
     3
291
     1
 70
    58
 90
        2
176
     1
 90
        2
176
     1
 90
        1
176
     1
 90
        2
176
     1
 40
0.6
176
     1
 40
30.0
176
     1
 62
     7
420
 16777215
176
     1
 90
        1
176
     1
 90
        0
176
     1
 62
     7
176
     1
 62
   257
176
     1
 90
        1
176
     1
 90
        1
176
     1
 40
1.0
176
     1
 90
        0
176
     1
 62
   257
176
     1
 40
1.0
176
     1
 90
        1
176
     1
 90
        6
176
     1
 90
        2
176
     1
 62
     7
176
     1
 90
        5
176
     1
 90
        0
176
     1
 90
        0
176
     1
290
     0
176
     1
 90
       13
176
     1
 40
0.0
176
     1
 90
        0
176
     1
290
     0
176
     1
290
     1
176
     1
290
     1
176
     1
290
     0
176
     1
290
     0
176
     1
290
     0
176
     1
290
     0
176
     1
290
     0
176
     1
290
     0
176
     1
 90
       50
176
     1
 40
0.0
176
     1
 40
1.0
176
     1
 90
        0
176
     1
 62
    18
420
        0
176
     1
 90
       50
176
     1
 90
        3
176
     1
 62
     5
420
      255
176
     1
290
     0
176
     1
 90
       50
176
     1
 90
       50
176
     1
 90
       50
176
     1
290
     0
176
     1
 90
       50
176
     1
 62
   256
176
     0
 40
1.0
176
     0
 90
        2
176
     1
  1
strokes_ogs.tif
176
     1
290
     0
176
     1
 40
1.0
176
     1
 40
1.0
176
     1
  0
VISUALSTYLE
  5
31
102
{ACAD_REACTORS
330
2A
102
}
330
2A
100
AcDbVisualStyle
  2
Hidden
 70
     6
177
     3
291
     0
 70
    58
 90
        1
176
     1
 90
        2
176
     1
 90
        2
176
     1
 90
        0
176
     1
 40
0.6
176
     1
 40
30.0
176
     1
 62
     7
420
 16777215
176
     1
 90
        2
176
     1
 90
        2
176
     1
 62
     7
176
     1
 62
   257
176
     1
 90
        2
176
     1
 90
        1
176
     1
 40
40.0
176
     1
 90
        0
176
     1
 62
   257
176
     1
 40
1.0
176
     1
 90
        1
176
     1
 90
        6
176
     1
 90
        2
176
     1
 62
     7
176
     1
 90
        3
176
     1
 90
        0
176
     1
 90
        0
176
     1
290
     0
176
     1
 90
        1
176
     1
 40
0.0
176
     1
 90
        0
176
     1
290
     0
176
     1
290
     1
176
     1
290
     1
176
     1
290
     0
176
     1
290
     0
176
     1
290
     0
176
     1
290
     0
176
     1
290
     0
176
     1
290
     0
176
     1
 90
       50
176
     1
 40
0.0
176
     1
 40
1.0
176
     1
 90
        0
176
     1
 62
    18
420
        0
176
     1
 90
       50
176
     1
 90
        3
176
     1
 62
     5
420
      255
176
     1
290
     0
176
     1
 90
       50
176
     1
 90
       50
176
     1
 90
       50
176
     1
290
     0
176
     1
 90
       50
176
     1
 62
   256
176
     0
 40
1.0
176
     0
 90
        2
176
     1
  1
strokes_ogs.tif
176
     1
290
     0
176
     1
 40
1.0
176
     1
 40
1.0
176
     1
  0
VISUALSTYLE
  5
3B
102
{ACAD_REACTORS
330
2A
102
}
330
2A
100
AcDbVisualStyle
  2
JitterOff
 70
    20
177
     3
291
     1
 70
    58
 90
        2
176
     0
 90
        2
176
     0
 90
        0
176
     0
 90
        0
176
     0
 40
0.6
176
     0
 40
30.0
176
     0
 62
     7
420
 16777215
176
     0
 90
        1
176
     0
 90
        4
176
     0
 62
     7
176
     0
 62
   257
176
     0
 90
        1
176
     0
 90
        1
176
     0
 40
1.0
176
     0
 90
       10
176
     2
 62
     7
176
     0
 40
1.0
176
     0
 90
        1
176
     0
 90
        6
176
     0
 90
        2
176
     0
 62
     7
176
     0
 90
        5
176
     0
 90
        0
176
     0
 90
        0
176
     0
290
     0
176
     0
 90
        1
176
     0
 40
0.0
176
     0
 90
        0
176
     0
290
     0
176
     0
290
     1
176
     0
290
     1
176
     0
290
     0
176
     0
290
     0
176
     0
290
     0
176
     0
290
     0
176
     0
290
     0
176
     0
290
     0
176
     0
 90
       50
176
     0
 40
0.0
176
     0
 40
1.0
176
     0
 90
        0
176
     0
 62
    18
420
        0
176
     0
 90
       50
176
     0
 90
        3
176
     0
 62
     5
420
      255
176
     0
290
     0
176
     0
 90
       50
176
     0
 90
       50
176
     0
 90
       50
176
     0
290
     0
176
     0
 90
       50
176
     0
 62
   256
176
     0
 40
1.0
176
     0
 90
        2
176
     0
  1
strokes_ogs.tif
176
     0
290
     0
176
     0
 40
1.0
176
     0
 40
1.0
176
     0
  0
VISUALSTYLE
  5
38
102
{ACAD_REACTORS
330
2A
102
}
330
2A
100
AcDbVisualStyle
  2
Linepattern
 70
    14
177
     3
291
     1
 70
    58
 90
        2
176
     1
 90
        2
176
     1
 90
        0
176
     1
 90
        0
176
     1
 40
0.6
176
     1
 40
30.0
176
     1
 62
     7
420
 16777215
176
     1
 90
        1
176
     1
 90
        4
176
     1
 62
     7
176
     1
 62
   257
176
     1
 90
        7
176
     1
 90
        7
176
     1
 40
1.0
176
     1
 90
        8
176
     1
 62
     7
176
     1
 40
1.0
176
     1
 90
        1
176
     1
 90
        6
176
     1
 90
        2
176
     1
 62
     7
176
     1
 90
        5
176
     1
 90
        0
176
     1
 90
        0
176
     1
290
     0
176
     1
 90
        1
176
     1
 40
0.0
176
     1
 90
        0
176
     1
290
     0
176
     1
290
     1
176
     1
290
     1
176
     1
290
     0
176
     1
290
     0
176
     1
290
     0
176
     1
290
     0
176
     1
290
     0
176
     1
290
     0
176
     1
 90
       50
176
     1
 40
0.0
176
     1
 40
1.0
176
     1
 90
        0
176
     1
 62
    18
420
        0
176
     1
 90
       50
176
     1
 90
        3
176
     1
 62
     5
420
      255
176
     1
290
     0
176
     1
 90
       50
176
     1
 90
       50
176
     1
 90
       50
176
     1
290
     0
176
     1
 90
       50
176
     1
 62
   256
176
     0
 40
1.0
176
     0
 90
        2
176
     1
  1
strokes_ogs.tif
176
     1
290
     0
176
     1
 40
1.0
176
     1
 40
1.0
176
     1
  0
VISUALSTYLE
  5
3C
102
{ACAD_REACTORS
330
2A
102
}
330
2A
100
AcDbVisualStyle
  2
OverhangOff
 70
    21
177
     3
291
     1
 70
    58
 90
        2
176
     0
 90
        2
176
     0
 90
        0
176
     0
 90
        0
176
     0
 40
0.6
176
     0
 40
30.0
176
     0
 62
     7
420
 16777215
176
     0
 90
        1
176
     0
 90
        4
176
     0
 62
     7
176
     0
 62
   257
176
     0
 90
        1
176
     0
 90
        1
176
     0
 40
1.0
176
     0
 90
        9
176
     2
 62
     7
176
     0
 40
1.0
176
     0
 90
        1
176
     0
 90
        6
176
     0
 90
        2
176
     0
 62
     7
176
     0
 90
        5
176
     0
 90
        0
176
     0
 90
        0
176
     0
290
     0
176
     0
 90
        1
176
     0
 40
0.0
176
     0
 90
        0
176
     0
290
     0
176
     0
290
     1
176
     0
290
     1
176
     0
290
     0
176
     0
290
     0
176
     0
290
     0
176
     0
290
     0
176
     0
290
     0
176
     0
290
     0
176
     0
 90
       50
176
     0
 40
0.0
176
     0
 40
1.0
176
     0
 90
        0
176
     0
 62
    18
420
        0
176
     0
 90
       50
176
     0
 90
        3
176
     0
 62
     5
420
      255
176
     0
290
     0
176
     0
 90
       50
176
     0
 90
       50
176
     0
 90
       50
176
     0
290
     0
176
     0
 90
       50
176
     0
 62
   256
176
     0
 40
1.0
176
     0
 90
        2
176
     0
  1
strokes_ogs.tif
176
     0
290
     0
176
     0
 40
1.0
176
     0
 40
1.0
176
     0
  0
VISUALSTYLE
  5
33
102
{ACAD_REACTORS
330
2A
102
}
330
2A
100
AcDbVisualStyle
  2
Realistic
 70
     8
177
     3
291
     0
 70
    58
 90
        2
176
     1
 90
        3
176
     1
 90
        0
176
     1
 90
        2
176
     1
 40
0.6
176
     1
 40
30.0
176
     1
 62
     7
420
 16777215
176
     1
 90
        0
176
     1
 90
        0
176
     1
 62
     7
176
     1
 62
   257
176
     1
 90
        1
176
     1
 90
        1
176
     1
 40
1.0
176
     1
 90
        8
176
     1
 62
   257
176
     1
 40
1.0
176
     1
 90
        1
176
     1
 90
        6
176
     1
 90
        2
176
     1
 62
     7
176
     1
 90
        3
176
     1
 90
        0
176
     1
 90
        0
176
     1
290
     0
176
     1
 90
       13
176
     1
 40
0.0
176
     1
 90
        0
176
     1
290
     0
176
     1
290
     1
176
     1
290
     1
176
     1
290
     0
176
     1
290
     0
176
     1
290
     0
176
     1
290
     0
176
     1
290
     0
176
     1
290
     0
176
     1
 90
       50
176
     1
 40
0.0
176
     1
 40
1.0
176
     1
 90
        0
176
     1
 62
    18
420
        0
176
     1
 90
       50
176
     1
 90
        3
176
     1
 62
     5
420
      255
176
     1
290
     0
176
     1
 90
       50
176
     1
 90
       50
176
     1
 90
       50
176
     1
290
     0
176
     1
 90
       50
176
     1
 62
   256
176
     0
 40
1.0
176
     0
 90
        2
176
     1
  1
strokes_ogs.tif
176
     1
290
     0
176
     1
 40
1.0
176
     1
 40
1.0
176
     1
  0
VISUALSTYLE
  5
42
102
{ACAD_REACTORS
330
2A
102
}
330
2A
100
AcDbVisualStyle
  2
Shaded
 70
    27
177
     3
291
     0
 70
    58
 90
        2
176
     1
 90
        2
176
     1
 90
        1
176
     1
 90
        2
176
     1
 40
0.6
176
     1
 40
30.0
176
     1
 62
     7
420
 16777215
176
     1
 90
        0
176
     1
 90
        4
176
     1
 62
     7
176
     1
 62
   257
176
     1
 90
        1
176
     1
 90
        1
176
     1
 40
1.0
176
     1
 90
        8
176
     1
 62
   257
176
     1
 40
1.0
176
     1
 90
        1
176
     1
 90
        6
176
     1
 90
        2
176
     1
 62
     8
420
  7895160
176
     1
 90
        3
176
     1
 90
        0
176
     1
 90
        0
176
     1
290
     0
176
     1
 90
        5
176
     1
 40
0.0
176
     1
 90
        0
176
     1
290
     0
176
     1
290
     1
176
     1
290
     1
176
     1
290
     0
176
     1
290
     0
176
     1
290
     0
176
     1
290
     0
176
     1
290
     0
176
     1
290
     0
176
     1
 90
       50
176
     1
 40
0.0
176
     1
 40
1.0
176
     1
 90
        0
176
     1
 62
    18
420
        0
176
     1
 90
       50
176
     1
 90
        3
176
     1
 62
     5
420
      255
176
     1
290
     0
176
     1
 90
       50
176
     1
 90
       50
176
     1
 90
       50
176
     1
290
     0
176
     1
 90
       50
176
     1
 62
   256
176
     0
 40
1.0
176
     0
 90
        2
176
     1
  1
strokes_ogs.tif
176
     1
290
     0
176
     1
 40
1.0
176
     1
 40
1.0
176
     1
  0
VISUALSTYLE
  5
41
102
{ACAD_REACTORS
330
2A
102
}
330
2A
100
AcDbVisualStyle
  2
Shaded with edges
 70
    26
177
     3
291
     0
 70
    58
 90
        2
176
     1
 90
        2
176
     1
 90
        1
176
     1
 90
        2
176
     1
 40
0.6
176
     1
 40
30.0
176
     1
 62
     7
420
 16777215
176
     1
 90
        1
176
     1
 90
       10
176
     1
 62
     7
176
     1
 62
   257
176
     1
 90
        2
176
     1
 90
        1
176
     1
 40
1.0
176
     1
 90
        8
176
     1
 62
   257
176
     1
 40
1.0
176
     1
 90
        1
176
     1
 90
        6
176
     1
 90
        2
176
     1
 62
     7
176
     1
 90
        3
176
     1
 90
        0
176
     1
 90
        0
176
     1
290
     0
176
     1
 90
        5
176
     1
 40
0.0
176
     1
 90
        0
176
     1
290
     0
176
     1
290
     1
176
     1
290
     1
176
     1
290
     0
176
     1
290
     0
176
     1
290
     0
176
     1
290
     0
176
     1
290
     0
176
     1
290
     0
176
     1
 90
       50
176
     1
 40
0.0
176
     1
 40
1.0
176
     1
 90
        0
176
     1
 62
    18
420
        0
176
     1
 90
       50
176
     1
 90
        3
176
     1
 62
     5
420
      255
176
     1
290
     0
176
     1
 90
       50
176
     1
 90
       50
176
     1
 90
       50
176
     1
290
     0
176
     1
 90
       50
176
     1
 62
   256
176
     0
 40
1.0
176
     0
 90
        2
176
     1
  1
strokes_ogs.tif
176
     1
290
     0
176
     1
 40
1.0
176
     1
 40
1.0
176
     1
  0
VISUALSTYLE
  5
3E
102
{ACAD_REACTORS
330
2A
102
}
330
2A
100
AcDbVisualStyle
  2
Shades of Gray
 70
    23
177
     3
291
     0
 70
    58
 90
        2
176
     1
 90
        2
176
     1
 90
        3
176
     1
 90
        0
176
     1
 40
0.6
176
     1
 40
30.0
176
     1
 62
     7
420
 16777215
176
     1
 90
        2
176
     1
 90
        2
176
     1
 62
     7
176
     1
 62
     7
176
     1
 90
        1
176
     1
 90
        1
176
     1
 40
40.0
176
     1
 90
        8
176
     1
 62
     7
176
     1
 40
1.0
176
     1
 90
        1
176
     1
 90
        6
176
     1
 90
        2
176
     1
 62
     7
176
     1
 90
        3
176
     1
 90
        0
176
     1
 90
        0
176
     1
290
     0
176
     1
 90
        1
176
     1
 40
0.0
176
     1
 90
        0
176
     1
290
     0
176
     1
290
     1
176
     1
290
     1
176
     1
290
     0
176
     1
290
     0
176
     1
290
     0
176
     1
290
     0
176
     1
290
     0
176
     1
290
     0
176
     1
 90
       50
176
     1
 40
0.0
176
     1
 40
1.0
176
     1
 90
        0
176
     1
 62
    18
420
        0
176
     1
 90
       50
176
     1
 90
        3
176
     1
 62
     5
420
      255
176
     1
290
     0
176
     1
 90
       50
176
     1
 90
       50
176
     1
 90
       50
176
     1
290
     0
176
     1
 90
       50
176
     1
 62
   256
176
     0
 40
1.0
176
     0
 90
        2
176
     1
  1
strokes_ogs.tif
176
     1
290
     0
176
     1
 40
1.0
176
     1
 40
1.0
176
     1
  0
VISUALSTYLE
  5
3F
102
{ACAD_REACTORS
330
2A
102
}
330
2A
100
AcDbVisualStyle
  2
Sketchy
 70
    24
177
     3
291
     0
 70
    58
 90
        1
176
     1
 90
        2
176
     1
 90
        2
176
     1
 90
        0
176
     1
 40
0.6
176
     1
 40
30.0
176
     1
 62
     7
420
 16777215
176
     1
 90
        2
176
     1
 90
        2
176
     1
 62
     7
176
     1
 62
     7
176
     1
 90
        1
176
     1
 90
        1
176
     1
 40
40.0
176
     1
 90
       11
176
     1
 62
     7
176
     1
 40
1.0
176
     1
 90
        1
176
     1
 90
        6
176
     1
 90
        2
176
     1
 62
     7
176
     1
 90
        6
176
     1
 90
        0
176
     1
 90
        0
176
     1
290
     0
176
     1
 90
        1
176
     1
 40
0.0
176
     1
 90
        0
176
     1
290
     0
176
     1
290
     1
176
     1
290
     1
176
     1
290
     0
176
     1
290
     0
176
     1
290
     0
176
     1
290
     0
176
     1
290
     0
176
     1
290
     0
176
     1
 90
       50
176
     1
 40
0.0
176
     1
 40
1.0
176
     1
 90
        0
176
     1
 62
    18
420
        0
176
     1
 90
       50
176
     1
 90
        3
176
     1
 62
     5
420
      255
176
     1
290
     0
176
     1
 90
       50
176
     1
 90
       50
176
     1
 90
       50
176
     1
290
     0
176
     1
 90
       50
176
     1
 62
   256
176
     0
 40
1.0
176
     0
 90
        2
176
     1
  1
strokes_ogs.tif
176
     1
290
     0
176
     1
 40
1.0
176
     1
 40
1.0
176
     1
  0
VISUALSTYLE
  5
37
102
{ACAD_REACTORS
330
2A
102
}
330
2A
100
AcDbVisualStyle
  2
Thicken
 70
    13
177
     3
291
     1
 70
    58
 90
        2
176
     1
 90
        2
176
     1
 90
        0
176
     1
 90
        0
176
     1
 40
0.6
176
     1
 40
30.0
176
     1
 62
     7
420
 16777215
176
     1
 90
        1
176
     1
 90
        4
176
     1
 62
     7
176
     1
 62
   257
176
     1
 90
        1
176
     1
 90
        1
176
     1
 40
1.0
176
     1
 90
       12
176
     1
 62
     7
176
     1
 40
1.0
176
     1
 90
        1
176
     1
 90
        6
176
     1
 90
        2
176
     1
 62
     7
176
     1
 90
        5
176
     1
 90
        0
176
     1
 90
        0
176
     1
290
     0
176
     1
 90
        1
176
     1
 40
0.0
176
     1
 90
        0
176
     1
290
     0
176
     1
290
     1
176
     1
290
     1
176
     1
290
     0
176
     1
290
     0
176
     1
290
     0
176
     1
290
     0
176
     1
290
     0
176
     1
290
     0
176
     1
 90
       50
176
     1
 40
0.0
176
     1
 40
1.0
176
     1
 90
        0
176
     1
 62
    18
420
        0
176
     1
 90
       50
176
     1
 90
        3
176
     1
 62
     5
420
      255
176
     1
290
     0
176
     1
 90
       50
176
     1
 90
       50
176
     1
 90
       50
176
     1
290
     0
176
     1
 90
       50
176
     1
 62
   256
176
     0
 40
1.0
176
     0
 90
        2
176
     1
  1
strokes_ogs.tif
176
     1
290
     0
176
     1
 40
1.0
176
     1
 40
1.0
176
     1
  0
VISUALSTYLE
  5
30
102
{ACAD_REACTORS
330
2A
102
}
330
2A
100
AcDbVisualStyle
  2
Wireframe
 70
     5
177
     3
291
     0
 70
    58
 90
        0
176
     1
 90
        2
176
     1
 90
        0
176
     1
 90
        0
176
     1
 40
0.6
176
     1
 40
30.0
176
     1
 62
     7
420
 16777215
176
     1
 90
        1
176
     1
 90
        4
176
     1
 62
     7
176
     1
 62
   257
176
     1
 90
        1
176
     1
 90
        1
176
     1
 40
1.0
176
     1
 90
        0
176
     1
 62
   257
176
     1
 40
1.0
176
     1
 90
        1
176
     1
 90
        6
176
     1
 90
        2
176
     1
 62
     7
176
     1
 90
        3
176
     1
 90
        0
176
     1
 90
        0
176
     1
290
     0
176
     1
 90
        1
176
     1
 40
0.0
176
     1
 90
        0
176
     1
290
     0
176
     1
290
     1
176
     1
290
     1
176
     1
290
     0
176
     1
290
     0
176
     1
290
     0
176
     1
290
     0
176
     1
290
     0
176
     1
290
     0
176
     1
 90
       50
176
     1
 40
0.0
176
     1
 40
1.0
176
     1
 90
        0
176
     1
 62
    18
420
        0
176
     1
 90
       50
176
     1
 90
        3
176
     1
 62
     5
420
      255
176
     1
290
     0
176
     1
 90
       50
176
     1
 90
       50
176
     1
 90
       50
176
     1
290
     0
176
     1
 90
       50
176
     1
 62
   256
176
     0
 40
1.0
176
     0
 90
        2
176
     1
  1
strokes_ogs.tif
176
     1
290
     0
176
     1
 40
1.0
176
     1
 40
1.0
176
     1
  0
VISUALSTYLE
  5
40
102
{ACAD_REACTORS
330
2A
102
}
330
2A
100
AcDbVisualStyle
  2
X-Ray
 70
    25
177
     3
291
     0
 70
    58
 90
        2
176
     1
 90
        2
176
     1
 90
        1
176
     1
 90
        1
176
     1
 40
0.5
176
     1
 40
30.0
176
     1
 62
     7
420
 16777215
176
     1
 90
        1
176
     1
 90
        0
176
     1
 62
     7
176
     1
 62
   257
176
     1
 90
        1
176
     1
 90
        1
176
     1
 40
1.0
176
     1
 90
        8
176
     1
 62
     7
176
     1
 40
1.0
176
     1
 90
        1
176
     1
 90
        6
176
     1
 90
        2
176
     1
 62
     7
176
     1
 90
        3
176
     1
 90
        0
176
     1
 90
        0
176
     1
290
     0
176
     1
 90
       13
176
     1
 40
0.0
176
     1
 90
        0
176
     1
290
     0
176
     1
290
     1
176
     1
290
     1
176
     1
290
     0
176
     1
290
     0
176
     1
290
     0
176
     1
290
     0
176
     1
290
     0
176
     1
290
     0
176
     1
 90
       50
176
     1
 40
0.0
176
     1
 40
1.0
176
     1
 90
        0
176
     1
 62
    18
420
        0
176
     1
 90
       50
176
     1
 90
        3
176
     1
 62
     5
420
      255
176
     1
290
     0
176
     1
 90
       50
176
     1
 90
       50
176
     1
 90
       50
176
     1
290
     0
176
     1
 90
       50
176
     1
 62
   256
176
     0
 40
1.0
176
     0
 90
        2
176
     1
  1
strokes_ogs.tif
176
     1
290
     0
176
     1
 40
1.0
176
     1
 40
1.0
176
     1
  0
DICTIONARYVAR
  5
197
102
{ACAD_REACTORS
330
196
102
}
330
196
100
DictionaryVariables
280
     0
  1
1:1
  0
DICTIONARYVAR
  5
19C
102
{ACAD_REACTORS
330
196
102
}
330
196
100
DictionaryVariables
280
     0
  1
Standard
  0
DICTIONARYVAR
  5
19B
102
{ACAD_REACTORS
330
196
102
}
330
196
100
DictionaryVariables
280
     0
  1
Standard
  0
DICTIONARY
  5
198
330
5A
100
AcDbDictionary
280
     1
281
     1
  3
ACAD_ROUNDTRIP_2008_TABLESTYLE_CELLSTYLEMAP
360
199
  0
CELLSTYLEMAP
  5
199
102
{ACAD_REACTORS
330
198
102
}
330
198
100
AcDbCellStyleMap
 90
        3
300
CELLSTYLE
  1
TABLEFORMAT_BEGIN
 90
        5
170
     1
 91
        0
 92
    32768
 62
   257
 93
        1
300
CONTENTFORMAT
  1
CONTENTFORMAT_BEGIN
 90
        0
 91
        0
 92
        4
 93
        0
300

 40
0.0
140
1.0
 94
        5
 62
     0
340
11
144
0.25
309
CONTENTFORMAT_END
171
     1
301
MARGIN
  1
CELLMARGIN_BEGIN
 40
0.06
 40
0.06
 40
0.06
 40
0.06
 40
0.06
 40
0.06
309
CELLMARGIN_END
 94
        6
 95
        1
302
GRIDFORMAT
  1
GRIDFORMAT_BEGIN
 90
        0
 91
        1
 62
     0
 92
       -2
340
14
 93
        0
 40
0.045
309
GRIDFORMAT_END
 95
        2
302
GRIDFORMAT
  1
GRIDFORMAT_BEGIN
 90
        0
 91
        1
 62
     0
 92
       -2
340
14
 93
        0
 40
0.045
309
GRIDFORMAT_END
 95
        4
302
GRIDFORMAT
  1
GRIDFORMAT_BEGIN
 90
        0
 91
        1
 62
     0
 92
       -2
340
14
 93
        0
 40
0.045
309
GRIDFORMAT_END
 95
        8
302
GRIDFORMAT
  1
GRIDFORMAT_BEGIN
 90
        0
 91
        1
 62
     0
 92
       -2
340
14
 93
        0
 40
0.045
309
GRIDFORMAT_END
 95
       16
302
GRIDFORMAT
  1
GRIDFORMAT_BEGIN
 90
        0
 91
        1
 62
     0
 92
       -2
340
14
 93
        0
 40
0.045
309
GRIDFORMAT_END
 95
       32
302
GRIDFORMAT
  1
GRIDFORMAT_BEGIN
 90
        0
 91
        1
 62
     0
 92
       -2
340
14
 93
        0
 40
0.045
309
GRIDFORMAT_END
309
TABLEFORMAT_END
  1
CELLSTYLE_BEGIN
 90
        1
 91
        1
300
_TITLE
309
CELLSTYLE_END
300
CELLSTYLE
  1
TABLEFORMAT_BEGIN
 90
        5
170
     1
 91
        0
 92
        0
 62
   257
 93
        1
300
CONTENTFORMAT
  1
CONTENTFORMAT_BEGIN
 90
        0
 91
        0
 92
        4
 93
        0
300

 40
0.0
140
1.0
 94
        5
 62
     0
340
11
144
0.18
309
CONTENTFORMAT_END
171
     1
301
MARGIN
  1
CELLMARGIN_BEGIN
 40
0.06
 40
0.06
 40
0.06
 40
0.06
 40
0.06
 40
0.06
309
CELLMARGIN_END
 94
        6
 95
        1
302
GRIDFORMAT
  1
GRIDFORMAT_BEGIN
 90
        0
 91
        1
 62
     0
 92
       -2
340
14
 93
        0
 40
0.045
309
GRIDFORMAT_END
 95
        2
302
GRIDFORMAT
  1
GRIDFORMAT_BEGIN
 90
        0
 91
        1
 62
     0
 92
       -2
340
14
 93
        0
 40
0.045
309
GRIDFORMAT_END
 95
        4
302
GRIDFORMAT
  1
GRIDFORMAT_BEGIN
 90
        0
 91
        1
 62
     0
 92
       -2
340
14
 93
        0
 40
0.045
309
GRIDFORMAT_END
 95
        8
302
GRIDFORMAT
  1
GRIDFORMAT_BEGIN
 90
        0
 91
        1
 62
     0
 92
       -2
340
14
 93
        0
 40
0.045
309
GRIDFORMAT_END
 95
       16
302
GRIDFORMAT
  1
GRIDFORMAT_BEGIN
 90
        0
 91
        1
 62
     0
 92
       -2
340
14
 93
        0
 40
0.045
309
GRIDFORMAT_END
 95
       32
302
GRIDFORMAT
  1
GRIDFORMAT_BEGIN
 90
        0
 91
        1
 62
     0
 92
       -2
340
14
 93
        0
 40
0.045
309
GRIDFORMAT_END
309
TABLEFORMAT_END
  1
CELLSTYLE_BEGIN
 90
        2
 91
        1
300
_HEADER
309
CELLSTYLE_END
300
CELLSTYLE
  1
TABLEFORMAT_BEGIN
 90
        5
170
     1
 91
        0
 92
        0
 62
   257
 93
        1
300
CONTENTFORMAT
  1
CONTENTFORMAT_BEGIN
 90
        0
 91
        0
 92
        4
 93
        0
300

 40
0.0
140
1.0
 94
        2
 62
     0
340
11
144
0.18
309
CONTENTFORMAT_END
171
     1
301
MARGIN
  1
CELLMARGIN_BEGIN
 40
0.06
 40
0.06
 40
0.06
 40
0.06
 40
0.06
 40
0.06
309
CELLMARGIN_END
 94
        6
 95
        1
302
GRIDFORMAT
  1
GRIDFORMAT_BEGIN
 90
        0
 91
        1
 62
     0
 92
       -2
340
14
 93
        0
 40
0.045
309
GRIDFORMAT_END
 95
        2
302
GRIDFORMAT
  1
GRIDFORMAT_BEGIN
 90
        0
 91
        1
 62
     0
 92
       -2
340
14
 93
        0
 40
0.045
309
GRIDFORMAT_END
 95
        4
302
GRIDFORMAT
  1
GRIDFORMAT_BEGIN
 90
        0
 91
        1
 62
     0
 92
       -2
340
14
 93
        0
 40
0.045
309
GRIDFORMAT_END
 95
        8
302
GRIDFORMAT
  1
GRIDFORMAT_BEGIN
 90
        0
 91
        1
 62
     0
 92
       -2
340
14
 93
        0
 40
0.045
309
GRIDFORMAT_END
 95
       16
302
GRIDFORMAT
  1
GRIDFORMAT_BEGIN
 90
        0
 91
        1
 62
     0
 92
       -2
340
14
 93
        0
 40
0.045
309
GRIDFORMAT_END
 95
       32
302
GRIDFORMAT
  1
GRIDFORMAT_BEGIN
 90
        0
 91
        1
 62
     0
 92
       -2
340
14
 93
        0
 40
0.045
309
GRIDFORMAT_END
309
TABLEFORMAT_END
  1
CELLSTYLE_BEGIN
 90
        3
 91
        2
300
_DATA
309
CELLSTYLE_END
  0
ENDSEC
  0
EOF
