  0
SECTION
  2
HEADER
  9
$ACADVER
  1
AC1027
  9
$ACADMAINTVER
 70
   105
  9
$DWGCODEPAGE
  3
ANSI_1252
  9
$LASTSAVEDBY
  1
Office Desk
  9
$REQUIREDVERSIONS
160
                 0
  9
$INSBASE
 10
0.0
 20
0.0
 30
0.0
  9
$EXTMIN
 10
-559.3604
 20
-225.5893
 30
0.0
  9
$EXTMAX
 10
-159.1838
 20
174.5872
 30
0.0
  9
$LIMMIN
 10
0.0
 20
0.0
  9
$LIMMAX
 10
12.0
 20
9.0
  9
$ORTHOMODE
 70
     0
  9
$REGENMODE
 70
     1
  9
$FILLMODE
 70
     1
  9
$QTEXTMODE
 70
     0
  9
$MIRRTEXT
 70
     1
  9
$LTSCALE
 40
1.0
  9
$ATTMODE
 70
     1
  9
$TEXTSIZE
 40
0.2
  9
$TRACEWID
 40
0.05
  9
$TEXTSTYLE
  7
Standard
  9
$CLAYER
  8
0
  9
$CELTYPE
  6
ByLayer
  9
$CECOLOR
 62
   256
  9
$CELTSCALE
 40
1.0
  9
$DISPSILH
 70
     0
  9
$DIMSCALE
 40
1.0
  9
$DIMASZ
 40
0.18
  9
$DIMEXO
 40
0.0625
  9
$DIMDLI
 40
0.38
  9
$DIMRND
 40
0.0
  9
$DIMDLE
 40
0.0
  9
$DIMEXE
 40
0.18
  9
$DIMTP
 40
0.0
  9
$DIMTM
 40
0.0
  9
$DIMTXT
 40
0.18
  9
$DIMCEN
 40
0.09
  9
$DIMTSZ
 40
0.0
  9
$DIMTOL
 70
     0
  9
$DIMLIM
 70
     0
  9
$DIMTIH
 70
     1
  9
$DIMTOH
 70
     1
  9
$DIMSE1
 70
     0
  9
$DIMSE2
 70
     0
  9
$DIMTAD
 70
     0
  9
$DIMZIN
 70
     0
  9
$DIMBLK
  1

  9
$DIMASO
 70
     1
  9
$DIMSHO
 70
     1
  9
$DIMPOST
  1

  9
$DIMAPOST
  1

  9
$DIMALT
 70
     0
  9
$DIMALTD
 70
     2
  9
$DIMALTF
 40
25.4
  9
$DIMLFAC
 40
1.0
  9
$DIMTOFL
 70
     0
  9
$DIMTVP
 40
0.0
  9
$DIMTIX
 70
     0
  9
$DIMSOXD
 70
     0
  9
$DIMSAH
 70
     0
  9
$DIMBLK1
  1

  9
$DIMBLK2
  1

  9
$DIMSTYLE
  2
Standard
  9
$DIMCLRD
 70
     0
  9
$DIMCLRE
 70
     0
  9
$DIMCLRT
 70
     0
  9
$DIMTFAC
 40
1.0
  9
$DIMGAP
 40
0.09
  9
$DIMJUST
 70
     0
  9
$DIMSD1
 70
     0
  9
$DIMSD2
 70
     0
  9
$DIMTOLJ
 70
     1
  9
$DIMTZIN
 70
     0
  9
$DIMALTZ
 70
     0
  9
$DIMALTTZ
 70
     0
  9
$DIMUPT
 70
     0
  9
$DIMDEC
 70
     4
  9
$DIMTDEC
 70
     4
  9
$DIMALTU
 70
     2
  9
$DIMALTTD
 70
     2
  9
$DIMTXSTY
  7
Standard
  9
$DIMAUNIT
 70
     0
  9
$DIMADEC
 70
     0
  9
$DIMALTRND
 40
0.0
  9
$DIMAZIN
 70
     0
  9
$DIMDSEP
 70
    46
  9
$DIMATFIT
 70
     3
  9
$DIMFRAC
 70
     0
  9
$DIMLDRBLK
  1

  9
$DIMLUNIT
 70
     2
  9
$DIMLWD
 70
    -2
  9
$DIMLWE
 70
    -2
  9
$DIMTMOVE
 70
     0
  9
$DIMFXL
 40
1.0
  9
$DIMFXLON
 70
     0
  9
$DIMJOGANG
 40
0.7853981633974483
  9
$DIMTFILL
 70
     0
  9
$DIMTFILLCLR
 70
     0
  9
$DIMARCSYM
 70
     0
  9
$DIMLTYPE
  6

  9
$DIMLTEX1
  6

  9
$DIMLTEX2
  6

  9
$DIMTXTDIRECTION
 70
     0
  9
$LUNITS
 70
     2
  9
$LUPREC
 70
     4
  9
$SKETCHINC
 40
0.1
  9
$FILLETRAD
 40
0.0
  9
$AUNITS
 70
     0
  9
$AUPREC
 70
     0
  9
$MENU
  1
.
  9
$ELEVATION
 40
0.0
  9
$PELEVATION
 40
0.0
  9
$THICKNESS
 40
0.0
  9
$LIMCHECK
 70
     0
  9
$CHAMFERA
 40
0.0
  9
$CHAMFERB
 40
0.0
  9
$CHAMFERC
 40
0.0
  9
$CHAMFERD
 40
0.0
  9
$SKPOLY
 70
     0
  9
$TDCREATE
 40
2461000.617861088
  9
$TDUCREATE
 40
2461000.388694422
  9
$TDUPDATE
 40
2461000.617861146
  9
$TDUUPDATE
 40
2461000.388694479
  9
$TDINDWG
 40
0.0000000116
  9
$TDUSRTIMER
 40
0.0000000116
  9
$USRTIMER
 70
     1
  9
$ANGBASE
 50
0.0
  9
$ANGDIR
 70
     0
  9
$PDMODE
 70
     0
  9
$PDSIZE
 40
0.0
  9
$PLINEWID
 40
0.0
  9
$SPLFRAME
 70
     0
  9
$SPLINETYPE
 70
     6
  9
$SPLINESEGS
 70
     8
  9
$HANDSEED
  5
E6
  9
$SURFTAB1
 70
     6
  9
$SURFTAB2
 70
     6
  9
$SURFTYPE
 70
     6
  9
$SURFU
 70
     6
  9
$SURFV
 70
     6
  9
$UCSBASE
  2

  9
$UCSNAME
  2

  9
$UCSORG
 10
0.0
 20
0.0
 30
0.0
  9
$UCSXDIR
 10
1.0
 20
0.0
 30
0.0
  9
$UCSYDIR
 10
0.0
 20
1.0
 30
0.0
  9
$UCSORTHOREF
  2

  9
$UCSORTHOVIEW
 70
     0
  9
$UCSORGTOP
 10
0.0
 20
0.0
 30
0.0
  9
$UCSORGBOTTOM
 10
0.0
 20
0.0
 30
0.0
  9
$UCSORGLEFT
 10
0.0
 20
0.0
 30
0.0
  9
$UCSORGRIGHT
 10
0.0
 20
0.0
 30
0.0
  9
$UCSORGFRONT
 10
0.0
 20
0.0
 30
0.0
  9
$UCSORGBACK
 10
0.0
 20
0.0
 30
0.0
  9
$PUCSBASE
  2

  9
$PUCSNAME
  2

  9
$PUCSORG
 10
0.0
 20
0.0
 30
0.0
  9
$PUCSXDIR
 10
1.0
 20
0.0
 30
0.0
  9
$PUCSYDIR
 10
0.0
 20
1.0
 30
0.0
  9
$PUCSORTHOREF
  2

  9
$PUCSORTHOVIEW
 70
     0
  9
$PUCSORGTOP
 10
0.0
 20
0.0
 30
0.0
  9
$PUCSORGBOTTOM
 10
0.0
 20
0.0
 30
0.0
  9
$PUCSORGLEFT
 10
0.0
 20
0.0
 30
0.0
  9
$PUCSORGRIGHT
 10
0.0
 20
0.0
 30
0.0
  9
$PUCSORGFRONT
 10
0.0
 20
0.0
 30
0.0
  9
$PUCSORGBACK
 10
0.0
 20
0.0
 30
0.0
  9
$USERI1
 70
     0
  9
$USERI2
 70
     0
  9
$USERI3
 70
     0
  9
$USERI4
 70
     0
  9
$USERI5
 70
     0
  9
$USERR1
 40
0.0
  9
$USERR2
 40
0.0
  9
$USERR3
 40
0.0
  9
$USERR4
 40
0.0
  9
$USERR5
 40
0.0
  9
$WORLDVIEW
 70
     1
  9
$SHADEDGE
 70
     3
  9
$SHADEDIF
 70
    70
  9
$TILEMODE
 70
     1
  9
$MAXACTVP
 70
    64
  9
$PINSBASE
 10
0.0
 20
0.0
 30
0.0
  9
$PLIMCHECK
 70
     0
  9
$PEXTMIN
 10
1.000000000000000E+20
 20
1.000000000000000E+20
 30
1.000000000000000E+20
  9
$PEXTMAX
 10
-1.000000000000000E+20
 20
-1.000000000000000E+20
 30
-1.000000000000000E+20
  9
$PLIMMIN
 10
0.0
 20
0.0
  9
$PLIMMAX
 10
12.0
 20
9.0
  9
$UNITMODE
 70
     0
  9
$VISRETAIN
 70
     1
  9
$PLINEGEN
 70
     0
  9
$PSLTSCALE
 70
     1
  9
$TREEDEPTH
 70
  3020
  9
$CMLSTYLE
  2
Standard
  9
$CMLJUST
 70
     0
  9
$CMLSCALE
 40
1.0
  9
$PROXYGRAPHICS
 70
     1
  9
$MEASUREMENT
 70
     0
  9
$CELWEIGHT
370
    -1
  9
$ENDCAPS
280
     0
  9
$JOINSTYLE
280
     0
  9
$LWDISPLAY
290
     0
  9
$INSUNITS
 70
     4
  9
$HYPERLINKBASE
  1

  9
$STYLESHEET
  1

  9
$XEDIT
290
     1
  9
$CEPSNTYPE
380
     0
  9
$PSTYLEMODE
290
     1
  9
$FINGERPRINTGUID
  2
{f4e63183-50b1-4752-a9c7-05cf1b338444}
  9
$VERSIONGUID
  2
{FAEB1C32-E019-11D5-929B-00C0DF256EC4}
  9
$EXTNAMES
290
     1
  9
$PSVPSCALE
 40
0.0
  9
$OLESTARTUP
290
     0
  9
$SORTENTS
280
   127
  9
$INDEXCTL
280
     0
  9
$HIDETEXT
280
     1
  9
$XCLIPFRAME
280
     2
  9
$HALOGAP
280
     0
  9
$OBSCOLOR
 70
   257
  9
$OBSLTYPE
280
     0
  9
$INTERSECTIONDISPLAY
280
     0
  9
$INTERSECTIONCOLOR
 70
   257
  9
$DIMASSOC
280
     2
  9
$PROJECTNAME
  1

  9
$CAMERADISPLAY
290
     0
  9
$LENSLENGTH
 40
50.0
  9
$CAMERAHEIGHT
 40
0.0
  9
$STEPSPERSEC
 40
2.0
  9
$STEPSIZE
 40
6.0
  9
$3DDWFPREC
 40
2.0
  9
$PSOLWIDTH
 40
0.25
  9
$PSOLHEIGHT
 40
4.0
  9
$LOFTANG1
 40
1.570796326794897
  9
$LOFTANG2
 40
1.570796326794897
  9
$LOFTMAG1
 40
0.0
  9
$LOFTMAG2
 40
0.0
  9
$LOFTPARAM
 70
     7
  9
$LOFTNORMALS
280
     1
  9
$LATITUDE
 40
37.795
  9
$LONGITUDE
 40
-122.394
  9
$NORTHDIRECTION
 40
0.0
  9
$TIMEZONE
 70
 -8000
  9
$LIGHTGLYPHDISPLAY
280
     1
  9
$TILEMODELIGHTSYNCH
280
     1
  9
$CMATERIAL
347
44
  9
$SOLIDHIST
280
     0
  9
$SHOWHIST
280
     1
  9
$DWFFRAME
280
     2
  9
$DGNFRAME
280
     2
  9
$REALWORLDSCALE
290
     1
  9
$INTERFERECOLOR
 62
   256
  9
$CSHADOW
280
     0
  9
$SHADOWPLANELOCATION
 40
0.0
  0
ENDSEC
  0
SECTION
  2
CLASSES
  0
CLASS
  1
ACDBDICTIONARYWDFLT
  2
AcDbDictionaryWithDefault
  3
ObjectDBX Classes
 90
        0
 91
        3
280
     0
281
     0
  0
CLASS
  1
VISUALSTYLE
  2
AcDbVisualStyle
  3
ObjectDBX Classes
 90
     4095
 91
        3
280
     0
281
     0
  0
CLASS
  1
MATERIAL
  2
AcDbMaterial
  3
ObjectDBX Classes
 90
     1153
 91
        3
280
     0
281
     0
  0
CLASS
  1
SCALE
  2
AcDbScale
  3
ObjectDBX Classes
 90
     1153
 91
        3
280
     0
281
     0
  0
CLASS
  1
TABLESTYLE
  2
AcDbTableStyle
  3
ObjectDBX Classes
 90
     4095
 91
        3
280
     0
281
     0
  0
CLASS
  1
MLEADERSTYLE
  2
AcDbMLeaderStyle
  3
ACDB_MLEADERSTYLE_CLASS
 90
     4095
 91
        3
280
     0
281
     0
  0
CLASS
  1
SUN
  2
AcDbSun
  3
SCENEOE
 90
     1153
 91
        3
280
     0
281
     0
  0
CLASS
  1
DICTIONARYVAR
  2
AcDbDictionaryVar
  3
ObjectDBX Classes
 90
        0
 91
        3
280
     0
281
     0
  0
CLASS
  1
CELLSTYLEMAP
  2
AcDbCellStyleMap
  3
ObjectDBX Classes
 90
     1152
 91
        3
280
     0
281
     0
  0
ENDSEC
  0
SECTION
  2
TABLES
  0
TABLE
  2
VPORT
  5
8
330
0
100
AcDbSymbolTable
 70
     1
  0
VPORT
  5
29
330
8
100
AcDbSymbolTableRecord
100
AcDbViewportTableRecord
  2
*Active
 70
     0
 10
0.0
 20
0.0
 11
1.0
 21
1.0
 12
10.42990654205607
 22
4.5
 13
0.0
 23
0.0
 14
0.5
 24
0.5
 15
0.5
 25
0.5
 16
0.0
 26
0.0
 36
1.0
 17
0.0
 27
0.0
 37
0.0
 40
9.0
 41
1.972972972850329
 42
50.0
 43
0.0
 44
0.0
 50
0.0
 51
0.0
 71
     0
 72
   100
 73
     1
 74
     3
 75
     0
 76
     0
 77
     0
 78
     0
281
     0
 65
     1
110
0.0
120
0.0
130
0.0
111
1.0
121
0.0
131
0.0
112
0.0
122
1.0
132
0.0
 79
     0
146
0.0
348
2F
 60
     3
 61
     5
292
     1
282
     1
141
0.0
142
0.0
 63
   250
361
5D
  0
ENDTAB
  0
TABLE
  2
LTYPE
  5
5
330
0
100
AcDbSymbolTable
 70
     1
  0
LTYPE
  5
14
330
5
100
AcDbSymbolTableRecord
100
AcDbLinetypeTableRecord
  2
ByBlock
 70
     0
  3

 72
    65
 73
     0
 40
0.0
  0
LTYPE
  5
15
330
5
100
AcDbSymbolTableRecord
100
AcDbLinetypeTableRecord
  2
ByLayer
 70
     0
  3

 72
    65
 73
     0
 40
0.0
  0
LTYPE
  5
16
330
5
100
AcDbSymbolTableRecord
100
AcDbLinetypeTableRecord
  2
Continuous
 70
     0
  3
Solid line
 72
    65
 73
     0
 40
0.0
  0
ENDTAB
  0
TABLE
  2
LAYER
  5
2
330
0
100
AcDbSymbolTable
 70
     2
  0
LAYER
  5
10
330
2
100
AcDbSymbolTableRecord
100
AcDbLayerTableRecord
  2
0
 70
     0
 62
     7
  6
Continuous
370
    -3
390
F
347
46
348
0
  0
LAYER
  5
5F
330
2
100
AcDbSymbolTableRecord
100
AcDbLayerTableRecord
  2
Layer 1
 70
     0
 62
     7
  6
Continuous
370
    -3
390
F
347
46
348
0
  0
ENDTAB
  0
TABLE
  2
STYLE
  5
3
330
0
100
AcDbSymbolTable
 70
     1
  0
STYLE
  5
11
330
3
100
AcDbSymbolTableRecord
100
AcDbTextStyleTableRecord
  2
Standard
 70
     0
 40
0.0
 41
1.0
 50
0.0
 71
     0
 42
0.2
  3
txt
  4

  0
ENDTAB
  0
TABLE
  2
VIEW
  5
6
330
0
100
AcDbSymbolTable
 70
     0
  0
ENDTAB
  0
TABLE
  2
UCS
  5
7
330
0
100
AcDbSymbolTable
 70
     0
  0
ENDTAB
  0
TABLE
  2
APPID
  5
9
330
0
100
AcDbSymbolTable
 70
     2
  0
APPID
  5
12
330
9
100
AcDbSymbolTableRecord
100
AcDbRegAppTableRecord
  2
ACAD
 70
     0
  0
APPID
  5
5E
330
9
100
AcDbSymbolTableRecord
100
AcDbRegAppTableRecord
  2
ODA
 70
     0
  0
ENDTAB
  0
TABLE
  2
DIMSTYLE
  5
A
330
0
100
AcDbSymbolTable
 70
     1
100
AcDbDimStyleTable
  0
DIMSTYLE
105
27
330
A
100
AcDbSymbolTableRecord
100
AcDbDimStyleTableRecord
  2
Standard
 70
     0
178
     0
340
11
  0
ENDTAB
  0
TABLE
  2
BLOCK_RECORD
  5
1
330
0
100
AcDbSymbolTable
 70
     1
  0
BLOCK_RECORD
  5
1F
330
1
100
AcDbSymbolTableRecord
100
AcDbBlockTableRecord
  2
*Model_Space
340
22
 70
     0
280
     1
281
     0
  0
BLOCK_RECORD
  5
1B
330
1
100
AcDbSymbolTableRecord
100
AcDbBlockTableRecord
  2
*Paper_Space
340
1E
 70
     0
280
     1
281
     0
  0
BLOCK_RECORD
  5
23
330
1
100
AcDbSymbolTableRecord
100
AcDbBlockTableRecord
  2
*Paper_Space0
340
26
 70
     0
280
     1
281
     0
  0
ENDTAB
  0
ENDSEC
  0
SECTION
  2
BLOCKS
  0
BLOCK
  5
20
330
1F
100
AcDbEntity
  8
0
100
AcDbBlockBegin
  2
*Model_Space
 70
     0
 10
0.0
 20
0.0
 30
0.0
  3
*Model_Space
  1

  0
ENDBLK
  5
21
330
1F
100
AcDbEntity
  8
0
100
AcDbBlockEnd
  0
BLOCK
  5
1C
330
1B
100
AcDbEntity
 67
     1
  8
0
100
AcDbBlockBegin
  2
*Paper_Space
 70
     0
 10
0.0
 20
0.0
 30
0.0
  3
*Paper_Space
  1

  0
ENDBLK
  5
1D
330
1B
100
AcDbEntity
 67
     1
  8
0
100
AcDbBlockEnd
  0
BLOCK
  5
24
330
23
100
AcDbEntity
  8
0
100
AcDbBlockBegin
  2
*Paper_Space0
 70
     0
 10
0.0
 20
0.0
 30
0.0
  3
*Paper_Space0
  1

  0
ENDBLK
  5
25
330
23
100
AcDbEntity
  8
0
100
AcDbBlockEnd
  0
ENDSEC
  0
SECTION
  2
ENTITIES
  0
LWPOLYLINE
  5
60
330
1F
100
AcDbEntity
  8
Layer 1
 62
   250
370
    35
100
AcDbPolyline
 90
       37
 70
     1
 43
0.0
 10
-555.1473
 20
110.7919
 10
-218.1525
 20
110.7919
 10
-217.3415
 20
110.7116
 10
-216.5849
 20
110.4816
 10
-215.8994
 20
110.118
 10
-215.3014
 20
109.6368
 10
-214.8075
 20
109.0541
 10
-214.4342
 20
108.3862
 10
-214.1982
 20
107.6491
 10
-214.1158
 20
106.8589
 10
-214.1158
 20
-221.4799
 10
-214.1982
 20
-222.2701
 10
-214.4342
 20
-223.0072
 10
-214.8075
 20
-223.6751
 10
-215.3014
 20
-224.2578
 10
-215.8994
 20
-224.739
 10
-216.5849
 20
-225.1026
 10
-217.3415
 20
-225.3326
 10
-218.1525
 20
-225.4129
 10
-555.1473
 20
-225.4129
 10
-555.9583
 20
-225.3326
 10
-556.7149
 20
-225.1026
 10
-557.4004
 20
-224.739
 10
-557.9984
 20
-224.2578
 10
-558.4923
 20
-223.6751
 10
-558.8656
 20
-223.0072
 10
-559.1016
 20
-222.2701
 10
-559.184
 20
-221.4799
 10
-559.184
 20
106.8589
 10
-559.1016
 20
107.6491
 10
-558.8656
 20
108.3862
 10
-558.4923
 20
109.0541
 10
-557.9984
 20
109.6368
 10
-557.4004
 20
110.118
 10
-556.7149
 20
110.4816
 10
-555.9583
 20
110.7116
 10
-555.1473
 20
110.7919
  0
LWPOLYLINE
  5
61
330
1F
100
AcDbEntity
  8
Layer 1
 62
     7
370
     9
100
AcDbPolyline
 90
       33
 70
     1
 43
0.0
 10
-237.1633
 20
92.7651
 10
-236.3801
 20
92.6872
 10
-235.6506
 20
92.4639
 10
-234.9904
 20
92.1106
 10
-234.4152
 20
91.6427
 10
-233.9407
 20
91.0756
 10
-233.5823
 20
90.4248
 10
-233.3559
 20
89.7056
 10
-233.2769
 20
88.9336
 10
-233.3559
 20
88.1616
 10
-233.5823
 20
87.4425
 10
-233.9407
 20
86.7918
 10
-234.4152
 20
86.2249
 10
-234.9904
 20
85.7571
 10
-235.6506
 20
85.4039
 10
-236.3801
 20
85.1806
 10
-237.1633
 20
85.1028
 10
-237.9465
 20
85.1806
 10
-238.676
 20
85.4039
 10
-239.3362
 20
85.7571
 10
-239.9114
 20
86.2249
 10
-240.3859
 20
86.7918
 10
-240.7443
 20
87.4425
 10
-240.9707
 20
88.1616
 10
-241.0497
 20
88.9336
 10
-240.9707
 20
89.7056
 10
-240.7443
 20
90.4248
 10
-240.3859
 20
91.0756
 10
-239.9114
 20
91.6427
 10
-239.3362
 20
92.1106
 10
-238.676
 20
92.4639
 10
-237.9465
 20
92.6872
 10
-237.1633
 20
92.7651
  0
LWPOLYLINE
  5
62
330
1F
100
AcDbEntity
  8
Layer 1
 62
     7
370
     9
100
AcDbPolyline
 90
       33
 70
     1
 43
0.0
 10
-537.6825
 20
92.7651
 10
-536.8993
 20
92.6872
 10
-536.1698
 20
92.4639
 10
-535.5096
 20
92.1106
 10
-534.9344
 20
91.6427
 10
-534.4599
 20
91.0756
 10
-534.1015
 20
90.4248
 10
-533.8751
 20
89.7056
 10
-533.7961
 20
88.9336
 10
-533.8751
 20
88.1616
 10
-534.1015
 20
87.4425
 10
-534.4599
 20
86.7918
 10
-534.9344
 20
86.2249
 10
-535.5096
 20
85.7571
 10
-536.1698
 20
85.4039
 10
-536.8993
 20
85.1806
 10
-537.6825
 20
85.1028
 10
-538.4657
 20
85.1806
 10
-539.1952
 20
85.4039
 10
-539.8554
 20
85.7571
 10
-540.4306
 20
86.2249
 10
-540.9051
 20
86.7918
 10
-541.2635
 20
87.4425
 10
-541.4899
 20
88.1616
 10
-541.5689
 20
88.9336
 10
-541.4899
 20
89.7056
 10
-541.2635
 20
90.4248
 10
-540.9051
 20
91.0756
 10
-540.4306
 20
91.6427
 10
-539.8554
 20
92.1106
 10
-539.1952
 20
92.4639
 10
-538.4657
 20
92.6872
 10
-537.6825
 20
92.7651
  0
LWPOLYLINE
  5
63
330
1F
100
AcDbEntity
  8
Layer 1
 62
     7
370
     9
100
AcDbPolyline
 90
       33
 70
     1
 43
0.0
 10
-237.1633
 20
-201.3642
 10
-236.3801
 20
-201.442
 10
-235.6506
 20
-201.6653
 10
-234.9904
 20
-202.0185
 10
-234.4152
 20
-202.4863
 10
-233.9407
 20
-203.0532
 10
-233.5823
 20
-203.7039
 10
-233.3559
 20
-204.423
 10
-233.2769
 20
-205.195
 10
-233.3559
 20
-205.967
 10
-233.5823
 20
-206.6862
 10
-233.9407
 20
-207.337
 10
-234.4152
 20
-207.9042
 10
-234.9904
 20
-208.3721
 10
-235.6506
 20
-208.7254
 10
-236.3801
 20
-208.9487
 10
-237.1633
 20
-209.0266
 10
-237.9465
 20
-208.9487
 10
-238.676
 20
-208.7254
 10
-239.3362
 20
-208.3721
 10
-239.9114
 20
-207.9042
 10
-240.3859
 20
-207.337
 10
-240.7443
 20
-206.6862
 10
-240.9707
 20
-205.967
 10
-241.0497
 20
-205.195
 10
-240.9707
 20
-204.423
 10
-240.7443
 20
-203.7039
 10
-240.3859
 20
-203.0532
 10
-239.9114
 20
-202.4863
 10
-239.3362
 20
-202.0185
 10
-238.676
 20
-201.6653
 10
-237.9465
 20
-201.442
 10
-237.1633
 20
-201.3642
  0
LWPOLYLINE
  5
64
330
1F
100
AcDbEntity
  8
Layer 1
 62
     7
370
     9
100
AcDbPolyline
 90
       33
 70
     1
 43
0.0
 10
-537.6825
 20
-201.3642
 10
-536.8993
 20
-201.442
 10
-536.1698
 20
-201.6653
 10
-535.5096
 20
-202.0185
 10
-534.9344
 20
-202.4863
 10
-534.4599
 20
-203.0532
 10
-534.1015
 20
-203.7039
 10
-533.8751
 20
-204.423
 10
-533.7961
 20
-205.195
 10
-533.8751
 20
-205.967
 10
-534.1015
 20
-206.6862
 10
-534.4599
 20
-207.337
 10
-534.9344
 20
-207.9042
 10
-535.5096
 20
-208.3721
 10
-536.1698
 20
-208.7254
 10
-536.8993
 20
-208.9487
 10
-537.6825
 20
-209.0266
 10
-538.4657
 20
-208.9487
 10
-539.1952
 20
-208.7254
 10
-539.8554
 20
-208.3721
 10
-540.4306
 20
-207.9042
 10
-540.9051
 20
-207.337
 10
-541.2635
 20
-206.6862
 10
-541.4899
 20
-205.967
 10
-541.5689
 20
-205.195
 10
-541.4899
 20
-204.423
 10
-541.2635
 20
-203.7039
 10
-540.9051
 20
-203.0532
 10
-540.4306
 20
-202.4863
 10
-539.8554
 20
-202.0185
 10
-539.1952
 20
-201.6653
 10
-538.4657
 20
-201.442
 10
-537.6825
 20
-201.3642
  0
LWPOLYLINE
  5
65
330
1F
100
AcDbEntity
  8
Layer 1
 62
     7
370
    25
100
AcDbPolyline
 90
       33
 70
     1
 43
0.0
 10
-511.9541
 20
56.5561
 10
-511.547
 20
56.515
 10
-511.1679
 20
56.3972
 10
-510.8247
 20
56.2108
 10
-510.5257
 20
55.9639
 10
-510.2789
 20
55.6647
 10
-510.0926
 20
55.3212
 10
-509.9749
 20
54.9417
 10
-509.9338
 20
54.5343
 10
-509.9749
 20
54.1269
 10
-510.0926
 20
53.7474
 10
-510.2789
 20
53.4039
 10
-510.5257
 20
53.1047
 10
-510.8247
 20
52.8578
 10
-511.1679
 20
52.6714
 10
-511.547
 20
52.5536
 10
-511.9541
 20
52.5125
 10
-512.3612
 20
52.5536
 10
-512.7404
 20
52.6714
 10
-513.0835
 20
52.8578
 10
-513.3826
 20
53.1047
 10
-513.6293
 20
53.4039
 10
-513.8156
 20
53.7474
 10
-513.9333
 20
54.1269
 10
-513.9744
 20
54.5343
 10
-513.9333
 20
54.9417
 10
-513.8156
 20
55.3212
 10
-513.6293
 20
55.6647
 10
-513.3826
 20
55.9639
 10
-513.0835
 20
56.2108
 10
-512.7404
 20
56.3972
 10
-512.3612
 20
56.515
 10
-511.9541
 20
56.5561
  0
LWPOLYLINE
  5
66
330
1F
100
AcDbEntity
  8
Layer 1
 62
     7
370
    25
100
AcDbPolyline
 90
       33
 70
     1
 43
0.0
 10
-484.1115
 20
56.5561
 10
-483.7044
 20
56.515
 10
-483.3253
 20
56.3972
 10
-482.9821
 20
56.2108
 10
-482.6831
 20
55.9639
 10
-482.4363
 20
55.6647
 10
-482.25
 20
55.3212
 10
-482.1323
 20
54.9417
 10
-482.0912
 20
54.5343
 10
-482.1323
 20
54.1269
 10
-482.25
 20
53.7474
 10
-482.4363
 20
53.4039
 10
-482.6831
 20
53.1047
 10
-482.9821
 20
52.8578
 10
-483.3253
 20
52.6714
 10
-483.7044
 20
52.5536
 10
-484.1115
 20
52.5125
 10
-484.5186
 20
52.5536
 10
-484.8978
 20
52.6714
 10
-485.2409
 20
52.8578
 10
-485.54
 20
53.1047
 10
-485.7867
 20
53.4039
 10
-485.973
 20
53.7474
 10
-486.0907
 20
54.1269
 10
-486.1318
 20
54.5343
 10
-486.0907
 20
54.9417
 10
-485.973
 20
55.3212
 10
-485.7867
 20
55.6647
 10
-485.54
 20
55.9639
 10
-485.2409
 20
56.2108
 10
-484.8978
 20
56.3972
 10
-484.5186
 20
56.515
 10
-484.1115
 20
56.5561
  0
LWPOLYLINE
  5
67
330
1F
100
AcDbEntity
  8
Layer 1
 62
     7
370
    25
100
AcDbPolyline
 90
       33
 70
     1
 43
0.0
 10
-456.2689
 20
56.5561
 10
-455.8618
 20
56.515
 10
-455.4827
 20
56.3972
 10
-455.1395
 20
56.2108
 10
-454.8405
 20
55.9639
 10
-454.5937
 20
55.6647
 10
-454.4074
 20
55.3212
 10
-454.2897
 20
54.9417
 10
-454.2486
 20
54.5343
 10
-454.2897
 20
54.1269
 10
-454.4074
 20
53.7474
 10
-454.5937
 20
53.4039
 10
-454.8405
 20
53.1047
 10
-455.1395
 20
52.8578
 10
-455.4827
 20
52.6714
 10
-455.8618
 20
52.5536
 10
-456.2689
 20
52.5125
 10
-456.676
 20
52.5536
 10
-457.0552
 20
52.6714
 10
-457.3983
 20
52.8578
 10
-457.6974
 20
53.1047
 10
-457.9441
 20
53.4039
 10
-458.1304
 20
53.7474
 10
-458.2481
 20
54.1269
 10
-458.2892
 20
54.5343
 10
-458.2481
 20
54.9417
 10
-458.1304
 20
55.3212
 10
-457.9441
 20
55.6647
 10
-457.6974
 20
55.9639
 10
-457.3983
 20
56.2108
 10
-457.0552
 20
56.3972
 10
-456.676
 20
56.515
 10
-456.2689
 20
56.5561
  0
LWPOLYLINE
  5
68
330
1F
100
AcDbEntity
  8
Layer 1
 62
     7
370
    25
100
AcDbPolyline
 90
       33
 70
     1
 43
0.0
 10
-428.4263
 20
56.5561
 10
-428.019
 20
56.515
 10
-427.6397
 20
56.3972
 10
-427.2965
 20
56.2108
 10
-426.9976
 20
55.9639
 10
-426.7509
 20
55.6647
 10
-426.5647
 20
55.3212
 10
-426.447
 20
54.9417
 10
-426.406
 20
54.5343
 10
-426.447
 20
54.1269
 10
-426.5647
 20
53.7474
 10
-426.7509
 20
53.4039
 10
-426.9976
 20
53.1047
 10
-427.2965
 20
52.8578
 10
-427.6397
 20
52.6714
 10
-428.019
 20
52.5536
 10
-428.4263
 20
52.5125
 10
-428.8334
 20
52.5536
 10
-429.2126
 20
52.6714
 10
-429.5557
 20
52.8578
 10
-429.8548
 20
53.1047
 10
-430.1015
 20
53.4039
 10
-430.2878
 20
53.7474
 10
-430.4055
 20
54.1269
 10
-430.4466
 20
54.5343
 10
-430.4055
 20
54.9417
 10
-430.2878
 20
55.3212
 10
-430.1015
 20
55.6647
 10
-429.8548
 20
55.9639
 10
-429.5557
 20
56.2108
 10
-429.2126
 20
56.3972
 10
-428.8334
 20
56.515
 10
-428.4263
 20
56.5561
  0
LWPOLYLINE
  5
69
330
1F
100
AcDbEntity
  8
Layer 1
 62
     7
370
    25
100
AcDbPolyline
 90
       33
 70
     1
 43
0.0
 10
-400.5837
 20
56.5561
 10
-400.1764
 20
56.515
 10
-399.7971
 20
56.3972
 10
-399.454
 20
56.2108
 10
-399.155
 20
55.9639
 10
-398.9084
 20
55.6647
 10
-398.7222
 20
55.3212
 10
-398.6045
 20
54.9417
 10
-398.5635
 20
54.5343
 10
-398.6045
 20
54.1269
 10
-398.7222
 20
53.7474
 10
-398.9084
 20
53.4039
 10
-399.155
 20
53.1047
 10
-399.454
 20
52.8578
 10
-399.7971
 20
52.6714
 10
-400.1764
 20
52.5536
 10
-400.5837
 20
52.5125
 10
-400.9908
 20
52.5536
 10
-401.37
 20
52.6714
 10
-401.7131
 20
52.8578
 10
-402.0122
 20
53.1047
 10
-402.2589
 20
53.4039
 10
-402.4452
 20
53.7474
 10
-402.5629
 20
54.1269
 10
-402.604
 20
54.5343
 10
-402.5629
 20
54.9417
 10
-402.4452
 20
55.3212
 10
-402.2589
 20
55.6647
 10
-402.0122
 20
55.9639
 10
-401.7131
 20
56.2108
 10
-401.37
 20
56.3972
 10
-400.9908
 20
56.515
 10
-400.5837
 20
56.5561
  0
LWPOLYLINE
  5
6A
330
1F
100
AcDbEntity
  8
Layer 1
 62
     7
370
    25
100
AcDbPolyline
 90
       33
 70
     1
 43
0.0
 10
-372.7411
 20
56.5561
 10
-372.3338
 20
56.515
 10
-371.9545
 20
56.3972
 10
-371.6114
 20
56.2108
 10
-371.3124
 20
55.9639
 10
-371.0658
 20
55.6647
 10
-370.8796
 20
55.3212
 10
-370.7619
 20
54.9417
 10
-370.7209
 20
54.5343
 10
-370.7619
 20
54.1269
 10
-370.8796
 20
53.7474
 10
-371.0658
 20
53.4039
 10
-371.3124
 20
53.1047
 10
-371.6114
 20
52.8578
 10
-371.9545
 20
52.6714
 10
-372.3338
 20
52.5536
 10
-372.7411
 20
52.5125
 10
-373.1482
 20
52.5536
 10
-373.5274
 20
52.6714
 10
-373.8705
 20
52.8578
 10
-374.1696
 20
53.1047
 10
-374.4163
 20
53.4039
 10
-374.6026
 20
53.7474
 10
-374.7203
 20
54.1269
 10
-374.7614
 20
54.5343
 10
-374.7203
 20
54.9417
 10
-374.6026
 20
55.3212
 10
-374.4163
 20
55.6647
 10
-374.1696
 20
55.9639
 10
-373.8705
 20
56.2108
 10
-373.5274
 20
56.3972
 10
-373.1482
 20
56.515
 10
-372.7411
 20
56.5561
  0
LWPOLYLINE
  5
6B
330
1F
100
AcDbEntity
  8
Layer 1
 62
     7
370
    25
100
AcDbPolyline
 90
       33
 70
     1
 43
0.0
 10
-344.8985
 20
56.5561
 10
-344.4912
 20
56.515
 10
-344.1119
 20
56.3972
 10
-343.7688
 20
56.2108
 10
-343.4698
 20
55.9639
 10
-343.2232
 20
55.6647
 10
-343.037
 20
55.3212
 10
-342.9193
 20
54.9417
 10
-342.8783
 20
54.5343
 10
-342.9193
 20
54.1269
 10
-343.037
 20
53.7474
 10
-343.2232
 20
53.4039
 10
-343.4698
 20
53.1047
 10
-343.7688
 20
52.8578
 10
-344.1119
 20
52.6714
 10
-344.4912
 20
52.5536
 10
-344.8985
 20
52.5125
 10
-345.3056
 20
52.5536
 10
-345.6848
 20
52.6714
 10
-346.0279
 20
52.8578
 10
-346.327
 20
53.1047
 10
-346.5737
 20
53.4039
 10
-346.76
 20
53.7474
 10
-346.8777
 20
54.1269
 10
-346.9188
 20
54.5343
 10
-346.8777
 20
54.9417
 10
-346.76
 20
55.3212
 10
-346.5737
 20
55.6647
 10
-346.327
 20
55.9639
 10
-346.0279
 20
56.2108
 10
-345.6848
 20
56.3972
 10
-345.3056
 20
56.515
 10
-344.8985
 20
56.5561
  0
LWPOLYLINE
  5
6C
330
1F
100
AcDbEntity
  8
Layer 1
 62
     7
370
    25
100
AcDbPolyline
 90
       33
 70
     1
 43
0.0
 10
-317.056
 20
56.5561
 10
-316.6487
 20
56.515
 10
-316.2694
 20
56.3972
 10
-315.9262
 20
56.2108
 10
-315.6272
 20
55.9639
 10
-315.3806
 20
55.6647
 10
-315.1944
 20
55.3212
 10
-315.0767
 20
54.9417
 10
-315.0357
 20
54.5343
 10
-315.0767
 20
54.1269
 10
-315.1944
 20
53.7474
 10
-315.3806
 20
53.4039
 10
-315.6272
 20
53.1047
 10
-315.9262
 20
52.8578
 10
-316.2694
 20
52.6714
 10
-316.6487
 20
52.5536
 10
-317.056
 20
52.5125
 10
-317.463
 20
52.5536
 10
-317.8422
 20
52.6714
 10
-318.1854
 20
52.8578
 10
-318.4844
 20
53.1047
 10
-318.7311
 20
53.4039
 10
-318.9174
 20
53.7474
 10
-319.0351
 20
54.1269
 10
-319.0762
 20
54.5343
 10
-319.0351
 20
54.9417
 10
-318.9174
 20
55.3212
 10
-318.7311
 20
55.6647
 10
-318.4844
 20
55.9639
 10
-318.1854
 20
56.2108
 10
-317.8422
 20
56.3972
 10
-317.463
 20
56.515
 10
-317.056
 20
56.5561
  0
LWPOLYLINE
  5
6D
330
1F
100
AcDbEntity
  8
Layer 1
 62
     7
370
    25
100
AcDbPolyline
 90
       33
 70
     1
 43
0.0
 10
-289.2134
 20
56.5561
 10
-288.8061
 20
56.515
 10
-288.4267
 20
56.3972
 10
-288.0833
 20
56.2108
 10
-287.7842
 20
55.9639
 10
-287.5375
 20
55.6647
 10
-287.3511
 20
55.3212
 10
-287.2334
 20
54.9417
 10
-287.1923
 20
54.5343
 10
-287.2334
 20
54.1269
 10
-287.3511
 20
53.7474
 10
-287.5375
 20
53.4039
 10
-287.7842
 20
53.1047
 10
-288.0833
 20
52.8578
 10
-288.4267
 20
52.6714
 10
-288.8061
 20
52.5536
 10
-289.2134
 20
52.5125
 10
-289.6204
 20
52.5536
 10
-289.9996
 20
52.6714
 10
-290.3428
 20
52.8578
 10
-290.6418
 20
53.1047
 10
-290.8885
 20
53.4039
 10
-291.0748
 20
53.7474
 10
-291.1925
 20
54.1269
 10
-291.2336
 20
54.5343
 10
-291.1925
 20
54.9417
 10
-291.0748
 20
55.3212
 10
-290.8885
 20
55.6647
 10
-290.6418
 20
55.9639
 10
-290.3428
 20
56.2108
 10
-289.9996
 20
56.3972
 10
-289.6204
 20
56.515
 10
-289.2134
 20
56.5561
  0
LWPOLYLINE
  5
6E
330
1F
100
AcDbEntity
  8
Layer 1
 62
     7
370
    25
100
AcDbPolyline
 90
       33
 70
     1
 43
0.0
 10
-261.3708
 20
56.5561
 10
-260.9635
 20
56.515
 10
-260.5841
 20
56.3972
 10
-260.2408
 20
56.2108
 10
-259.9417
 20
55.9639
 10
-259.6949
 20
55.6647
 10
-259.5085
 20
55.3212
 10
-259.3908
 20
54.9417
 10
-259.3497
 20
54.5343
 10
-259.3908
 20
54.1269
 10
-259.5085
 20
53.7474
 10
-259.6949
 20
53.4039
 10
-259.9417
 20
53.1047
 10
-260.2408
 20
52.8578
 10
-260.5841
 20
52.6714
 10
-260.9635
 20
52.5536
 10
-261.3708
 20
52.5125
 10
-261.7779
 20
52.5536
 10
-262.157
 20
52.6714
 10
-262.5002
 20
52.8578
 10
-262.7992
 20
53.1047
 10
-263.046
 20
53.4039
 10
-263.2323
 20
53.7474
 10
-263.35
 20
54.1269
 10
-263.3911
 20
54.5343
 10
-263.35
 20
54.9417
 10
-263.2323
 20
55.3212
 10
-263.046
 20
55.6647
 10
-262.7992
 20
55.9639
 10
-262.5002
 20
56.2108
 10
-262.157
 20
56.3972
 10
-261.7779
 20
56.515
 10
-261.3708
 20
56.5561
  0
LWPOLYLINE
  5
6F
330
1F
100
AcDbEntity
  8
Layer 1
 62
     7
370
    25
100
AcDbPolyline
 90
       33
 70
     1
 43
0.0
 10
-511.9541
 20
31.6991
 10
-511.547
 20
31.658
 10
-511.1679
 20
31.5402
 10
-510.8247
 20
31.3538
 10
-510.5257
 20
31.1069
 10
-510.2789
 20
30.8077
 10
-510.0926
 20
30.4642
 10
-509.9749
 20
30.0847
 10
-509.9338
 20
29.6773
 10
-509.9749
 20
29.2699
 10
-510.0926
 20
28.8905
 10
-510.2789
 20
28.5472
 10
-510.5257
 20
28.2481
 10
-510.8247
 20
28.0014
 10
-511.1679
 20
27.8151
 10
-511.547
 20
27.6973
 10
-511.9541
 20
27.6563
 10
-512.3612
 20
27.6973
 10
-512.7404
 20
27.8151
 10
-513.0835
 20
28.0014
 10
-513.3826
 20
28.2481
 10
-513.6293
 20
28.5472
 10
-513.8156
 20
28.8905
 10
-513.9333
 20
29.2699
 10
-513.9744
 20
29.6773
 10
-513.9333
 20
30.0847
 10
-513.8156
 20
30.4642
 10
-513.6293
 20
30.8077
 10
-513.3826
 20
31.1069
 10
-513.0835
 20
31.3538
 10
-512.7404
 20
31.5402
 10
-512.3612
 20
31.658
 10
-511.9541
 20
31.6991
  0
LWPOLYLINE
  5
70
330
1F
100
AcDbEntity
  8
Layer 1
 62
     7
370
    25
100
AcDbPolyline
 90
       33
 70
     1
 43
0.0
 10
-456.2689
 20
31.6991
 10
-455.8618
 20
31.658
 10
-455.4827
 20
31.5402
 10
-455.1395
 20
31.3538
 10
-454.8405
 20
31.1069
 10
-454.5937
 20
30.8077
 10
-454.4074
 20
30.4642
 10
-454.2897
 20
30.0847
 10
-454.2486
 20
29.6773
 10
-454.2897
 20
29.2699
 10
-454.4074
 20
28.8905
 10
-454.5937
 20
28.5472
 10
-454.8405
 20
28.2481
 10
-455.1395
 20
28.0014
 10
-455.4827
 20
27.8151
 10
-455.8618
 20
27.6973
 10
-456.2689
 20
27.6563
 10
-456.676
 20
27.6973
 10
-457.0552
 20
27.8151
 10
-457.3983
 20
28.0014
 10
-457.6974
 20
28.2481
 10
-457.9441
 20
28.5472
 10
-458.1304
 20
28.8905
 10
-458.2481
 20
29.2699
 10
-458.2892
 20
29.6773
 10
-458.2481
 20
30.0847
 10
-458.1304
 20
30.4642
 10
-457.9441
 20
30.8077
 10
-457.6974
 20
31.1069
 10
-457.3983
 20
31.3538
 10
-457.0552
 20
31.5402
 10
-456.676
 20
31.658
 10
-456.2689
 20
31.6991
  0
LWPOLYLINE
  5
71
330
1F
100
AcDbEntity
  8
Layer 1
 62
     7
370
    25
100
AcDbPolyline
 90
       33
 70
     1
 43
0.0
 10
-428.4263
 20
31.6991
 10
-428.019
 20
31.658
 10
-427.6397
 20
31.5402
 10
-427.2965
 20
31.3538
 10
-426.9976
 20
31.1069
 10
-426.7509
 20
30.8077
 10
-426.5647
 20
30.4642
 10
-426.447
 20
30.0847
 10
-426.406
 20
29.6773
 10
-426.447
 20
29.2699
 10
-426.5647
 20
28.8905
 10
-426.7509
 20
28.5472
 10
-426.9976
 20
28.2481
 10
-427.2965
 20
28.0014
 10
-427.6397
 20
27.8151
 10
-428.019
 20
27.6973
 10
-428.4263
 20
27.6563
 10
-428.8334
 20
27.6973
 10
-429.2126
 20
27.8151
 10
-429.5557
 20
28.0014
 10
-429.8548
 20
28.2481
 10
-430.1015
 20
28.5472
 10
-430.2878
 20
28.8905
 10
-430.4055
 20
29.2699
 10
-430.4466
 20
29.6773
 10
-430.4055
 20
30.0847
 10
-430.2878
 20
30.4642
 10
-430.1015
 20
30.8077
 10
-429.8548
 20
31.1069
 10
-429.5557
 20
31.3538
 10
-429.2126
 20
31.5402
 10
-428.8334
 20
31.658
 10
-428.4263
 20
31.6991
  0
LWPOLYLINE
  5
72
330
1F
100
AcDbEntity
  8
Layer 1
 62
     7
370
    25
100
AcDbPolyline
 90
       33
 70
     1
 43
0.0
 10
-400.5837
 20
31.6991
 10
-400.1764
 20
31.658
 10
-399.7971
 20
31.5402
 10
-399.454
 20
31.3538
 10
-399.155
 20
31.1069
 10
-398.9084
 20
30.8077
 10
-398.7222
 20
30.4642
 10
-398.6045
 20
30.0847
 10
-398.5635
 20
29.6773
 10
-398.6045
 20
29.2699
 10
-398.7222
 20
28.8905
 10
-398.9084
 20
28.5472
 10
-399.155
 20
28.2481
 10
-399.454
 20
28.0014
 10
-399.7971
 20
27.8151
 10
-400.1764
 20
27.6973
 10
-400.5837
 20
27.6563
 10
-400.9908
 20
27.6973
 10
-401.37
 20
27.8151
 10
-401.7131
 20
28.0014
 10
-402.0122
 20
28.2481
 10
-402.2589
 20
28.5472
 10
-402.4452
 20
28.8905
 10
-402.5629
 20
29.2699
 10
-402.604
 20
29.6773
 10
-402.5629
 20
30.0847
 10
-402.4452
 20
30.4642
 10
-402.2589
 20
30.8077
 10
-402.0122
 20
31.1069
 10
-401.7131
 20
31.3538
 10
-401.37
 20
31.5402
 10
-400.9908
 20
31.658
 10
-400.5837
 20
31.6991
  0
LWPOLYLINE
  5
73
330
1F
100
AcDbEntity
  8
Layer 1
 62
     7
370
    25
100
AcDbPolyline
 90
       33
 70
     1
 43
0.0
 10
-372.7411
 20
31.6991
 10
-372.3338
 20
31.658
 10
-371.9545
 20
31.5402
 10
-371.6114
 20
31.3538
 10
-371.3124
 20
31.1069
 10
-371.0658
 20
30.8077
 10
-370.8796
 20
30.4642
 10
-370.7619
 20
30.0847
 10
-370.7209
 20
29.6773
 10
-370.7619
 20
29.2699
 10
-370.8796
 20
28.8905
 10
-371.0658
 20
28.5472
 10
-371.3124
 20
28.2481
 10
-371.6114
 20
28.0014
 10
-371.9545
 20
27.8151
 10
-372.3338
 20
27.6973
 10
-372.7411
 20
27.6563
 10
-373.1482
 20
27.6973
 10
-373.5274
 20
27.8151
 10
-373.8705
 20
28.0014
 10
-374.1696
 20
28.2481
 10
-374.4163
 20
28.5472
 10
-374.6026
 20
28.8905
 10
-374.7203
 20
29.2699
 10
-374.7614
 20
29.6773
 10
-374.7203
 20
30.0847
 10
-374.6026
 20
30.4642
 10
-374.4163
 20
30.8077
 10
-374.1696
 20
31.1069
 10
-373.8705
 20
31.3538
 10
-373.5274
 20
31.5402
 10
-373.1482
 20
31.658
 10
-372.7411
 20
31.6991
  0
LWPOLYLINE
  5
74
330
1F
100
AcDbEntity
  8
Layer 1
 62
     7
370
    25
100
AcDbPolyline
 90
       33
 70
     1
 43
0.0
 10
-344.8985
 20
31.6991
 10
-344.4912
 20
31.658
 10
-344.1119
 20
31.5402
 10
-343.7688
 20
31.3538
 10
-343.4698
 20
31.1069
 10
-343.2232
 20
30.8077
 10
-343.037
 20
30.4642
 10
-342.9193
 20
30.0847
 10
-342.8783
 20
29.6773
 10
-342.9193
 20
29.2699
 10
-343.037
 20
28.8905
 10
-343.2232
 20
28.5472
 10
-343.4698
 20
28.2481
 10
-343.7688
 20
28.0014
 10
-344.1119
 20
27.8151
 10
-344.4912
 20
27.6973
 10
-344.8985
 20
27.6563
 10
-345.3056
 20
27.6973
 10
-345.6848
 20
27.8151
 10
-346.0279
 20
28.0014
 10
-346.327
 20
28.2481
 10
-346.5737
 20
28.5472
 10
-346.76
 20
28.8905
 10
-346.8777
 20
29.2699
 10
-346.9188
 20
29.6773
 10
-346.8777
 20
30.0847
 10
-346.76
 20
30.4642
 10
-346.5737
 20
30.8077
 10
-346.327
 20
31.1069
 10
-346.0279
 20
31.3538
 10
-345.6848
 20
31.5402
 10
-345.3056
 20
31.658
 10
-344.8985
 20
31.6991
  0
LWPOLYLINE
  5
75
330
1F
100
AcDbEntity
  8
Layer 1
 62
     7
370
    25
100
AcDbPolyline
 90
       33
 70
     1
 43
0.0
 10
-317.056
 20
31.6991
 10
-316.6487
 20
31.658
 10
-316.2694
 20
31.5402
 10
-315.9262
 20
31.3538
 10
-315.6272
 20
31.1069
 10
-315.3806
 20
30.8077
 10
-315.1944
 20
30.4642
 10
-315.0767
 20
30.0847
 10
-315.0357
 20
29.6773
 10
-315.0767
 20
29.2699
 10
-315.1944
 20
28.8905
 10
-315.3806
 20
28.5472
 10
-315.6272
 20
28.2481
 10
-315.9262
 20
28.0014
 10
-316.2694
 20
27.8151
 10
-316.6487
 20
27.6973
 10
-317.056
 20
27.6563
 10
-317.463
 20
27.6973
 10
-317.8422
 20
27.8151
 10
-318.1854
 20
28.0014
 10
-318.4844
 20
28.2481
 10
-318.7311
 20
28.5472
 10
-318.9174
 20
28.8905
 10
-319.0351
 20
29.2699
 10
-319.0762
 20
29.6773
 10
-319.0351
 20
30.0847
 10
-318.9174
 20
30.4642
 10
-318.7311
 20
30.8077
 10
-318.4844
 20
31.1069
 10
-318.1854
 20
31.3538
 10
-317.8422
 20
31.5402
 10
-317.463
 20
31.658
 10
-317.056
 20
31.6991
  0
LWPOLYLINE
  5
76
330
1F
100
AcDbEntity
  8
Layer 1
 62
     7
370
    25
100
AcDbPolyline
 90
       33
 70
     1
 43
0.0
 10
-261.3708
 20
31.6991
 10
-260.9635
 20
31.658
 10
-260.5841
 20
31.5402
 10
-260.2408
 20
31.3538
 10
-259.9417
 20
31.1069
 10
-259.6949
 20
30.8077
 10
-259.5085
 20
30.4642
 10
-259.3908
 20
30.0847
 10
-259.3497
 20
29.6773
 10
-259.3908
 20
29.2699
 10
-259.5085
 20
28.8905
 10
-259.6949
 20
28.5472
 10
-259.9417
 20
28.2481
 10
-260.2408
 20
28.0014
 10
-260.5841
 20
27.8151
 10
-260.9635
 20
27.6973
 10
-261.3708
 20
27.6563
 10
-261.7779
 20
27.6973
 10
-262.157
 20
27.8151
 10
-262.5002
 20
28.0014
 10
-262.7992
 20
28.2481
 10
-263.046
 20
28.5472
 10
-263.2323
 20
28.8905
 10
-263.35
 20
29.2699
 10
-263.3911
 20
29.6773
 10
-263.35
 20
30.0847
 10
-263.2323
 20
30.4642
 10
-263.046
 20
30.8077
 10
-262.7992
 20
31.1069
 10
-262.5002
 20
31.3538
 10
-262.157
 20
31.5402
 10
-261.7779
 20
31.658
 10
-261.3708
 20
31.6991
  0
LWPOLYLINE
  5
77
330
1F
100
AcDbEntity
  8
Layer 1
 62
     7
370
    25
100
AcDbPolyline
 90
       33
 70
     1
 43
0.0
 10
-511.9541
 20
6.842
 10
-511.547
 20
6.8009
 10
-511.1679
 20
6.6831
 10
-510.8247
 20
6.4967
 10
-510.5257
 20
6.2498
 10
-510.2789
 20
5.9506
 10
-510.0926
 20
5.6072
 10
-509.9749
 20
5.2277
 10
-509.9338
 20
4.8203
 10
-509.9749
 20
4.4131
 10
-510.0926
 20
4.0338
 10
-510.2789
 20
3.6905
 10
-510.5257
 20
3.3913
 10
-510.8247
 20
3.1445
 10
-511.1679
 20
2.9581
 10
-511.547
 20
2.8403
 10
-511.9541
 20
2.7992
 10
-512.3612
 20
2.8403
 10
-512.7404
 20
2.9581
 10
-513.0835
 20
3.1445
 10
-513.3826
 20
3.3913
 10
-513.6293
 20
3.6905
 10
-513.8156
 20
4.0338
 10
-513.9333
 20
4.4131
 10
-513.9744
 20
4.8203
 10
-513.9333
 20
5.2277
 10
-513.8156
 20
5.6072
 10
-513.6293
 20
5.9506
 10
-513.3826
 20
6.2498
 10
-513.0835
 20
6.4967
 10
-512.7404
 20
6.6831
 10
-512.3612
 20
6.8009
 10
-511.9541
 20
6.842
  0
LWPOLYLINE
  5
78
330
1F
100
AcDbEntity
  8
Layer 1
 62
     7
370
    25
100
AcDbPolyline
 90
       33
 70
     1
 43
0.0
 10
-484.1115
 20
6.842
 10
-483.7044
 20
6.8009
 10
-483.3253
 20
6.6831
 10
-482.9821
 20
6.4967
 10
-482.6831
 20
6.2498
 10
-482.4363
 20
5.9506
 10
-482.25
 20
5.6072
 10
-482.1323
 20
5.2277
 10
-482.0912
 20
4.8203
 10
-482.1323
 20
4.4131
 10
-482.25
 20
4.0338
 10
-482.4363
 20
3.6905
 10
-482.6831
 20
3.3913
 10
-482.9821
 20
3.1445
 10
-483.3253
 20
2.9581
 10
-483.7044
 20
2.8403
 10
-484.1115
 20
2.7992
 10
-484.5186
 20
2.8403
 10
-484.8978
 20
2.9581
 10
-485.2409
 20
3.1445
 10
-485.54
 20
3.3913
 10
-485.7867
 20
3.6905
 10
-485.973
 20
4.0338
 10
-486.0907
 20
4.4131
 10
-486.1318
 20
4.8203
 10
-486.0907
 20
5.2277
 10
-485.973
 20
5.6072
 10
-485.7867
 20
5.9506
 10
-485.54
 20
6.2498
 10
-485.2409
 20
6.4967
 10
-484.8978
 20
6.6831
 10
-484.5186
 20
6.8009
 10
-484.1115
 20
6.842
  0
LWPOLYLINE
  5
79
330
1F
100
AcDbEntity
  8
Layer 1
 62
     7
370
    25
100
AcDbPolyline
 90
       33
 70
     1
 43
0.0
 10
-456.2689
 20
6.842
 10
-455.8618
 20
6.8009
 10
-455.4827
 20
6.6831
 10
-455.1395
 20
6.4967
 10
-454.8405
 20
6.2498
 10
-454.5937
 20
5.9506
 10
-454.4074
 20
5.6072
 10
-454.2897
 20
5.2277
 10
-454.2486
 20
4.8203
 10
-454.2897
 20
4.4131
 10
-454.4074
 20
4.0338
 10
-454.5937
 20
3.6905
 10
-454.8405
 20
3.3913
 10
-455.1395
 20
3.1445
 10
-455.4827
 20
2.9581
 10
-455.8618
 20
2.8403
 10
-456.2689
 20
2.7992
 10
-456.676
 20
2.8403
 10
-457.0552
 20
2.9581
 10
-457.3983
 20
3.1445
 10
-457.6974
 20
3.3913
 10
-457.9441
 20
3.6905
 10
-458.1304
 20
4.0338
 10
-458.2481
 20
4.4131
 10
-458.2892
 20
4.8203
 10
-458.2481
 20
5.2277
 10
-458.1304
 20
5.6072
 10
-457.9441
 20
5.9506
 10
-457.6974
 20
6.2498
 10
-457.3983
 20
6.4967
 10
-457.0552
 20
6.6831
 10
-456.676
 20
6.8009
 10
-456.2689
 20
6.842
  0
LWPOLYLINE
  5
7A
330
1F
100
AcDbEntity
  8
Layer 1
 62
     7
370
    25
100
AcDbPolyline
 90
       33
 70
     1
 43
0.0
 10
-428.4263
 20
6.842
 10
-428.019
 20
6.8009
 10
-427.6397
 20
6.6831
 10
-427.2965
 20
6.4967
 10
-426.9976
 20
6.2498
 10
-426.7509
 20
5.9506
 10
-426.5647
 20
5.6072
 10
-426.447
 20
5.2277
 10
-426.406
 20
4.8203
 10
-426.447
 20
4.4131
 10
-426.5647
 20
4.0338
 10
-426.7509
 20
3.6905
 10
-426.9976
 20
3.3913
 10
-427.2965
 20
3.1445
 10
-427.6397
 20
2.9581
 10
-428.019
 20
2.8403
 10
-428.4263
 20
2.7992
 10
-428.8334
 20
2.8403
 10
-429.2126
 20
2.9581
 10
-429.5557
 20
3.1445
 10
-429.8548
 20
3.3913
 10
-430.1015
 20
3.6905
 10
-430.2878
 20
4.0338
 10
-430.4055
 20
4.4131
 10
-430.4466
 20
4.8203
 10
-430.4055
 20
5.2277
 10
-430.2878
 20
5.6072
 10
-430.1015
 20
5.9506
 10
-429.8548
 20
6.2498
 10
-429.5557
 20
6.4967
 10
-429.2126
 20
6.6831
 10
-428.8334
 20
6.8009
 10
-428.4263
 20
6.842
  0
LWPOLYLINE
  5
7B
330
1F
100
AcDbEntity
  8
Layer 1
 62
     7
370
    25
100
AcDbPolyline
 90
       33
 70
     1
 43
0.0
 10
-400.5837
 20
6.842
 10
-400.1764
 20
6.8009
 10
-399.7971
 20
6.6831
 10
-399.454
 20
6.4967
 10
-399.155
 20
6.2498
 10
-398.9084
 20
5.9506
 10
-398.7222
 20
5.6072
 10
-398.6045
 20
5.2277
 10
-398.5635
 20
4.8203
 10
-398.6045
 20
4.4131
 10
-398.7222
 20
4.0338
 10
-398.9084
 20
3.6905
 10
-399.155
 20
3.3913
 10
-399.454
 20
3.1445
 10
-399.7971
 20
2.9581
 10
-400.1764
 20
2.8403
 10
-400.5837
 20
2.7992
 10
-400.9908
 20
2.8403
 10
-401.37
 20
2.9581
 10
-401.7131
 20
3.1445
 10
-402.0122
 20
3.3913
 10
-402.2589
 20
3.6905
 10
-402.4452
 20
4.0338
 10
-402.5629
 20
4.4131
 10
-402.604
 20
4.8203
 10
-402.5629
 20
5.2277
 10
-402.4452
 20
5.6072
 10
-402.2589
 20
5.9506
 10
-402.0122
 20
6.2498
 10
-401.7131
 20
6.4967
 10
-401.37
 20
6.6831
 10
-400.9908
 20
6.8009
 10
-400.5837
 20
6.842
  0
LWPOLYLINE
  5
7C
330
1F
100
AcDbEntity
  8
Layer 1
 62
     7
370
    25
100
AcDbPolyline
 90
       33
 70
     1
 43
0.0
 10
-372.7411
 20
6.842
 10
-372.3338
 20
6.8009
 10
-371.9545
 20
6.6831
 10
-371.6114
 20
6.4967
 10
-371.3124
 20
6.2498
 10
-371.0658
 20
5.9506
 10
-370.8796
 20
5.6072
 10
-370.7619
 20
5.2277
 10
-370.7209
 20
4.8203
 10
-370.7619
 20
4.4131
 10
-370.8796
 20
4.0338
 10
-371.0658
 20
3.6905
 10
-371.3124
 20
3.3913
 10
-371.6114
 20
3.1445
 10
-371.9545
 20
2.9581
 10
-372.3338
 20
2.8403
 10
-372.7411
 20
2.7992
 10
-373.1482
 20
2.8403
 10
-373.5274
 20
2.9581
 10
-373.8705
 20
3.1445
 10
-374.1696
 20
3.3913
 10
-374.4163
 20
3.6905
 10
-374.6026
 20
4.0338
 10
-374.7203
 20
4.4131
 10
-374.7614
 20
4.8203
 10
-374.7203
 20
5.2277
 10
-374.6026
 20
5.6072
 10
-374.4163
 20
5.9506
 10
-374.1696
 20
6.2498
 10
-373.8705
 20
6.4967
 10
-373.5274
 20
6.6831
 10
-373.1482
 20
6.8009
 10
-372.7411
 20
6.842
  0
LWPOLYLINE
  5
7D
330
1F
100
AcDbEntity
  8
Layer 1
 62
     7
370
    25
100
AcDbPolyline
 90
       33
 70
     1
 43
0.0
 10
-344.8985
 20
6.842
 10
-344.4912
 20
6.8009
 10
-344.1119
 20
6.6831
 10
-343.7688
 20
6.4967
 10
-343.4698
 20
6.2498
 10
-343.2232
 20
5.9506
 10
-343.037
 20
5.6072
 10
-342.9193
 20
5.2277
 10
-342.8783
 20
4.8203
 10
-342.9193
 20
4.4131
 10
-343.037
 20
4.0338
 10
-343.2232
 20
3.6905
 10
-343.4698
 20
3.3913
 10
-343.7688
 20
3.1445
 10
-344.1119
 20
2.9581
 10
-344.4912
 20
2.8403
 10
-344.8985
 20
2.7992
 10
-345.3056
 20
2.8403
 10
-345.6848
 20
2.9581
 10
-346.0279
 20
3.1445
 10
-346.327
 20
3.3913
 10
-346.5737
 20
3.6905
 10
-346.76
 20
4.0338
 10
-346.8777
 20
4.4131
 10
-346.9188
 20
4.8203
 10
-346.8777
 20
5.2277
 10
-346.76
 20
5.6072
 10
-346.5737
 20
5.9506
 10
-346.327
 20
6.2498
 10
-346.0279
 20
6.4967
 10
-345.6848
 20
6.6831
 10
-345.3056
 20
6.8009
 10
-344.8985
 20
6.842
  0
LWPOLYLINE
  5
7E
330
1F
100
AcDbEntity
  8
Layer 1
 62
     7
370
    25
100
AcDbPolyline
 90
       33
 70
     1
 43
0.0
 10
-317.056
 20
6.842
 10
-316.6487
 20
6.8009
 10
-316.2694
 20
6.6831
 10
-315.9262
 20
6.4967
 10
-315.6272
 20
6.2498
 10
-315.3806
 20
5.9506
 10
-315.1944
 20
5.6072
 10
-315.0767
 20
5.2277
 10
-315.0357
 20
4.8203
 10
-315.0767
 20
4.4131
 10
-315.1944
 20
4.0338
 10
-315.3806
 20
3.6905
 10
-315.6272
 20
3.3913
 10
-315.9262
 20
3.1445
 10
-316.2694
 20
2.9581
 10
-316.6487
 20
2.8403
 10
-317.056
 20
2.7992
 10
-317.463
 20
2.8403
 10
-317.8422
 20
2.9581
 10
-318.1854
 20
3.1445
 10
-318.4844
 20
3.3913
 10
-318.7311
 20
3.6905
 10
-318.9174
 20
4.0338
 10
-319.0351
 20
4.4131
 10
-319.0762
 20
4.8203
 10
-319.0351
 20
5.2277
 10
-318.9174
 20
5.6072
 10
-318.7311
 20
5.9506
 10
-318.4844
 20
6.2498
 10
-318.1854
 20
6.4967
 10
-317.8422
 20
6.6831
 10
-317.463
 20
6.8009
 10
-317.056
 20
6.842
  0
LWPOLYLINE
  5
7F
330
1F
100
AcDbEntity
  8
Layer 1
 62
     7
370
    25
100
AcDbPolyline
 90
       33
 70
     1
 43
0.0
 10
-289.2134
 20
6.842
 10
-288.8061
 20
6.8009
 10
-288.4267
 20
6.6831
 10
-288.0833
 20
6.4967
 10
-287.7842
 20
6.2498
 10
-287.5375
 20
5.9506
 10
-287.3511
 20
5.6072
 10
-287.2334
 20
5.2277
 10
-287.1923
 20
4.8203
 10
-287.2334
 20
4.4131
 10
-287.3511
 20
4.0338
 10
-287.5375
 20
3.6905
 10
-287.7842
 20
3.3913
 10
-288.0833
 20
3.1445
 10
-288.4267
 20
2.9581
 10
-288.8061
 20
2.8403
 10
-289.2134
 20
2.7992
 10
-289.6204
 20
2.8403
 10
-289.9996
 20
2.9581
 10
-290.3428
 20
3.1445
 10
-290.6418
 20
3.3913
 10
-290.8885
 20
3.6905
 10
-291.0748
 20
4.0338
 10
-291.1925
 20
4.4131
 10
-291.2336
 20
4.8203
 10
-291.1925
 20
5.2277
 10
-291.0748
 20
5.6072
 10
-290.8885
 20
5.9506
 10
-290.6418
 20
6.2498
 10
-290.3428
 20
6.4967
 10
-289.9996
 20
6.6831
 10
-289.6204
 20
6.8009
 10
-289.2134
 20
6.842
  0
LWPOLYLINE
  5
80
330
1F
100
AcDbEntity
  8
Layer 1
 62
     7
370
    25
100
AcDbPolyline
 90
       33
 70
     1
 43
0.0
 10
-261.3708
 20
6.842
 10
-260.9635
 20
6.8009
 10
-260.5841
 20
6.6831
 10
-260.2408
 20
6.4967
 10
-259.9417
 20
6.2498
 10
-259.6949
 20
5.9506
 10
-259.5085
 20
5.6072
 10
-259.3908
 20
5.2277
 10
-259.3497
 20
4.8203
 10
-259.3908
 20
4.4131
 10
-259.5085
 20
4.0338
 10
-259.6949
 20
3.6905
 10
-259.9417
 20
3.3913
 10
-260.2408
 20
3.1445
 10
-260.5841
 20
2.9581
 10
-260.9635
 20
2.8403
 10
-261.3708
 20
2.7992
 10
-261.7779
 20
2.8403
 10
-262.157
 20
2.9581
 10
-262.5002
 20
3.1445
 10
-262.7992
 20
3.3913
 10
-263.046
 20
3.6905
 10
-263.2323
 20
4.0338
 10
-263.35
 20
4.4131
 10
-263.3911
 20
4.8203
 10
-263.35
 20
5.2277
 10
-263.2323
 20
5.6072
 10
-263.046
 20
5.9506
 10
-262.7992
 20
6.2498
 10
-262.5002
 20
6.4967
 10
-262.157
 20
6.6831
 10
-261.7779
 20
6.8009
 10
-261.3708
 20
6.842
  0
LWPOLYLINE
  5
81
330
1F
100
AcDbEntity
  8
Layer 1
 62
     7
370
    25
100
AcDbPolyline
 90
       33
 70
     1
 43
0.0
 10
-511.9541
 20
-18.015
 10
-511.547
 20
-18.0561
 10
-511.1679
 20
-18.1739
 10
-510.8247
 20
-18.3603
 10
-510.5257
 20
-18.6071
 10
-510.2789
 20
-18.9062
 10
-510.0926
 20
-19.2495
 10
-509.9749
 20
-19.6288
 10
-509.9338
 20
-20.036
 10
-509.9749
 20
-20.4434
 10
-510.0926
 20
-20.8229
 10
-510.2789
 20
-21.1664
 10
-510.5257
 20
-21.4656
 10
-510.8247
 20
-21.7125
 10
-511.1679
 20
-21.8989
 10
-511.547
 20
-22.0167
 10
-511.9541
 20
-22.0578
 10
-512.3612
 20
-22.0167
 10
-512.7404
 20
-21.8989
 10
-513.0835
 20
-21.7125
 10
-513.3826
 20
-21.4656
 10
-513.6293
 20
-21.1664
 10
-513.8156
 20
-20.8229
 10
-513.9333
 20
-20.4434
 10
-513.9744
 20
-20.036
 10
-513.9333
 20
-19.6288
 10
-513.8156
 20
-19.2495
 10
-513.6293
 20
-18.9062
 10
-513.3826
 20
-18.6071
 10
-513.0835
 20
-18.3603
 10
-512.7404
 20
-18.1739
 10
-512.3612
 20
-18.0561
 10
-511.9541
 20
-18.015
  0
LWPOLYLINE
  5
82
330
1F
100
AcDbEntity
  8
Layer 1
 62
     7
370
    25
100
AcDbPolyline
 90
       33
 70
     1
 43
0.0
 10
-484.1115
 20
-18.015
 10
-483.7044
 20
-18.0561
 10
-483.3253
 20
-18.1739
 10
-482.9821
 20
-18.3603
 10
-482.6831
 20
-18.6071
 10
-482.4363
 20
-18.9062
 10
-482.25
 20
-19.2495
 10
-482.1323
 20
-19.6288
 10
-482.0912
 20
-20.036
 10
-482.1323
 20
-20.4434
 10
-482.25
 20
-20.8229
 10
-482.4363
 20
-21.1664
 10
-482.6831
 20
-21.4656
 10
-482.9821
 20
-21.7125
 10
-483.3253
 20
-21.8989
 10
-483.7044
 20
-22.0167
 10
-484.1115
 20
-22.0578
 10
-484.5186
 20
-22.0167
 10
-484.8978
 20
-21.8989
 10
-485.2409
 20
-21.7125
 10
-485.54
 20
-21.4656
 10
-485.7867
 20
-21.1664
 10
-485.973
 20
-20.8229
 10
-486.0907
 20
-20.4434
 10
-486.1318
 20
-20.036
 10
-486.0907
 20
-19.6288
 10
-485.973
 20
-19.2495
 10
-485.7867
 20
-18.9062
 10
-485.54
 20
-18.6071
 10
-485.2409
 20
-18.3603
 10
-484.8978
 20
-18.1739
 10
-484.5186
 20
-18.0561
 10
-484.1115
 20
-18.015
  0
LWPOLYLINE
  5
83
330
1F
100
AcDbEntity
  8
Layer 1
 62
     7
370
    25
100
AcDbPolyline
 90
       33
 70
     1
 43
0.0
 10
-456.2689
 20
-18.015
 10
-455.8618
 20
-18.0561
 10
-455.4827
 20
-18.1739
 10
-455.1395
 20
-18.3603
 10
-454.8405
 20
-18.6071
 10
-454.5937
 20
-18.9062
 10
-454.4074
 20
-19.2495
 10
-454.2897
 20
-19.6288
 10
-454.2486
 20
-20.036
 10
-454.2897
 20
-20.4434
 10
-454.4074
 20
-20.8229
 10
-454.5937
 20
-21.1664
 10
-454.8405
 20
-21.4656
 10
-455.1395
 20
-21.7125
 10
-455.4827
 20
-21.8989
 10
-455.8618
 20
-22.0167
 10
-456.2689
 20
-22.0578
 10
-456.676
 20
-22.0167
 10
-457.0552
 20
-21.8989
 10
-457.3983
 20
-21.7125
 10
-457.6974
 20
-21.4656
 10
-457.9441
 20
-21.1664
 10
-458.1304
 20
-20.8229
 10
-458.2481
 20
-20.4434
 10
-458.2892
 20
-20.036
 10
-458.2481
 20
-19.6288
 10
-458.1304
 20
-19.2495
 10
-457.9441
 20
-18.9062
 10
-457.6974
 20
-18.6071
 10
-457.3983
 20
-18.3603
 10
-457.0552
 20
-18.1739
 10
-456.676
 20
-18.0561
 10
-456.2689
 20
-18.015
  0
LWPOLYLINE
  5
84
330
1F
100
AcDbEntity
  8
Layer 1
 62
     7
370
    25
100
AcDbPolyline
 90
       33
 70
     1
 43
0.0
 10
-428.4263
 20
-18.015
 10
-428.019
 20
-18.0561
 10
-427.6397
 20
-18.1739
 10
-427.2965
 20
-18.3603
 10
-426.9976
 20
-18.6071
 10
-426.7509
 20
-18.9062
 10
-426.5647
 20
-19.2495
 10
-426.447
 20
-19.6288
 10
-426.406
 20
-20.036
 10
-426.447
 20
-20.4434
 10
-426.5647
 20
-20.8229
 10
-426.7509
 20
-21.1664
 10
-426.9976
 20
-21.4656
 10
-427.2965
 20
-21.7125
 10
-427.6397
 20
-21.8989
 10
-428.019
 20
-22.0167
 10
-428.4263
 20
-22.0578
 10
-428.8334
 20
-22.0167
 10
-429.2126
 20
-21.8989
 10
-429.5557
 20
-21.7125
 10
-429.8548
 20
-21.4656
 10
-430.1015
 20
-21.1664
 10
-430.2878
 20
-20.8229
 10
-430.4055
 20
-20.4434
 10
-430.4466
 20
-20.036
 10
-430.4055
 20
-19.6288
 10
-430.2878
 20
-19.2495
 10
-430.1015
 20
-18.9062
 10
-429.8548
 20
-18.6071
 10
-429.5557
 20
-18.3603
 10
-429.2126
 20
-18.1739
 10
-428.8334
 20
-18.0561
 10
-428.4263
 20
-18.015
  0
LWPOLYLINE
  5
85
330
1F
100
AcDbEntity
  8
Layer 1
 62
     7
370
    25
100
AcDbPolyline
 90
       33
 70
     1
 43
0.0
 10
-400.5837
 20
-18.015
 10
-400.1764
 20
-18.0561
 10
-399.7971
 20
-18.1739
 10
-399.454
 20
-18.3603
 10
-399.155
 20
-18.6071
 10
-398.9084
 20
-18.9062
 10
-398.7222
 20
-19.2495
 10
-398.6045
 20
-19.6288
 10
-398.5635
 20
-20.036
 10
-398.6045
 20
-20.4434
 10
-398.7222
 20
-20.8229
 10
-398.9084
 20
-21.1664
 10
-399.155
 20
-21.4656
 10
-399.454
 20
-21.7125
 10
-399.7971
 20
-21.8989
 10
-400.1764
 20
-22.0167
 10
-400.5837
 20
-22.0578
 10
-400.9908
 20
-22.0167
 10
-401.37
 20
-21.8989
 10
-401.7131
 20
-21.7125
 10
-402.0122
 20
-21.4656
 10
-402.2589
 20
-21.1664
 10
-402.4452
 20
-20.8229
 10
-402.5629
 20
-20.4434
 10
-402.604
 20
-20.036
 10
-402.5629
 20
-19.6288
 10
-402.4452
 20
-19.2495
 10
-402.2589
 20
-18.9062
 10
-402.0122
 20
-18.6071
 10
-401.7131
 20
-18.3603
 10
-401.37
 20
-18.1739
 10
-400.9908
 20
-18.0561
 10
-400.5837
 20
-18.015
  0
LWPOLYLINE
  5
86
330
1F
100
AcDbEntity
  8
Layer 1
 62
     7
370
    25
100
AcDbPolyline
 90
       33
 70
     1
 43
0.0
 10
-372.7411
 20
-18.015
 10
-372.3338
 20
-18.0561
 10
-371.9545
 20
-18.1739
 10
-371.6114
 20
-18.3603
 10
-371.3124
 20
-18.6071
 10
-371.0658
 20
-18.9062
 10
-370.8796
 20
-19.2495
 10
-370.7619
 20
-19.6288
 10
-370.7209
 20
-20.036
 10
-370.7619
 20
-20.4434
 10
-370.8796
 20
-20.8229
 10
-371.0658
 20
-21.1664
 10
-371.3124
 20
-21.4656
 10
-371.6114
 20
-21.7125
 10
-371.9545
 20
-21.8989
 10
-372.3338
 20
-22.0167
 10
-372.7411
 20
-22.0578
 10
-373.1482
 20
-22.0167
 10
-373.5274
 20
-21.8989
 10
-373.8705
 20
-21.7125
 10
-374.1696
 20
-21.4656
 10
-374.4163
 20
-21.1664
 10
-374.6026
 20
-20.8229
 10
-374.7203
 20
-20.4434
 10
-374.7614
 20
-20.036
 10
-374.7203
 20
-19.6288
 10
-374.6026
 20
-19.2495
 10
-374.4163
 20
-18.9062
 10
-374.1696
 20
-18.6071
 10
-373.8705
 20
-18.3603
 10
-373.5274
 20
-18.1739
 10
-373.1482
 20
-18.0561
 10
-372.7411
 20
-18.015
  0
LWPOLYLINE
  5
87
330
1F
100
AcDbEntity
  8
Layer 1
 62
     7
370
    25
100
AcDbPolyline
 90
       33
 70
     1
 43
0.0
 10
-344.8985
 20
-18.015
 10
-344.4912
 20
-18.0561
 10
-344.1119
 20
-18.1739
 10
-343.7688
 20
-18.3603
 10
-343.4698
 20
-18.6071
 10
-343.2232
 20
-18.9062
 10
-343.037
 20
-19.2495
 10
-342.9193
 20
-19.6288
 10
-342.8783
 20
-20.036
 10
-342.9193
 20
-20.4434
 10
-343.037
 20
-20.8229
 10
-343.2232
 20
-21.1664
 10
-343.4698
 20
-21.4656
 10
-343.7688
 20
-21.7125
 10
-344.1119
 20
-21.8989
 10
-344.4912
 20
-22.0167
 10
-344.8985
 20
-22.0578
 10
-345.3056
 20
-22.0167
 10
-345.6848
 20
-21.8989
 10
-346.0279
 20
-21.7125
 10
-346.327
 20
-21.4656
 10
-346.5737
 20
-21.1664
 10
-346.76
 20
-20.8229
 10
-346.8777
 20
-20.4434
 10
-346.9188
 20
-20.036
 10
-346.8777
 20
-19.6288
 10
-346.76
 20
-19.2495
 10
-346.5737
 20
-18.9062
 10
-346.327
 20
-18.6071
 10
-346.0279
 20
-18.3603
 10
-345.6848
 20
-18.1739
 10
-345.3056
 20
-18.0561
 10
-344.8985
 20
-18.015
  0
LWPOLYLINE
  5
88
330
1F
100
AcDbEntity
  8
Layer 1
 62
     7
370
    25
100
AcDbPolyline
 90
       33
 70
     1
 43
0.0
 10
-317.056
 20
-18.015
 10
-316.6487
 20
-18.0561
 10
-316.2694
 20
-18.1739
 10
-315.9262
 20
-18.3603
 10
-315.6272
 20
-18.6071
 10
-315.3806
 20
-18.9062
 10
-315.1944
 20
-19.2495
 10
-315.0767
 20
-19.6288
 10
-315.0357
 20
-20.036
 10
-315.0767
 20
-20.4434
 10
-315.1944
 20
-20.8229
 10
-315.3806
 20
-21.1664
 10
-315.6272
 20
-21.4656
 10
-315.9262
 20
-21.7125
 10
-316.2694
 20
-21.8989
 10
-316.6487
 20
-22.0167
 10
-317.056
 20
-22.0578
 10
-317.463
 20
-22.0167
 10
-317.8422
 20
-21.8989
 10
-318.1854
 20
-21.7125
 10
-318.4844
 20
-21.4656
 10
-318.7311
 20
-21.1664
 10
-318.9174
 20
-20.8229
 10
-319.0351
 20
-20.4434
 10
-319.0762
 20
-20.036
 10
-319.0351
 20
-19.6288
 10
-318.9174
 20
-19.2495
 10
-318.7311
 20
-18.9062
 10
-318.4844
 20
-18.6071
 10
-318.1854
 20
-18.3603
 10
-317.8422
 20
-18.1739
 10
-317.463
 20
-18.0561
 10
-317.056
 20
-18.015
  0
LWPOLYLINE
  5
89
330
1F
100
AcDbEntity
  8
Layer 1
 62
     7
370
    25
100
AcDbPolyline
 90
       33
 70
     1
 43
0.0
 10
-289.2134
 20
-18.015
 10
-288.8061
 20
-18.0561
 10
-288.4267
 20
-18.1739
 10
-288.0833
 20
-18.3603
 10
-287.7842
 20
-18.6071
 10
-287.5375
 20
-18.9062
 10
-287.3511
 20
-19.2495
 10
-287.2334
 20
-19.6288
 10
-287.1923
 20
-20.036
 10
-287.2334
 20
-20.4434
 10
-287.3511
 20
-20.8229
 10
-287.5375
 20
-21.1664
 10
-287.7842
 20
-21.4656
 10
-288.0833
 20
-21.7125
 10
-288.4267
 20
-21.8989
 10
-288.8061
 20
-22.0167
 10
-289.2134
 20
-22.0578
 10
-289.6204
 20
-22.0167
 10
-289.9996
 20
-21.8989
 10
-290.3428
 20
-21.7125
 10
-290.6418
 20
-21.4656
 10
-290.8885
 20
-21.1664
 10
-291.0748
 20
-20.8229
 10
-291.1925
 20
-20.4434
 10
-291.2336
 20
-20.036
 10
-291.1925
 20
-19.6288
 10
-291.0748
 20
-19.2495
 10
-290.8885
 20
-18.9062
 10
-290.6418
 20
-18.6071
 10
-290.3428
 20
-18.3603
 10
-289.9996
 20
-18.1739
 10
-289.6204
 20
-18.0561
 10
-289.2134
 20
-18.015
  0
LWPOLYLINE
  5
8A
330
1F
100
AcDbEntity
  8
Layer 1
 62
     7
370
    25
100
AcDbPolyline
 90
       33
 70
     1
 43
0.0
 10
-261.3708
 20
-18.015
 10
-260.9635
 20
-18.0561
 10
-260.5841
 20
-18.1739
 10
-260.2408
 20
-18.3603
 10
-259.9417
 20
-18.6071
 10
-259.6949
 20
-18.9062
 10
-259.5085
 20
-19.2495
 10
-259.3908
 20
-19.6288
 10
-259.3497
 20
-20.036
 10
-259.3908
 20
-20.4434
 10
-259.5085
 20
-20.8229
 10
-259.6949
 20
-21.1664
 10
-259.9417
 20
-21.4656
 10
-260.2408
 20
-21.7125
 10
-260.5841
 20
-21.8989
 10
-260.9635
 20
-22.0167
 10
-261.3708
 20
-22.0578
 10
-261.7779
 20
-22.0167
 10
-262.157
 20
-21.8989
 10
-262.5002
 20
-21.7125
 10
-262.7992
 20
-21.4656
 10
-263.046
 20
-21.1664
 10
-263.2323
 20
-20.8229
 10
-263.35
 20
-20.4434
 10
-263.3911
 20
-20.036
 10
-263.35
 20
-19.6288
 10
-263.2323
 20
-19.2495
 10
-263.046
 20
-18.9062
 10
-262.7992
 20
-18.6071
 10
-262.5002
 20
-18.3603
 10
-262.157
 20
-18.1739
 10
-261.7779
 20
-18.0561
 10
-261.3708
 20
-18.015
  0
LWPOLYLINE
  5
8B
330
1F
100
AcDbEntity
  8
Layer 1
 62
     7
370
    25
100
AcDbPolyline
 90
       33
 70
     1
 43
0.0
 10
-511.9541
 20
-42.872
 10
-511.547
 20
-42.9131
 10
-511.1679
 20
-43.0309
 10
-510.8247
 20
-43.2173
 10
-510.5257
 20
-43.4641
 10
-510.2789
 20
-43.7632
 10
-510.0926
 20
-44.1065
 10
-509.9749
 20
-44.4858
 10
-509.9338
 20
-44.893
 10
-509.9749
 20
-45.3004
 10
-510.0926
 20
-45.6799
 10
-510.2789
 20
-46.0234
 10
-510.5257
 20
-46.3226
 10
-510.8247
 20
-46.5695
 10
-511.1679
 20
-46.7559
 10
-511.547
 20
-46.8737
 10
-511.9541
 20
-46.9148
 10
-512.3612
 20
-46.8737
 10
-512.7404
 20
-46.7559
 10
-513.0835
 20
-46.5695
 10
-513.3826
 20
-46.3226
 10
-513.6293
 20
-46.0234
 10
-513.8156
 20
-45.6799
 10
-513.9333
 20
-45.3004
 10
-513.9744
 20
-44.893
 10
-513.9333
 20
-44.4858
 10
-513.8156
 20
-44.1065
 10
-513.6293
 20
-43.7632
 10
-513.3826
 20
-43.4641
 10
-513.0835
 20
-43.2173
 10
-512.7404
 20
-43.0309
 10
-512.3612
 20
-42.9131
 10
-511.9541
 20
-42.872
  0
LWPOLYLINE
  5
8C
330
1F
100
AcDbEntity
  8
Layer 1
 62
     7
370
    25
100
AcDbPolyline
 90
       33
 70
     1
 43
0.0
 10
-484.1115
 20
-42.872
 10
-483.7044
 20
-42.9131
 10
-483.3253
 20
-43.0309
 10
-482.9821
 20
-43.2173
 10
-482.6831
 20
-43.4641
 10
-482.4363
 20
-43.7632
 10
-482.25
 20
-44.1065
 10
-482.1323
 20
-44.4858
 10
-482.0912
 20
-44.893
 10
-482.1323
 20
-45.3004
 10
-482.25
 20
-45.6799
 10
-482.4363
 20
-46.0234
 10
-482.6831
 20
-46.3226
 10
-482.9821
 20
-46.5695
 10
-483.3253
 20
-46.7559
 10
-483.7044
 20
-46.8737
 10
-484.1115
 20
-46.9148
 10
-484.5186
 20
-46.8737
 10
-484.8978
 20
-46.7559
 10
-485.2409
 20
-46.5695
 10
-485.54
 20
-46.3226
 10
-485.7867
 20
-46.0234
 10
-485.973
 20
-45.6799
 10
-486.0907
 20
-45.3004
 10
-486.1318
 20
-44.893
 10
-486.0907
 20
-44.4858
 10
-485.973
 20
-44.1065
 10
-485.7867
 20
-43.7632
 10
-485.54
 20
-43.4641
 10
-485.2409
 20
-43.2173
 10
-484.8978
 20
-43.0309
 10
-484.5186
 20
-42.9131
 10
-484.1115
 20
-42.872
  0
LWPOLYLINE
  5
8D
330
1F
100
AcDbEntity
  8
Layer 1
 62
     7
370
    25
100
AcDbPolyline
 90
       33
 70
     1
 43
0.0
 10
-456.2689
 20
-42.872
 10
-455.8618
 20
-42.9131
 10
-455.4827
 20
-43.0309
 10
-455.1395
 20
-43.2173
 10
-454.8405
 20
-43.4641
 10
-454.5937
 20
-43.7632
 10
-454.4074
 20
-44.1065
 10
-454.2897
 20
-44.4858
 10
-454.2486
 20
-44.893
 10
-454.2897
 20
-45.3004
 10
-454.4074
 20
-45.6799
 10
-454.5937
 20
-46.0234
 10
-454.8405
 20
-46.3226
 10
-455.1395
 20
-46.5695
 10
-455.4827
 20
-46.7559
 10
-455.8618
 20
-46.8737
 10
-456.2689
 20
-46.9148
 10
-456.676
 20
-46.8737
 10
-457.0552
 20
-46.7559
 10
-457.3983
 20
-46.5695
 10
-457.6974
 20
-46.3226
 10
-457.9441
 20
-46.0234
 10
-458.1304
 20
-45.6799
 10
-458.2481
 20
-45.3004
 10
-458.2892
 20
-44.893
 10
-458.2481
 20
-44.4858
 10
-458.1304
 20
-44.1065
 10
-457.9441
 20
-43.7632
 10
-457.6974
 20
-43.4641
 10
-457.3983
 20
-43.2173
 10
-457.0552
 20
-43.0309
 10
-456.676
 20
-42.9131
 10
-456.2689
 20
-42.872
  0
LWPOLYLINE
  5
8E
330
1F
100
AcDbEntity
  8
Layer 1
 62
     7
370
    25
100
AcDbPolyline
 90
       33
 70
     1
 43
0.0
 10
-428.4263
 20
-42.872
 10
-428.019
 20
-42.9131
 10
-427.6397
 20
-43.0309
 10
-427.2965
 20
-43.2173
 10
-426.9976
 20
-43.4641
 10
-426.7509
 20
-43.7632
 10
-426.5647
 20
-44.1065
 10
-426.447
 20
-44.4858
 10
-426.406
 20
-44.893
 10
-426.447
 20
-45.3004
 10
-426.5647
 20
-45.6799
 10
-426.7509
 20
-46.0234
 10
-426.9976
 20
-46.3226
 10
-427.2965
 20
-46.5695
 10
-427.6397
 20
-46.7559
 10
-428.019
 20
-46.8737
 10
-428.4263
 20
-46.9148
 10
-428.8334
 20
-46.8737
 10
-429.2126
 20
-46.7559
 10
-429.5557
 20
-46.5695
 10
-429.8548
 20
-46.3226
 10
-430.1015
 20
-46.0234
 10
-430.2878
 20
-45.6799
 10
-430.4055
 20
-45.3004
 10
-430.4466
 20
-44.893
 10
-430.4055
 20
-44.4858
 10
-430.2878
 20
-44.1065
 10
-430.1015
 20
-43.7632
 10
-429.8548
 20
-43.4641
 10
-429.5557
 20
-43.2173
 10
-429.2126
 20
-43.0309
 10
-428.8334
 20
-42.9131
 10
-428.4263
 20
-42.872
  0
LWPOLYLINE
  5
8F
330
1F
100
AcDbEntity
  8
Layer 1
 62
     7
370
    25
100
AcDbPolyline
 90
       33
 70
     1
 43
0.0
 10
-400.5837
 20
-42.872
 10
-400.1764
 20
-42.9131
 10
-399.7971
 20
-43.0309
 10
-399.454
 20
-43.2173
 10
-399.155
 20
-43.4641
 10
-398.9084
 20
-43.7632
 10
-398.7222
 20
-44.1065
 10
-398.6045
 20
-44.4858
 10
-398.5635
 20
-44.893
 10
-398.6045
 20
-45.3004
 10
-398.7222
 20
-45.6799
 10
-398.9084
 20
-46.0234
 10
-399.155
 20
-46.3226
 10
-399.454
 20
-46.5695
 10
-399.7971
 20
-46.7559
 10
-400.1764
 20
-46.8737
 10
-400.5837
 20
-46.9148
 10
-400.9908
 20
-46.8737
 10
-401.37
 20
-46.7559
 10
-401.7131
 20
-46.5695
 10
-402.0122
 20
-46.3226
 10
-402.2589
 20
-46.0234
 10
-402.4452
 20
-45.6799
 10
-402.5629
 20
-45.3004
 10
-402.604
 20
-44.893
 10
-402.5629
 20
-44.4858
 10
-402.4452
 20
-44.1065
 10
-402.2589
 20
-43.7632
 10
-402.0122
 20
-43.4641
 10
-401.7131
 20
-43.2173
 10
-401.37
 20
-43.0309
 10
-400.9908
 20
-42.9131
 10
-400.5837
 20
-42.872
  0
LWPOLYLINE
  5
90
330
1F
100
AcDbEntity
  8
Layer 1
 62
     7
370
    25
100
AcDbPolyline
 90
       33
 70
     1
 43
0.0
 10
-372.7411
 20
-42.872
 10
-372.3338
 20
-42.9131
 10
-371.9545
 20
-43.0309
 10
-371.6114
 20
-43.2173
 10
-371.3124
 20
-43.4641
 10
-371.0658
 20
-43.7632
 10
-370.8796
 20
-44.1065
 10
-370.7619
 20
-44.4858
 10
-370.7209
 20
-44.893
 10
-370.7619
 20
-45.3004
 10
-370.8796
 20
-45.6799
 10
-371.0658
 20
-46.0234
 10
-371.3124
 20
-46.3226
 10
-371.6114
 20
-46.5695
 10
-371.9545
 20
-46.7559
 10
-372.3338
 20
-46.8737
 10
-372.7411
 20
-46.9148
 10
-373.1482
 20
-46.8737
 10
-373.5274
 20
-46.7559
 10
-373.8705
 20
-46.5695
 10
-374.1696
 20
-46.3226
 10
-374.4163
 20
-46.0234
 10
-374.6026
 20
-45.6799
 10
-374.7203
 20
-45.3004
 10
-374.7614
 20
-44.893
 10
-374.7203
 20
-44.4858
 10
-374.6026
 20
-44.1065
 10
-374.4163
 20
-43.7632
 10
-374.1696
 20
-43.4641
 10
-373.8705
 20
-43.2173
 10
-373.5274
 20
-43.0309
 10
-373.1482
 20
-42.9131
 10
-372.7411
 20
-42.872
  0
LWPOLYLINE
  5
91
330
1F
100
AcDbEntity
  8
Layer 1
 62
     7
370
    25
100
AcDbPolyline
 90
       33
 70
     1
 43
0.0
 10
-344.8985
 20
-42.872
 10
-344.4912
 20
-42.9131
 10
-344.1119
 20
-43.0309
 10
-343.7688
 20
-43.2173
 10
-343.4698
 20
-43.4641
 10
-343.2232
 20
-43.7632
 10
-343.037
 20
-44.1065
 10
-342.9193
 20
-44.4858
 10
-342.8783
 20
-44.893
 10
-342.9193
 20
-45.3004
 10
-343.037
 20
-45.6799
 10
-343.2232
 20
-46.0234
 10
-343.4698
 20
-46.3226
 10
-343.7688
 20
-46.5695
 10
-344.1119
 20
-46.7559
 10
-344.4912
 20
-46.8737
 10
-344.8985
 20
-46.9148
 10
-345.3056
 20
-46.8737
 10
-345.6848
 20
-46.7559
 10
-346.0279
 20
-46.5695
 10
-346.327
 20
-46.3226
 10
-346.5737
 20
-46.0234
 10
-346.76
 20
-45.6799
 10
-346.8777
 20
-45.3004
 10
-346.9188
 20
-44.893
 10
-346.8777
 20
-44.4858
 10
-346.76
 20
-44.1065
 10
-346.5737
 20
-43.7632
 10
-346.327
 20
-43.4641
 10
-346.0279
 20
-43.2173
 10
-345.6848
 20
-43.0309
 10
-345.3056
 20
-42.9131
 10
-344.8985
 20
-42.872
  0
LWPOLYLINE
  5
92
330
1F
100
AcDbEntity
  8
Layer 1
 62
     7
370
    25
100
AcDbPolyline
 90
       33
 70
     1
 43
0.0
 10
-317.056
 20
-42.872
 10
-316.6487
 20
-42.9131
 10
-316.2694
 20
-43.0309
 10
-315.9262
 20
-43.2173
 10
-315.6272
 20
-43.4641
 10
-315.3806
 20
-43.7632
 10
-315.1944
 20
-44.1065
 10
-315.0767
 20
-44.4858
 10
-315.0357
 20
-44.893
 10
-315.0767
 20
-45.3004
 10
-315.1944
 20
-45.6799
 10
-315.3806
 20
-46.0234
 10
-315.6272
 20
-46.3226
 10
-315.9262
 20
-46.5695
 10
-316.2694
 20
-46.7559
 10
-316.6487
 20
-46.8737
 10
-317.056
 20
-46.9148
 10
-317.463
 20
-46.8737
 10
-317.8422
 20
-46.7559
 10
-318.1854
 20
-46.5695
 10
-318.4844
 20
-46.3226
 10
-318.7311
 20
-46.0234
 10
-318.9174
 20
-45.6799
 10
-319.0351
 20
-45.3004
 10
-319.0762
 20
-44.893
 10
-319.0351
 20
-44.4858
 10
-318.9174
 20
-44.1065
 10
-318.7311
 20
-43.7632
 10
-318.4844
 20
-43.4641
 10
-318.1854
 20
-43.2173
 10
-317.8422
 20
-43.0309
 10
-317.463
 20
-42.9131
 10
-317.056
 20
-42.872
  0
LWPOLYLINE
  5
93
330
1F
100
AcDbEntity
  8
Layer 1
 62
     7
370
    25
100
AcDbPolyline
 90
       33
 70
     1
 43
0.0
 10
-289.2134
 20
-42.872
 10
-288.8061
 20
-42.9131
 10
-288.4267
 20
-43.0309
 10
-288.0833
 20
-43.2173
 10
-287.7842
 20
-43.4641
 10
-287.5375
 20
-43.7632
 10
-287.3511
 20
-44.1065
 10
-287.2334
 20
-44.4858
 10
-287.1923
 20
-44.893
 10
-287.2334
 20
-45.3004
 10
-287.3511
 20
-45.6799
 10
-287.5375
 20
-46.0234
 10
-287.7842
 20
-46.3226
 10
-288.0833
 20
-46.5695
 10
-288.4267
 20
-46.7559
 10
-288.8061
 20
-46.8737
 10
-289.2134
 20
-46.9148
 10
-289.6204
 20
-46.8737
 10
-289.9996
 20
-46.7559
 10
-290.3428
 20
-46.5695
 10
-290.6418
 20
-46.3226
 10
-290.8885
 20
-46.0234
 10
-291.0748
 20
-45.6799
 10
-291.1925
 20
-45.3004
 10
-291.2336
 20
-44.893
 10
-291.1925
 20
-44.4858
 10
-291.0748
 20
-44.1065
 10
-290.8885
 20
-43.7632
 10
-290.6418
 20
-43.4641
 10
-290.3428
 20
-43.2173
 10
-289.9996
 20
-43.0309
 10
-289.6204
 20
-42.9131
 10
-289.2134
 20
-42.872
  0
LWPOLYLINE
  5
94
330
1F
100
AcDbEntity
  8
Layer 1
 62
     7
370
    25
100
AcDbPolyline
 90
       33
 70
     1
 43
0.0
 10
-261.3708
 20
-42.872
 10
-260.9635
 20
-42.9131
 10
-260.5841
 20
-43.0309
 10
-260.2408
 20
-43.2173
 10
-259.9417
 20
-43.4641
 10
-259.6949
 20
-43.7632
 10
-259.5085
 20
-44.1065
 10
-259.3908
 20
-44.4858
 10
-259.3497
 20
-44.893
 10
-259.3908
 20
-45.3004
 10
-259.5085
 20
-45.6799
 10
-259.6949
 20
-46.0234
 10
-259.9417
 20
-46.3226
 10
-260.2408
 20
-46.5695
 10
-260.5841
 20
-46.7559
 10
-260.9635
 20
-46.8737
 10
-261.3708
 20
-46.9148
 10
-261.7779
 20
-46.8737
 10
-262.157
 20
-46.7559
 10
-262.5002
 20
-46.5695
 10
-262.7992
 20
-46.3226
 10
-263.046
 20
-46.0234
 10
-263.2323
 20
-45.6799
 10
-263.35
 20
-45.3004
 10
-263.3911
 20
-44.893
 10
-263.35
 20
-44.4858
 10
-263.2323
 20
-44.1065
 10
-263.046
 20
-43.7632
 10
-262.7992
 20
-43.4641
 10
-262.5002
 20
-43.2173
 10
-262.157
 20
-43.0309
 10
-261.7779
 20
-42.9131
 10
-261.3708
 20
-42.872
  0
LWPOLYLINE
  5
95
330
1F
100
AcDbEntity
  8
Layer 1
 62
     7
370
    25
100
AcDbPolyline
 90
       33
 70
     1
 43
0.0
 10
-511.9541
 20
-67.7283
 10
-511.547
 20
-67.7694
 10
-511.1679
 20
-67.8872
 10
-510.8247
 20
-68.0736
 10
-510.5257
 20
-68.3205
 10
-510.2789
 20
-68.6197
 10
-510.0926
 20
-68.9631
 10
-509.9749
 20
-69.3426
 10
-509.9338
 20
-69.7501
 10
-509.9749
 20
-70.1575
 10
-510.0926
 20
-70.537
 10
-510.2789
 20
-70.8804
 10
-510.5257
 20
-71.1796
 10
-510.8247
 20
-71.4265
 10
-511.1679
 20
-71.6129
 10
-511.547
 20
-71.7307
 10
-511.9541
 20
-71.7718
 10
-512.3612
 20
-71.7307
 10
-512.7404
 20
-71.6129
 10
-513.0835
 20
-71.4265
 10
-513.3826
 20
-71.1796
 10
-513.6293
 20
-70.8804
 10
-513.8156
 20
-70.537
 10
-513.9333
 20
-70.1575
 10
-513.9744
 20
-69.7501
 10
-513.9333
 20
-69.3426
 10
-513.8156
 20
-68.9631
 10
-513.6293
 20
-68.6197
 10
-513.3826
 20
-68.3205
 10
-513.0835
 20
-68.0736
 10
-512.7404
 20
-67.8872
 10
-512.3612
 20
-67.7694
 10
-511.9541
 20
-67.7283
  0
LWPOLYLINE
  5
96
330
1F
100
AcDbEntity
  8
Layer 1
 62
     7
370
    25
100
AcDbPolyline
 90
       33
 70
     1
 43
0.0
 10
-484.1115
 20
-67.7283
 10
-483.7044
 20
-67.7694
 10
-483.3253
 20
-67.8872
 10
-482.9821
 20
-68.0736
 10
-482.6831
 20
-68.3205
 10
-482.4363
 20
-68.6197
 10
-482.25
 20
-68.9631
 10
-482.1323
 20
-69.3426
 10
-482.0912
 20
-69.7501
 10
-482.1323
 20
-70.1575
 10
-482.25
 20
-70.537
 10
-482.4363
 20
-70.8804
 10
-482.6831
 20
-71.1796
 10
-482.9821
 20
-71.4265
 10
-483.3253
 20
-71.6129
 10
-483.7044
 20
-71.7307
 10
-484.1115
 20
-71.7718
 10
-484.5186
 20
-71.7307
 10
-484.8978
 20
-71.6129
 10
-485.2409
 20
-71.4265
 10
-485.54
 20
-71.1796
 10
-485.7867
 20
-70.8804
 10
-485.973
 20
-70.537
 10
-486.0907
 20
-70.1575
 10
-486.1318
 20
-69.7501
 10
-486.0907
 20
-69.3426
 10
-485.973
 20
-68.9631
 10
-485.7867
 20
-68.6197
 10
-485.54
 20
-68.3205
 10
-485.2409
 20
-68.0736
 10
-484.8978
 20
-67.8872
 10
-484.5186
 20
-67.7694
 10
-484.1115
 20
-67.7283
  0
LWPOLYLINE
  5
97
330
1F
100
AcDbEntity
  8
Layer 1
 62
     7
370
    25
100
AcDbPolyline
 90
       33
 70
     1
 43
0.0
 10
-456.2689
 20
-67.7283
 10
-455.8618
 20
-67.7694
 10
-455.4827
 20
-67.8872
 10
-455.1395
 20
-68.0736
 10
-454.8405
 20
-68.3205
 10
-454.5937
 20
-68.6197
 10
-454.4074
 20
-68.9631
 10
-454.2897
 20
-69.3426
 10
-454.2486
 20
-69.7501
 10
-454.2897
 20
-70.1575
 10
-454.4074
 20
-70.537
 10
-454.5937
 20
-70.8804
 10
-454.8405
 20
-71.1796
 10
-455.1395
 20
-71.4265
 10
-455.4827
 20
-71.6129
 10
-455.8618
 20
-71.7307
 10
-456.2689
 20
-71.7718
 10
-456.676
 20
-71.7307
 10
-457.0552
 20
-71.6129
 10
-457.3983
 20
-71.4265
 10
-457.6974
 20
-71.1796
 10
-457.9441
 20
-70.8804
 10
-458.1304
 20
-70.537
 10
-458.2481
 20
-70.1575
 10
-458.2892
 20
-69.7501
 10
-458.2481
 20
-69.3426
 10
-458.1304
 20
-68.9631
 10
-457.9441
 20
-68.6197
 10
-457.6974
 20
-68.3205
 10
-457.3983
 20
-68.0736
 10
-457.0552
 20
-67.8872
 10
-456.676
 20
-67.7694
 10
-456.2689
 20
-67.7283
  0
LWPOLYLINE
  5
98
330
1F
100
AcDbEntity
  8
Layer 1
 62
     7
370
    25
100
AcDbPolyline
 90
       33
 70
     1
 43
0.0
 10
-428.4263
 20
-67.7283
 10
-428.019
 20
-67.7694
 10
-427.6397
 20
-67.8872
 10
-427.2965
 20
-68.0736
 10
-426.9976
 20
-68.3205
 10
-426.7509
 20
-68.6197
 10
-426.5647
 20
-68.9631
 10
-426.447
 20
-69.3426
 10
-426.406
 20
-69.7501
 10
-426.447
 20
-70.1575
 10
-426.5647
 20
-70.537
 10
-426.7509
 20
-70.8804
 10
-426.9976
 20
-71.1796
 10
-427.2965
 20
-71.4265
 10
-427.6397
 20
-71.6129
 10
-428.019
 20
-71.7307
 10
-428.4263
 20
-71.7718
 10
-428.8334
 20
-71.7307
 10
-429.2126
 20
-71.6129
 10
-429.5557
 20
-71.4265
 10
-429.8548
 20
-71.1796
 10
-430.1015
 20
-70.8804
 10
-430.2878
 20
-70.537
 10
-430.4055
 20
-70.1575
 10
-430.4466
 20
-69.7501
 10
-430.4055
 20
-69.3426
 10
-430.2878
 20
-68.9631
 10
-430.1015
 20
-68.6197
 10
-429.8548
 20
-68.3205
 10
-429.5557
 20
-68.0736
 10
-429.2126
 20
-67.8872
 10
-428.8334
 20
-67.7694
 10
-428.4263
 20
-67.7283
  0
LWPOLYLINE
  5
99
330
1F
100
AcDbEntity
  8
Layer 1
 62
     7
370
    25
100
AcDbPolyline
 90
       33
 70
     1
 43
0.0
 10
-400.5837
 20
-67.7283
 10
-400.1764
 20
-67.7694
 10
-399.7971
 20
-67.8872
 10
-399.454
 20
-68.0736
 10
-399.155
 20
-68.3205
 10
-398.9084
 20
-68.6197
 10
-398.7222
 20
-68.9631
 10
-398.6045
 20
-69.3426
 10
-398.5635
 20
-69.7501
 10
-398.6045
 20
-70.1575
 10
-398.7222
 20
-70.537
 10
-398.9084
 20
-70.8804
 10
-399.155
 20
-71.1796
 10
-399.454
 20
-71.4265
 10
-399.7971
 20
-71.6129
 10
-400.1764
 20
-71.7307
 10
-400.5837
 20
-71.7718
 10
-400.9908
 20
-71.7307
 10
-401.37
 20
-71.6129
 10
-401.7131
 20
-71.4265
 10
-402.0122
 20
-71.1796
 10
-402.2589
 20
-70.8804
 10
-402.4452
 20
-70.537
 10
-402.5629
 20
-70.1575
 10
-402.604
 20
-69.7501
 10
-402.5629
 20
-69.3426
 10
-402.4452
 20
-68.9631
 10
-402.2589
 20
-68.6197
 10
-402.0122
 20
-68.3205
 10
-401.7131
 20
-68.0736
 10
-401.37
 20
-67.8872
 10
-400.9908
 20
-67.7694
 10
-400.5837
 20
-67.7283
  0
LWPOLYLINE
  5
9A
330
1F
100
AcDbEntity
  8
Layer 1
 62
     7
370
    25
100
AcDbPolyline
 90
       33
 70
     1
 43
0.0
 10
-372.7411
 20
-67.7283
 10
-372.3338
 20
-67.7694
 10
-371.9545
 20
-67.8872
 10
-371.6114
 20
-68.0736
 10
-371.3124
 20
-68.3205
 10
-371.0658
 20
-68.6197
 10
-370.8796
 20
-68.9631
 10
-370.7619
 20
-69.3426
 10
-370.7209
 20
-69.7501
 10
-370.7619
 20
-70.1575
 10
-370.8796
 20
-70.537
 10
-371.0658
 20
-70.8804
 10
-371.3124
 20
-71.1796
 10
-371.6114
 20
-71.4265
 10
-371.9545
 20
-71.6129
 10
-372.3338
 20
-71.7307
 10
-372.7411
 20
-71.7718
 10
-373.1482
 20
-71.7307
 10
-373.5274
 20
-71.6129
 10
-373.8705
 20
-71.4265
 10
-374.1696
 20
-71.1796
 10
-374.4163
 20
-70.8804
 10
-374.6026
 20
-70.537
 10
-374.7203
 20
-70.1575
 10
-374.7614
 20
-69.7501
 10
-374.7203
 20
-69.3426
 10
-374.6026
 20
-68.9631
 10
-374.4163
 20
-68.6197
 10
-374.1696
 20
-68.3205
 10
-373.8705
 20
-68.0736
 10
-373.5274
 20
-67.8872
 10
-373.1482
 20
-67.7694
 10
-372.7411
 20
-67.7283
  0
LWPOLYLINE
  5
9B
330
1F
100
AcDbEntity
  8
Layer 1
 62
     7
370
    25
100
AcDbPolyline
 90
       33
 70
     1
 43
0.0
 10
-344.8985
 20
-67.7283
 10
-344.4912
 20
-67.7694
 10
-344.1119
 20
-67.8872
 10
-343.7688
 20
-68.0736
 10
-343.4698
 20
-68.3205
 10
-343.2232
 20
-68.6197
 10
-343.037
 20
-68.9631
 10
-342.9193
 20
-69.3426
 10
-342.8783
 20
-69.7501
 10
-342.9193
 20
-70.1575
 10
-343.037
 20
-70.537
 10
-343.2232
 20
-70.8804
 10
-343.4698
 20
-71.1796
 10
-343.7688
 20
-71.4265
 10
-344.1119
 20
-71.6129
 10
-344.4912
 20
-71.7307
 10
-344.8985
 20
-71.7718
 10
-345.3056
 20
-71.7307
 10
-345.6848
 20
-71.6129
 10
-346.0279
 20
-71.4265
 10
-346.327
 20
-71.1796
 10
-346.5737
 20
-70.8804
 10
-346.76
 20
-70.537
 10
-346.8777
 20
-70.1575
 10
-346.9188
 20
-69.7501
 10
-346.8777
 20
-69.3426
 10
-346.76
 20
-68.9631
 10
-346.5737
 20
-68.6197
 10
-346.327
 20
-68.3205
 10
-346.0279
 20
-68.0736
 10
-345.6848
 20
-67.8872
 10
-345.3056
 20
-67.7694
 10
-344.8985
 20
-67.7283
  0
LWPOLYLINE
  5
9C
330
1F
100
AcDbEntity
  8
Layer 1
 62
     7
370
    25
100
AcDbPolyline
 90
       33
 70
     1
 43
0.0
 10
-317.056
 20
-67.7283
 10
-316.6487
 20
-67.7694
 10
-316.2694
 20
-67.8872
 10
-315.9262
 20
-68.0736
 10
-315.6272
 20
-68.3205
 10
-315.3806
 20
-68.6197
 10
-315.1944
 20
-68.9631
 10
-315.0767
 20
-69.3426
 10
-315.0357
 20
-69.7501
 10
-315.0767
 20
-70.1575
 10
-315.1944
 20
-70.537
 10
-315.3806
 20
-70.8804
 10
-315.6272
 20
-71.1796
 10
-315.9262
 20
-71.4265
 10
-316.2694
 20
-71.6129
 10
-316.6487
 20
-71.7307
 10
-317.056
 20
-71.7718
 10
-317.463
 20
-71.7307
 10
-317.8422
 20
-71.6129
 10
-318.1854
 20
-71.4265
 10
-318.4844
 20
-71.1796
 10
-318.7311
 20
-70.8804
 10
-318.9174
 20
-70.537
 10
-319.0351
 20
-70.1575
 10
-319.0762
 20
-69.7501
 10
-319.0351
 20
-69.3426
 10
-318.9174
 20
-68.9631
 10
-318.7311
 20
-68.6197
 10
-318.4844
 20
-68.3205
 10
-318.1854
 20
-68.0736
 10
-317.8422
 20
-67.8872
 10
-317.463
 20
-67.7694
 10
-317.056
 20
-67.7283
  0
LWPOLYLINE
  5
9D
330
1F
100
AcDbEntity
  8
Layer 1
 62
     7
370
    25
100
AcDbPolyline
 90
       33
 70
     1
 43
0.0
 10
-289.2134
 20
-67.7283
 10
-288.8061
 20
-67.7694
 10
-288.4267
 20
-67.8872
 10
-288.0833
 20
-68.0736
 10
-287.7842
 20
-68.3205
 10
-287.5375
 20
-68.6197
 10
-287.3511
 20
-68.9631
 10
-287.2334
 20
-69.3426
 10
-287.1923
 20
-69.7501
 10
-287.2334
 20
-70.1575
 10
-287.3511
 20
-70.537
 10
-287.5375
 20
-70.8804
 10
-287.7842
 20
-71.1796
 10
-288.0833
 20
-71.4265
 10
-288.4267
 20
-71.6129
 10
-288.8061
 20
-71.7307
 10
-289.2134
 20
-71.7718
 10
-289.6204
 20
-71.7307
 10
-289.9996
 20
-71.6129
 10
-290.3428
 20
-71.4265
 10
-290.6418
 20
-71.1796
 10
-290.8885
 20
-70.8804
 10
-291.0748
 20
-70.537
 10
-291.1925
 20
-70.1575
 10
-291.2336
 20
-69.7501
 10
-291.1925
 20
-69.3426
 10
-291.0748
 20
-68.9631
 10
-290.8885
 20
-68.6197
 10
-290.6418
 20
-68.3205
 10
-290.3428
 20
-68.0736
 10
-289.9996
 20
-67.8872
 10
-289.6204
 20
-67.7694
 10
-289.2134
 20
-67.7283
  0
LWPOLYLINE
  5
9E
330
1F
100
AcDbEntity
  8
Layer 1
 62
     7
370
    25
100
AcDbPolyline
 90
       33
 70
     1
 43
0.0
 10
-261.3708
 20
-67.7283
 10
-260.9635
 20
-67.7694
 10
-260.5841
 20
-67.8872
 10
-260.2408
 20
-68.0736
 10
-259.9417
 20
-68.3205
 10
-259.6949
 20
-68.6197
 10
-259.5085
 20
-68.9631
 10
-259.3908
 20
-69.3426
 10
-259.3497
 20
-69.7501
 10
-259.3908
 20
-70.1575
 10
-259.5085
 20
-70.537
 10
-259.6949
 20
-70.8804
 10
-259.9417
 20
-71.1796
 10
-260.2408
 20
-71.4265
 10
-260.5841
 20
-71.6129
 10
-260.9635
 20
-71.7307
 10
-261.3708
 20
-71.7718
 10
-261.7779
 20
-71.7307
 10
-262.157
 20
-71.6129
 10
-262.5002
 20
-71.4265
 10
-262.7992
 20
-71.1796
 10
-263.046
 20
-70.8804
 10
-263.2323
 20
-70.537
 10
-263.35
 20
-70.1575
 10
-263.3911
 20
-69.7501
 10
-263.35
 20
-69.3426
 10
-263.2323
 20
-68.9631
 10
-263.046
 20
-68.6197
 10
-262.7992
 20
-68.3205
 10
-262.5002
 20
-68.0736
 10
-262.157
 20
-67.8872
 10
-261.7779
 20
-67.7694
 10
-261.3708
 20
-67.7283
  0
LWPOLYLINE
  5
9F
330
1F
100
AcDbEntity
  8
Layer 1
 62
     7
370
    25
100
AcDbPolyline
 90
       33
 70
     1
 43
0.0
 10
-511.9541
 20
-92.5853
 10
-511.547
 20
-92.6264
 10
-511.1679
 20
-92.7442
 10
-510.8247
 20
-92.9306
 10
-510.5257
 20
-93.1775
 10
-510.2789
 20
-93.4767
 10
-510.0926
 20
-93.8202
 10
-509.9749
 20
-94.1997
 10
-509.9338
 20
-94.6071
 10
-509.9749
 20
-95.0145
 10
-510.0926
 20
-95.394
 10
-510.2789
 20
-95.7375
 10
-510.5257
 20
-96.0367
 10
-510.8247
 20
-96.2836
 10
-511.1679
 20
-96.47
 10
-511.547
 20
-96.5878
 10
-511.9541
 20
-96.6289
 10
-512.3612
 20
-96.5878
 10
-512.7404
 20
-96.47
 10
-513.0835
 20
-96.2836
 10
-513.3826
 20
-96.0367
 10
-513.6293
 20
-95.7375
 10
-513.8156
 20
-95.394
 10
-513.9333
 20
-95.0145
 10
-513.9744
 20
-94.6071
 10
-513.9333
 20
-94.1997
 10
-513.8156
 20
-93.8202
 10
-513.6293
 20
-93.4767
 10
-513.3826
 20
-93.1775
 10
-513.0835
 20
-92.9306
 10
-512.7404
 20
-92.7442
 10
-512.3612
 20
-92.6264
 10
-511.9541
 20
-92.5853
  0
LWPOLYLINE
  5
A0
330
1F
100
AcDbEntity
  8
Layer 1
 62
     7
370
    25
100
AcDbPolyline
 90
       33
 70
     1
 43
0.0
 10
-484.1115
 20
-92.5853
 10
-483.7044
 20
-92.6264
 10
-483.3253
 20
-92.7442
 10
-482.9821
 20
-92.9306
 10
-482.6831
 20
-93.1775
 10
-482.4363
 20
-93.4767
 10
-482.25
 20
-93.8202
 10
-482.1323
 20
-94.1997
 10
-482.0912
 20
-94.6071
 10
-482.1323
 20
-95.0145
 10
-482.25
 20
-95.394
 10
-482.4363
 20
-95.7375
 10
-482.6831
 20
-96.0367
 10
-482.9821
 20
-96.2836
 10
-483.3253
 20
-96.47
 10
-483.7044
 20
-96.5878
 10
-484.1115
 20
-96.6289
 10
-484.5186
 20
-96.5878
 10
-484.8978
 20
-96.47
 10
-485.2409
 20
-96.2836
 10
-485.54
 20
-96.0367
 10
-485.7867
 20
-95.7375
 10
-485.973
 20
-95.394
 10
-486.0907
 20
-95.0145
 10
-486.1318
 20
-94.6071
 10
-486.0907
 20
-94.1997
 10
-485.973
 20
-93.8202
 10
-485.7867
 20
-93.4767
 10
-485.54
 20
-93.1775
 10
-485.2409
 20
-92.9306
 10
-484.8978
 20
-92.7442
 10
-484.5186
 20
-92.6264
 10
-484.1115
 20
-92.5853
  0
LWPOLYLINE
  5
A1
330
1F
100
AcDbEntity
  8
Layer 1
 62
     7
370
    25
100
AcDbPolyline
 90
       33
 70
     1
 43
0.0
 10
-456.2689
 20
-92.5853
 10
-455.8618
 20
-92.6264
 10
-455.4827
 20
-92.7442
 10
-455.1395
 20
-92.9306
 10
-454.8405
 20
-93.1775
 10
-454.5937
 20
-93.4767
 10
-454.4074
 20
-93.8202
 10
-454.2897
 20
-94.1997
 10
-454.2486
 20
-94.6071
 10
-454.2897
 20
-95.0145
 10
-454.4074
 20
-95.394
 10
-454.5937
 20
-95.7375
 10
-454.8405
 20
-96.0367
 10
-455.1395
 20
-96.2836
 10
-455.4827
 20
-96.47
 10
-455.8618
 20
-96.5878
 10
-456.2689
 20
-96.6289
 10
-456.676
 20
-96.5878
 10
-457.0552
 20
-96.47
 10
-457.3983
 20
-96.2836
 10
-457.6974
 20
-96.0367
 10
-457.9441
 20
-95.7375
 10
-458.1304
 20
-95.394
 10
-458.2481
 20
-95.0145
 10
-458.2892
 20
-94.6071
 10
-458.2481
 20
-94.1997
 10
-458.1304
 20
-93.8202
 10
-457.9441
 20
-93.4767
 10
-457.6974
 20
-93.1775
 10
-457.3983
 20
-92.9306
 10
-457.0552
 20
-92.7442
 10
-456.676
 20
-92.6264
 10
-456.2689
 20
-92.5853
  0
LWPOLYLINE
  5
A2
330
1F
100
AcDbEntity
  8
Layer 1
 62
     7
370
    25
100
AcDbPolyline
 90
       33
 70
     1
 43
0.0
 10
-428.4263
 20
-92.5853
 10
-428.019
 20
-92.6264
 10
-427.6397
 20
-92.7442
 10
-427.2965
 20
-92.9306
 10
-426.9976
 20
-93.1775
 10
-426.7509
 20
-93.4767
 10
-426.5647
 20
-93.8202
 10
-426.447
 20
-94.1997
 10
-426.406
 20
-94.6071
 10
-426.447
 20
-95.0145
 10
-426.5647
 20
-95.394
 10
-426.7509
 20
-95.7375
 10
-426.9976
 20
-96.0367
 10
-427.2965
 20
-96.2836
 10
-427.6397
 20
-96.47
 10
-428.019
 20
-96.5878
 10
-428.4263
 20
-96.6289
 10
-428.8334
 20
-96.5878
 10
-429.2126
 20
-96.47
 10
-429.5557
 20
-96.2836
 10
-429.8548
 20
-96.0367
 10
-430.1015
 20
-95.7375
 10
-430.2878
 20
-95.394
 10
-430.4055
 20
-95.0145
 10
-430.4466
 20
-94.6071
 10
-430.4055
 20
-94.1997
 10
-430.2878
 20
-93.8202
 10
-430.1015
 20
-93.4767
 10
-429.8548
 20
-93.1775
 10
-429.5557
 20
-92.9306
 10
-429.2126
 20
-92.7442
 10
-428.8334
 20
-92.6264
 10
-428.4263
 20
-92.5853
  0
LWPOLYLINE
  5
A3
330
1F
100
AcDbEntity
  8
Layer 1
 62
     7
370
    25
100
AcDbPolyline
 90
       33
 70
     1
 43
0.0
 10
-400.5837
 20
-92.5853
 10
-400.1764
 20
-92.6264
 10
-399.7971
 20
-92.7442
 10
-399.454
 20
-92.9306
 10
-399.155
 20
-93.1775
 10
-398.9084
 20
-93.4767
 10
-398.7222
 20
-93.8202
 10
-398.6045
 20
-94.1997
 10
-398.5635
 20
-94.6071
 10
-398.6045
 20
-95.0145
 10
-398.7222
 20
-95.394
 10
-398.9084
 20
-95.7375
 10
-399.155
 20
-96.0367
 10
-399.454
 20
-96.2836
 10
-399.7971
 20
-96.47
 10
-400.1764
 20
-96.5878
 10
-400.5837
 20
-96.6289
 10
-400.9908
 20
-96.5878
 10
-401.37
 20
-96.47
 10
-401.7131
 20
-96.2836
 10
-402.0122
 20
-96.0367
 10
-402.2589
 20
-95.7375
 10
-402.4452
 20
-95.394
 10
-402.5629
 20
-95.0145
 10
-402.604
 20
-94.6071
 10
-402.5629
 20
-94.1997
 10
-402.4452
 20
-93.8202
 10
-402.2589
 20
-93.4767
 10
-402.0122
 20
-93.1775
 10
-401.7131
 20
-92.9306
 10
-401.37
 20
-92.7442
 10
-400.9908
 20
-92.6264
 10
-400.5837
 20
-92.5853
  0
LWPOLYLINE
  5
A4
330
1F
100
AcDbEntity
  8
Layer 1
 62
     7
370
    25
100
AcDbPolyline
 90
       33
 70
     1
 43
0.0
 10
-372.7411
 20
-92.5853
 10
-372.3338
 20
-92.6264
 10
-371.9545
 20
-92.7442
 10
-371.6114
 20
-92.9306
 10
-371.3124
 20
-93.1775
 10
-371.0658
 20
-93.4767
 10
-370.8796
 20
-93.8202
 10
-370.7619
 20
-94.1997
 10
-370.7209
 20
-94.6071
 10
-370.7619
 20
-95.0145
 10
-370.8796
 20
-95.394
 10
-371.0658
 20
-95.7375
 10
-371.3124
 20
-96.0367
 10
-371.6114
 20
-96.2836
 10
-371.9545
 20
-96.47
 10
-372.3338
 20
-96.5878
 10
-372.7411
 20
-96.6289
 10
-373.1482
 20
-96.5878
 10
-373.5274
 20
-96.47
 10
-373.8705
 20
-96.2836
 10
-374.1696
 20
-96.0367
 10
-374.4163
 20
-95.7375
 10
-374.6026
 20
-95.394
 10
-374.7203
 20
-95.0145
 10
-374.7614
 20
-94.6071
 10
-374.7203
 20
-94.1997
 10
-374.6026
 20
-93.8202
 10
-374.4163
 20
-93.4767
 10
-374.1696
 20
-93.1775
 10
-373.8705
 20
-92.9306
 10
-373.5274
 20
-92.7442
 10
-373.1482
 20
-92.6264
 10
-372.7411
 20
-92.5853
  0
LWPOLYLINE
  5
A5
330
1F
100
AcDbEntity
  8
Layer 1
 62
     7
370
    25
100
AcDbPolyline
 90
       33
 70
     1
 43
0.0
 10
-344.8985
 20
-92.5853
 10
-344.4912
 20
-92.6264
 10
-344.1119
 20
-92.7442
 10
-343.7688
 20
-92.9306
 10
-343.4698
 20
-93.1775
 10
-343.2232
 20
-93.4767
 10
-343.037
 20
-93.8202
 10
-342.9193
 20
-94.1997
 10
-342.8783
 20
-94.6071
 10
-342.9193
 20
-95.0145
 10
-343.037
 20
-95.394
 10
-343.2232
 20
-95.7375
 10
-343.4698
 20
-96.0367
 10
-343.7688
 20
-96.2836
 10
-344.1119
 20
-96.47
 10
-344.4912
 20
-96.5878
 10
-344.8985
 20
-96.6289
 10
-345.3056
 20
-96.5878
 10
-345.6848
 20
-96.47
 10
-346.0279
 20
-96.2836
 10
-346.327
 20
-96.0367
 10
-346.5737
 20
-95.7375
 10
-346.76
 20
-95.394
 10
-346.8777
 20
-95.0145
 10
-346.9188
 20
-94.6071
 10
-346.8777
 20
-94.1997
 10
-346.76
 20
-93.8202
 10
-346.5737
 20
-93.4767
 10
-346.327
 20
-93.1775
 10
-346.0279
 20
-92.9306
 10
-345.6848
 20
-92.7442
 10
-345.3056
 20
-92.6264
 10
-344.8985
 20
-92.5853
  0
LWPOLYLINE
  5
A6
330
1F
100
AcDbEntity
  8
Layer 1
 62
     7
370
    25
100
AcDbPolyline
 90
       33
 70
     1
 43
0.0
 10
-317.056
 20
-92.5853
 10
-316.6487
 20
-92.6264
 10
-316.2694
 20
-92.7442
 10
-315.9262
 20
-92.9306
 10
-315.6272
 20
-93.1775
 10
-315.3806
 20
-93.4767
 10
-315.1944
 20
-93.8202
 10
-315.0767
 20
-94.1997
 10
-315.0357
 20
-94.6071
 10
-315.0767
 20
-95.0145
 10
-315.1944
 20
-95.394
 10
-315.3806
 20
-95.7375
 10
-315.6272
 20
-96.0367
 10
-315.9262
 20
-96.2836
 10
-316.2694
 20
-96.47
 10
-316.6487
 20
-96.5878
 10
-317.056
 20
-96.6289
 10
-317.463
 20
-96.5878
 10
-317.8422
 20
-96.47
 10
-318.1854
 20
-96.2836
 10
-318.4844
 20
-96.0367
 10
-318.7311
 20
-95.7375
 10
-318.9174
 20
-95.394
 10
-319.0351
 20
-95.0145
 10
-319.0762
 20
-94.6071
 10
-319.0351
 20
-94.1997
 10
-318.9174
 20
-93.8202
 10
-318.7311
 20
-93.4767
 10
-318.4844
 20
-93.1775
 10
-318.1854
 20
-92.9306
 10
-317.8422
 20
-92.7442
 10
-317.463
 20
-92.6264
 10
-317.056
 20
-92.5853
  0
LWPOLYLINE
  5
A7
330
1F
100
AcDbEntity
  8
Layer 1
 62
     7
370
    25
100
AcDbPolyline
 90
       33
 70
     1
 43
0.0
 10
-289.2134
 20
-92.5853
 10
-288.8061
 20
-92.6264
 10
-288.4267
 20
-92.7442
 10
-288.0833
 20
-92.9306
 10
-287.7842
 20
-93.1775
 10
-287.5375
 20
-93.4767
 10
-287.3511
 20
-93.8202
 10
-287.2334
 20
-94.1997
 10
-287.1923
 20
-94.6071
 10
-287.2334
 20
-95.0145
 10
-287.3511
 20
-95.394
 10
-287.5375
 20
-95.7375
 10
-287.7842
 20
-96.0367
 10
-288.0833
 20
-96.2836
 10
-288.4267
 20
-96.47
 10
-288.8061
 20
-96.5878
 10
-289.2134
 20
-96.6289
 10
-289.6204
 20
-96.5878
 10
-289.9996
 20
-96.47
 10
-290.3428
 20
-96.2836
 10
-290.6418
 20
-96.0367
 10
-290.8885
 20
-95.7375
 10
-291.0748
 20
-95.394
 10
-291.1925
 20
-95.0145
 10
-291.2336
 20
-94.6071
 10
-291.1925
 20
-94.1997
 10
-291.0748
 20
-93.8202
 10
-290.8885
 20
-93.4767
 10
-290.6418
 20
-93.1775
 10
-290.3428
 20
-92.9306
 10
-289.9996
 20
-92.7442
 10
-289.6204
 20
-92.6264
 10
-289.2134
 20
-92.5853
  0
LWPOLYLINE
  5
A8
330
1F
100
AcDbEntity
  8
Layer 1
 62
     7
370
    25
100
AcDbPolyline
 90
       33
 70
     1
 43
0.0
 10
-261.3708
 20
-92.5853
 10
-260.9635
 20
-92.6264
 10
-260.5841
 20
-92.7442
 10
-260.2408
 20
-92.9306
 10
-259.9417
 20
-93.1775
 10
-259.6949
 20
-93.4767
 10
-259.5085
 20
-93.8202
 10
-259.3908
 20
-94.1997
 10
-259.3497
 20
-94.6071
 10
-259.3908
 20
-95.0145
 10
-259.5085
 20
-95.394
 10
-259.6949
 20
-95.7375
 10
-259.9417
 20
-96.0367
 10
-260.2408
 20
-96.2836
 10
-260.5841
 20
-96.47
 10
-260.9635
 20
-96.5878
 10
-261.3708
 20
-96.6289
 10
-261.7779
 20
-96.5878
 10
-262.157
 20
-96.47
 10
-262.5002
 20
-96.2836
 10
-262.7992
 20
-96.0367
 10
-263.046
 20
-95.7375
 10
-263.2323
 20
-95.394
 10
-263.35
 20
-95.0145
 10
-263.3911
 20
-94.6071
 10
-263.35
 20
-94.1997
 10
-263.2323
 20
-93.8202
 10
-263.046
 20
-93.4767
 10
-262.7992
 20
-93.1775
 10
-262.5002
 20
-92.9306
 10
-262.157
 20
-92.7442
 10
-261.7779
 20
-92.6264
 10
-261.3708
 20
-92.5853
  0
LWPOLYLINE
  5
A9
330
1F
100
AcDbEntity
  8
Layer 1
 62
     7
370
    25
100
AcDbPolyline
 90
       33
 70
     1
 43
0.0
 10
-511.9541
 20
-117.4423
 10
-511.547
 20
-117.4834
 10
-511.1679
 20
-117.6012
 10
-510.8247
 20
-117.7876
 10
-510.5257
 20
-118.0345
 10
-510.2789
 20
-118.3337
 10
-510.0926
 20
-118.6772
 10
-509.9749
 20
-119.0567
 10
-509.9338
 20
-119.4641
 10
-509.9749
 20
-119.8715
 10
-510.0926
 20
-120.251
 10
-510.2789
 20
-120.5945
 10
-510.5257
 20
-120.8937
 10
-510.8247
 20
-121.1406
 10
-511.1679
 20
-121.327
 10
-511.547
 20
-121.4448
 10
-511.9541
 20
-121.4859
 10
-512.3612
 20
-121.4448
 10
-512.7404
 20
-121.327
 10
-513.0835
 20
-121.1406
 10
-513.3826
 20
-120.8937
 10
-513.6293
 20
-120.5945
 10
-513.8156
 20
-120.251
 10
-513.9333
 20
-119.8715
 10
-513.9744
 20
-119.4641
 10
-513.9333
 20
-119.0567
 10
-513.8156
 20
-118.6772
 10
-513.6293
 20
-118.3337
 10
-513.3826
 20
-118.0345
 10
-513.0835
 20
-117.7876
 10
-512.7404
 20
-117.6012
 10
-512.3612
 20
-117.4834
 10
-511.9541
 20
-117.4423
  0
LWPOLYLINE
  5
AA
330
1F
100
AcDbEntity
  8
Layer 1
 62
     7
370
    25
100
AcDbPolyline
 90
       33
 70
     1
 43
0.0
 10
-484.1115
 20
-117.4423
 10
-483.7044
 20
-117.4834
 10
-483.3253
 20
-117.6012
 10
-482.9821
 20
-117.7876
 10
-482.6831
 20
-118.0345
 10
-482.4363
 20
-118.3337
 10
-482.25
 20
-118.6772
 10
-482.1323
 20
-119.0567
 10
-482.0912
 20
-119.4641
 10
-482.1323
 20
-119.8715
 10
-482.25
 20
-120.251
 10
-482.4363
 20
-120.5945
 10
-482.6831
 20
-120.8937
 10
-482.9821
 20
-121.1406
 10
-483.3253
 20
-121.327
 10
-483.7044
 20
-121.4448
 10
-484.1115
 20
-121.4859
 10
-484.5186
 20
-121.4448
 10
-484.8978
 20
-121.327
 10
-485.2409
 20
-121.1406
 10
-485.54
 20
-120.8937
 10
-485.7867
 20
-120.5945
 10
-485.973
 20
-120.251
 10
-486.0907
 20
-119.8715
 10
-486.1318
 20
-119.4641
 10
-486.0907
 20
-119.0567
 10
-485.973
 20
-118.6772
 10
-485.7867
 20
-118.3337
 10
-485.54
 20
-118.0345
 10
-485.2409
 20
-117.7876
 10
-484.8978
 20
-117.6012
 10
-484.5186
 20
-117.4834
 10
-484.1115
 20
-117.4423
  0
LWPOLYLINE
  5
AB
330
1F
100
AcDbEntity
  8
Layer 1
 62
     7
370
    25
100
AcDbPolyline
 90
       33
 70
     1
 43
0.0
 10
-456.2689
 20
-117.4423
 10
-455.8618
 20
-117.4834
 10
-455.4827
 20
-117.6012
 10
-455.1395
 20
-117.7876
 10
-454.8405
 20
-118.0345
 10
-454.5937
 20
-118.3337
 10
-454.4074
 20
-118.6772
 10
-454.2897
 20
-119.0567
 10
-454.2486
 20
-119.4641
 10
-454.2897
 20
-119.8715
 10
-454.4074
 20
-120.251
 10
-454.5937
 20
-120.5945
 10
-454.8405
 20
-120.8937
 10
-455.1395
 20
-121.1406
 10
-455.4827
 20
-121.327
 10
-455.8618
 20
-121.4448
 10
-456.2689
 20
-121.4859
 10
-456.676
 20
-121.4448
 10
-457.0552
 20
-121.327
 10
-457.3983
 20
-121.1406
 10
-457.6974
 20
-120.8937
 10
-457.9441
 20
-120.5945
 10
-458.1304
 20
-120.251
 10
-458.2481
 20
-119.8715
 10
-458.2892
 20
-119.4641
 10
-458.2481
 20
-119.0567
 10
-458.1304
 20
-118.6772
 10
-457.9441
 20
-118.3337
 10
-457.6974
 20
-118.0345
 10
-457.3983
 20
-117.7876
 10
-457.0552
 20
-117.6012
 10
-456.676
 20
-117.4834
 10
-456.2689
 20
-117.4423
  0
LWPOLYLINE
  5
AC
330
1F
100
AcDbEntity
  8
Layer 1
 62
     7
370
    25
100
AcDbPolyline
 90
       33
 70
     1
 43
0.0
 10
-428.4263
 20
-117.4423
 10
-428.019
 20
-117.4834
 10
-427.6397
 20
-117.6012
 10
-427.2965
 20
-117.7876
 10
-426.9976
 20
-118.0345
 10
-426.7509
 20
-118.3337
 10
-426.5647
 20
-118.6772
 10
-426.447
 20
-119.0567
 10
-426.406
 20
-119.4641
 10
-426.447
 20
-119.8715
 10
-426.5647
 20
-120.251
 10
-426.7509
 20
-120.5945
 10
-426.9976
 20
-120.8937
 10
-427.2965
 20
-121.1406
 10
-427.6397
 20
-121.327
 10
-428.019
 20
-121.4448
 10
-428.4263
 20
-121.4859
 10
-428.8334
 20
-121.4448
 10
-429.2126
 20
-121.327
 10
-429.5557
 20
-121.1406
 10
-429.8548
 20
-120.8937
 10
-430.1015
 20
-120.5945
 10
-430.2878
 20
-120.251
 10
-430.4055
 20
-119.8715
 10
-430.4466
 20
-119.4641
 10
-430.4055
 20
-119.0567
 10
-430.2878
 20
-118.6772
 10
-430.1015
 20
-118.3337
 10
-429.8548
 20
-118.0345
 10
-429.5557
 20
-117.7876
 10
-429.2126
 20
-117.6012
 10
-428.8334
 20
-117.4834
 10
-428.4263
 20
-117.4423
  0
LWPOLYLINE
  5
AD
330
1F
100
AcDbEntity
  8
Layer 1
 62
     7
370
    25
100
AcDbPolyline
 90
       33
 70
     1
 43
0.0
 10
-400.5837
 20
-117.4423
 10
-400.1764
 20
-117.4834
 10
-399.7971
 20
-117.6012
 10
-399.454
 20
-117.7876
 10
-399.155
 20
-118.0345
 10
-398.9084
 20
-118.3337
 10
-398.7222
 20
-118.6772
 10
-398.6045
 20
-119.0567
 10
-398.5635
 20
-119.4641
 10
-398.6045
 20
-119.8715
 10
-398.7222
 20
-120.251
 10
-398.9084
 20
-120.5945
 10
-399.155
 20
-120.8937
 10
-399.454
 20
-121.1406
 10
-399.7971
 20
-121.327
 10
-400.1764
 20
-121.4448
 10
-400.5837
 20
-121.4859
 10
-400.9908
 20
-121.4448
 10
-401.37
 20
-121.327
 10
-401.7131
 20
-121.1406
 10
-402.0122
 20
-120.8937
 10
-402.2589
 20
-120.5945
 10
-402.4452
 20
-120.251
 10
-402.5629
 20
-119.8715
 10
-402.604
 20
-119.4641
 10
-402.5629
 20
-119.0567
 10
-402.4452
 20
-118.6772
 10
-402.2589
 20
-118.3337
 10
-402.0122
 20
-118.0345
 10
-401.7131
 20
-117.7876
 10
-401.37
 20
-117.6012
 10
-400.9908
 20
-117.4834
 10
-400.5837
 20
-117.4423
  0
LWPOLYLINE
  5
AE
330
1F
100
AcDbEntity
  8
Layer 1
 62
     7
370
    25
100
AcDbPolyline
 90
       33
 70
     1
 43
0.0
 10
-372.7411
 20
-117.4423
 10
-372.3338
 20
-117.4834
 10
-371.9545
 20
-117.6012
 10
-371.6114
 20
-117.7876
 10
-371.3124
 20
-118.0345
 10
-371.0658
 20
-118.3337
 10
-370.8796
 20
-118.6772
 10
-370.7619
 20
-119.0567
 10
-370.7209
 20
-119.4641
 10
-370.7619
 20
-119.8715
 10
-370.8796
 20
-120.251
 10
-371.0658
 20
-120.5945
 10
-371.3124
 20
-120.8937
 10
-371.6114
 20
-121.1406
 10
-371.9545
 20
-121.327
 10
-372.3338
 20
-121.4448
 10
-372.7411
 20
-121.4859
 10
-373.1482
 20
-121.4448
 10
-373.5274
 20
-121.327
 10
-373.8705
 20
-121.1406
 10
-374.1696
 20
-120.8937
 10
-374.4163
 20
-120.5945
 10
-374.6026
 20
-120.251
 10
-374.7203
 20
-119.8715
 10
-374.7614
 20
-119.4641
 10
-374.7203
 20
-119.0567
 10
-374.6026
 20
-118.6772
 10
-374.4163
 20
-118.3337
 10
-374.1696
 20
-118.0345
 10
-373.8705
 20
-117.7876
 10
-373.5274
 20
-117.6012
 10
-373.1482
 20
-117.4834
 10
-372.7411
 20
-117.4423
  0
LWPOLYLINE
  5
AF
330
1F
100
AcDbEntity
  8
Layer 1
 62
     7
370
    25
100
AcDbPolyline
 90
       33
 70
     1
 43
0.0
 10
-344.8985
 20
-117.4423
 10
-344.4912
 20
-117.4834
 10
-344.1119
 20
-117.6012
 10
-343.7688
 20
-117.7876
 10
-343.4698
 20
-118.0345
 10
-343.2232
 20
-118.3337
 10
-343.037
 20
-118.6772
 10
-342.9193
 20
-119.0567
 10
-342.8783
 20
-119.4641
 10
-342.9193
 20
-119.8715
 10
-343.037
 20
-120.251
 10
-343.2232
 20
-120.5945
 10
-343.4698
 20
-120.8937
 10
-343.7688
 20
-121.1406
 10
-344.1119
 20
-121.327
 10
-344.4912
 20
-121.4448
 10
-344.8985
 20
-121.4859
 10
-345.3056
 20
-121.4448
 10
-345.6848
 20
-121.327
 10
-346.0279
 20
-121.1406
 10
-346.327
 20
-120.8937
 10
-346.5737
 20
-120.5945
 10
-346.76
 20
-120.251
 10
-346.8777
 20
-119.8715
 10
-346.9188
 20
-119.4641
 10
-346.8777
 20
-119.0567
 10
-346.76
 20
-118.6772
 10
-346.5737
 20
-118.3337
 10
-346.327
 20
-118.0345
 10
-346.0279
 20
-117.7876
 10
-345.6848
 20
-117.6012
 10
-345.3056
 20
-117.4834
 10
-344.8985
 20
-117.4423
  0
LWPOLYLINE
  5
B0
330
1F
100
AcDbEntity
  8
Layer 1
 62
     7
370
    25
100
AcDbPolyline
 90
       33
 70
     1
 43
0.0
 10
-317.056
 20
-117.4423
 10
-316.6487
 20
-117.4834
 10
-316.2694
 20
-117.6012
 10
-315.9262
 20
-117.7876
 10
-315.6272
 20
-118.0345
 10
-315.3806
 20
-118.3337
 10
-315.1944
 20
-118.6772
 10
-315.0767
 20
-119.0567
 10
-315.0357
 20
-119.4641
 10
-315.0767
 20
-119.8715
 10
-315.1944
 20
-120.251
 10
-315.3806
 20
-120.5945
 10
-315.6272
 20
-120.8937
 10
-315.9262
 20
-121.1406
 10
-316.2694
 20
-121.327
 10
-316.6487
 20
-121.4448
 10
-317.056
 20
-121.4859
 10
-317.463
 20
-121.4448
 10
-317.8422
 20
-121.327
 10
-318.1854
 20
-121.1406
 10
-318.4844
 20
-120.8937
 10
-318.7311
 20
-120.5945
 10
-318.9174
 20
-120.251
 10
-319.0351
 20
-119.8715
 10
-319.0762
 20
-119.4641
 10
-319.0351
 20
-119.0567
 10
-318.9174
 20
-118.6772
 10
-318.7311
 20
-118.3337
 10
-318.4844
 20
-118.0345
 10
-318.1854
 20
-117.7876
 10
-317.8422
 20
-117.6012
 10
-317.463
 20
-117.4834
 10
-317.056
 20
-117.4423
  0
LWPOLYLINE
  5
B1
330
1F
100
AcDbEntity
  8
Layer 1
 62
     7
370
    25
100
AcDbPolyline
 90
       33
 70
     1
 43
0.0
 10
-289.2134
 20
-117.4423
 10
-288.8061
 20
-117.4834
 10
-288.4267
 20
-117.6012
 10
-288.0833
 20
-117.7876
 10
-287.7842
 20
-118.0345
 10
-287.5375
 20
-118.3337
 10
-287.3511
 20
-118.6772
 10
-287.2334
 20
-119.0567
 10
-287.1923
 20
-119.4641
 10
-287.2334
 20
-119.8715
 10
-287.3511
 20
-120.251
 10
-287.5375
 20
-120.5945
 10
-287.7842
 20
-120.8937
 10
-288.0833
 20
-121.1406
 10
-288.4267
 20
-121.327
 10
-288.8061
 20
-121.4448
 10
-289.2134
 20
-121.4859
 10
-289.6204
 20
-121.4448
 10
-289.9996
 20
-121.327
 10
-290.3428
 20
-121.1406
 10
-290.6418
 20
-120.8937
 10
-290.8885
 20
-120.5945
 10
-291.0748
 20
-120.251
 10
-291.1925
 20
-119.8715
 10
-291.2336
 20
-119.4641
 10
-291.1925
 20
-119.0567
 10
-291.0748
 20
-118.6772
 10
-290.8885
 20
-118.3337
 10
-290.6418
 20
-118.0345
 10
-290.3428
 20
-117.7876
 10
-289.9996
 20
-117.6012
 10
-289.6204
 20
-117.4834
 10
-289.2134
 20
-117.4423
  0
LWPOLYLINE
  5
B2
330
1F
100
AcDbEntity
  8
Layer 1
 62
     7
370
    25
100
AcDbPolyline
 90
       33
 70
     1
 43
0.0
 10
-261.3708
 20
-117.4423
 10
-260.9635
 20
-117.4834
 10
-260.5841
 20
-117.6012
 10
-260.2408
 20
-117.7876
 10
-259.9417
 20
-118.0345
 10
-259.6949
 20
-118.3337
 10
-259.5085
 20
-118.6772
 10
-259.3908
 20
-119.0567
 10
-259.3497
 20
-119.4641
 10
-259.3908
 20
-119.8715
 10
-259.5085
 20
-120.251
 10
-259.6949
 20
-120.5945
 10
-259.9417
 20
-120.8937
 10
-260.2408
 20
-121.1406
 10
-260.5841
 20
-121.327
 10
-260.9635
 20
-121.4448
 10
-261.3708
 20
-121.4859
 10
-261.7779
 20
-121.4448
 10
-262.157
 20
-121.327
 10
-262.5002
 20
-121.1406
 10
-262.7992
 20
-120.8937
 10
-263.046
 20
-120.5945
 10
-263.2323
 20
-120.251
 10
-263.35
 20
-119.8715
 10
-263.3911
 20
-119.4641
 10
-263.35
 20
-119.0567
 10
-263.2323
 20
-118.6772
 10
-263.046
 20
-118.3337
 10
-262.7992
 20
-118.0345
 10
-262.5002
 20
-117.7876
 10
-262.157
 20
-117.6012
 10
-261.7779
 20
-117.4834
 10
-261.3708
 20
-117.4423
  0
LWPOLYLINE
  5
B3
330
1F
100
AcDbEntity
  8
Layer 1
 62
     7
370
    25
100
AcDbPolyline
 90
       33
 70
     1
 43
0.0
 10
-511.9541
 20
-142.2993
 10
-511.547
 20
-142.3404
 10
-511.1679
 20
-142.4582
 10
-510.8247
 20
-142.6446
 10
-510.5257
 20
-142.8915
 10
-510.2789
 20
-143.1907
 10
-510.0926
 20
-143.5342
 10
-509.9749
 20
-143.9137
 10
-509.9338
 20
-144.3211
 10
-509.9749
 20
-144.7285
 10
-510.0926
 20
-145.108
 10
-510.2789
 20
-145.4515
 10
-510.5257
 20
-145.7507
 10
-510.8247
 20
-145.9976
 10
-511.1679
 20
-146.184
 10
-511.547
 20
-146.3018
 10
-511.9541
 20
-146.3429
 10
-512.3612
 20
-146.3018
 10
-512.7404
 20
-146.184
 10
-513.0835
 20
-145.9976
 10
-513.3826
 20
-145.7507
 10
-513.6293
 20
-145.4515
 10
-513.8156
 20
-145.108
 10
-513.9333
 20
-144.7285
 10
-513.9744
 20
-144.3211
 10
-513.9333
 20
-143.9137
 10
-513.8156
 20
-143.5342
 10
-513.6293
 20
-143.1907
 10
-513.3826
 20
-142.8915
 10
-513.0835
 20
-142.6446
 10
-512.7404
 20
-142.4582
 10
-512.3612
 20
-142.3404
 10
-511.9541
 20
-142.2993
  0
LWPOLYLINE
  5
B4
330
1F
100
AcDbEntity
  8
Layer 1
 62
     7
370
    25
100
AcDbPolyline
 90
       33
 70
     1
 43
0.0
 10
-456.2689
 20
-142.2993
 10
-455.8618
 20
-142.3404
 10
-455.4827
 20
-142.4582
 10
-455.1395
 20
-142.6446
 10
-454.8405
 20
-142.8915
 10
-454.5937
 20
-143.1907
 10
-454.4074
 20
-143.5342
 10
-454.2897
 20
-143.9137
 10
-454.2486
 20
-144.3211
 10
-454.2897
 20
-144.7285
 10
-454.4074
 20
-145.108
 10
-454.5937
 20
-145.4515
 10
-454.8405
 20
-145.7507
 10
-455.1395
 20
-145.9976
 10
-455.4827
 20
-146.184
 10
-455.8618
 20
-146.3018
 10
-456.2689
 20
-146.3429
 10
-456.676
 20
-146.3018
 10
-457.0552
 20
-146.184
 10
-457.3983
 20
-145.9976
 10
-457.6974
 20
-145.7507
 10
-457.9441
 20
-145.4515
 10
-458.1304
 20
-145.108
 10
-458.2481
 20
-144.7285
 10
-458.2892
 20
-144.3211
 10
-458.2481
 20
-143.9137
 10
-458.1304
 20
-143.5342
 10
-457.9441
 20
-143.1907
 10
-457.6974
 20
-142.8915
 10
-457.3983
 20
-142.6446
 10
-457.0552
 20
-142.4582
 10
-456.676
 20
-142.3404
 10
-456.2689
 20
-142.2993
  0
LWPOLYLINE
  5
B5
330
1F
100
AcDbEntity
  8
Layer 1
 62
     7
370
    25
100
AcDbPolyline
 90
       33
 70
     1
 43
0.0
 10
-428.4263
 20
-142.2993
 10
-428.019
 20
-142.3404
 10
-427.6397
 20
-142.4582
 10
-427.2965
 20
-142.6446
 10
-426.9976
 20
-142.8915
 10
-426.7509
 20
-143.1907
 10
-426.5647
 20
-143.5342
 10
-426.447
 20
-143.9137
 10
-426.406
 20
-144.3211
 10
-426.447
 20
-144.7285
 10
-426.5647
 20
-145.108
 10
-426.7509
 20
-145.4515
 10
-426.9976
 20
-145.7507
 10
-427.2965
 20
-145.9976
 10
-427.6397
 20
-146.184
 10
-428.019
 20
-146.3018
 10
-428.4263
 20
-146.3429
 10
-428.8334
 20
-146.3018
 10
-429.2126
 20
-146.184
 10
-429.5557
 20
-145.9976
 10
-429.8548
 20
-145.7507
 10
-430.1015
 20
-145.4515
 10
-430.2878
 20
-145.108
 10
-430.4055
 20
-144.7285
 10
-430.4466
 20
-144.3211
 10
-430.4055
 20
-143.9137
 10
-430.2878
 20
-143.5342
 10
-430.1015
 20
-143.1907
 10
-429.8548
 20
-142.8915
 10
-429.5557
 20
-142.6446
 10
-429.2126
 20
-142.4582
 10
-428.8334
 20
-142.3404
 10
-428.4263
 20
-142.2993
  0
LWPOLYLINE
  5
B6
330
1F
100
AcDbEntity
  8
Layer 1
 62
     7
370
    25
100
AcDbPolyline
 90
       33
 70
     1
 43
0.0
 10
-400.5837
 20
-142.2993
 10
-400.1764
 20
-142.3404
 10
-399.7971
 20
-142.4582
 10
-399.454
 20
-142.6446
 10
-399.155
 20
-142.8915
 10
-398.9084
 20
-143.1907
 10
-398.7222
 20
-143.5342
 10
-398.6045
 20
-143.9137
 10
-398.5635
 20
-144.3211
 10
-398.6045
 20
-144.7285
 10
-398.7222
 20
-145.108
 10
-398.9084
 20
-145.4515
 10
-399.155
 20
-145.7507
 10
-399.454
 20
-145.9976
 10
-399.7971
 20
-146.184
 10
-400.1764
 20
-146.3018
 10
-400.5837
 20
-146.3429
 10
-400.9908
 20
-146.3018
 10
-401.37
 20
-146.184
 10
-401.7131
 20
-145.9976
 10
-402.0122
 20
-145.7507
 10
-402.2589
 20
-145.4515
 10
-402.4452
 20
-145.108
 10
-402.5629
 20
-144.7285
 10
-402.604
 20
-144.3211
 10
-402.5629
 20
-143.9137
 10
-402.4452
 20
-143.5342
 10
-402.2589
 20
-143.1907
 10
-402.0122
 20
-142.8915
 10
-401.7131
 20
-142.6446
 10
-401.37
 20
-142.4582
 10
-400.9908
 20
-142.3404
 10
-400.5837
 20
-142.2993
  0
LWPOLYLINE
  5
B7
330
1F
100
AcDbEntity
  8
Layer 1
 62
     7
370
    25
100
AcDbPolyline
 90
       33
 70
     1
 43
0.0
 10
-372.7411
 20
-142.2993
 10
-372.3338
 20
-142.3404
 10
-371.9545
 20
-142.4582
 10
-371.6114
 20
-142.6446
 10
-371.3124
 20
-142.8915
 10
-371.0658
 20
-143.1907
 10
-370.8796
 20
-143.5342
 10
-370.7619
 20
-143.9137
 10
-370.7209
 20
-144.3211
 10
-370.7619
 20
-144.7285
 10
-370.8796
 20
-145.108
 10
-371.0658
 20
-145.4515
 10
-371.3124
 20
-145.7507
 10
-371.6114
 20
-145.9976
 10
-371.9545
 20
-146.184
 10
-372.3338
 20
-146.3018
 10
-372.7411
 20
-146.3429
 10
-373.1482
 20
-146.3018
 10
-373.5274
 20
-146.184
 10
-373.8705
 20
-145.9976
 10
-374.1696
 20
-145.7507
 10
-374.4163
 20
-145.4515
 10
-374.6026
 20
-145.108
 10
-374.7203
 20
-144.7285
 10
-374.7614
 20
-144.3211
 10
-374.7203
 20
-143.9137
 10
-374.6026
 20
-143.5342
 10
-374.4163
 20
-143.1907
 10
-374.1696
 20
-142.8915
 10
-373.8705
 20
-142.6446
 10
-373.5274
 20
-142.4582
 10
-373.1482
 20
-142.3404
 10
-372.7411
 20
-142.2993
  0
LWPOLYLINE
  5
B8
330
1F
100
AcDbEntity
  8
Layer 1
 62
     7
370
    25
100
AcDbPolyline
 90
       33
 70
     1
 43
0.0
 10
-344.8985
 20
-142.2993
 10
-344.4912
 20
-142.3404
 10
-344.1119
 20
-142.4582
 10
-343.7688
 20
-142.6446
 10
-343.4698
 20
-142.8915
 10
-343.2232
 20
-143.1907
 10
-343.037
 20
-143.5342
 10
-342.9193
 20
-143.9137
 10
-342.8783
 20
-144.3211
 10
-342.9193
 20
-144.7285
 10
-343.037
 20
-145.108
 10
-343.2232
 20
-145.4515
 10
-343.4698
 20
-145.7507
 10
-343.7688
 20
-145.9976
 10
-344.1119
 20
-146.184
 10
-344.4912
 20
-146.3018
 10
-344.8985
 20
-146.3429
 10
-345.3056
 20
-146.3018
 10
-345.6848
 20
-146.184
 10
-346.0279
 20
-145.9976
 10
-346.327
 20
-145.7507
 10
-346.5737
 20
-145.4515
 10
-346.76
 20
-145.108
 10
-346.8777
 20
-144.7285
 10
-346.9188
 20
-144.3211
 10
-346.8777
 20
-143.9137
 10
-346.76
 20
-143.5342
 10
-346.5737
 20
-143.1907
 10
-346.327
 20
-142.8915
 10
-346.0279
 20
-142.6446
 10
-345.6848
 20
-142.4582
 10
-345.3056
 20
-142.3404
 10
-344.8985
 20
-142.2993
  0
LWPOLYLINE
  5
B9
330
1F
100
AcDbEntity
  8
Layer 1
 62
     7
370
    25
100
AcDbPolyline
 90
       33
 70
     1
 43
0.0
 10
-317.056
 20
-142.2993
 10
-316.6487
 20
-142.3404
 10
-316.2694
 20
-142.4582
 10
-315.9262
 20
-142.6446
 10
-315.6272
 20
-142.8915
 10
-315.3806
 20
-143.1907
 10
-315.1944
 20
-143.5342
 10
-315.0767
 20
-143.9137
 10
-315.0357
 20
-144.3211
 10
-315.0767
 20
-144.7285
 10
-315.1944
 20
-145.108
 10
-315.3806
 20
-145.4515
 10
-315.6272
 20
-145.7507
 10
-315.9262
 20
-145.9976
 10
-316.2694
 20
-146.184
 10
-316.6487
 20
-146.3018
 10
-317.056
 20
-146.3429
 10
-317.463
 20
-146.3018
 10
-317.8422
 20
-146.184
 10
-318.1854
 20
-145.9976
 10
-318.4844
 20
-145.7507
 10
-318.7311
 20
-145.4515
 10
-318.9174
 20
-145.108
 10
-319.0351
 20
-144.7285
 10
-319.0762
 20
-144.3211
 10
-319.0351
 20
-143.9137
 10
-318.9174
 20
-143.5342
 10
-318.7311
 20
-143.1907
 10
-318.4844
 20
-142.8915
 10
-318.1854
 20
-142.6446
 10
-317.8422
 20
-142.4582
 10
-317.463
 20
-142.3404
 10
-317.056
 20
-142.2993
  0
LWPOLYLINE
  5
BA
330
1F
100
AcDbEntity
  8
Layer 1
 62
     7
370
    25
100
AcDbPolyline
 90
       33
 70
     1
 43
0.0
 10
-261.3708
 20
-142.2993
 10
-260.9635
 20
-142.3404
 10
-260.5841
 20
-142.4582
 10
-260.2408
 20
-142.6446
 10
-259.9417
 20
-142.8915
 10
-259.6949
 20
-143.1907
 10
-259.5085
 20
-143.5342
 10
-259.3908
 20
-143.9137
 10
-259.3497
 20
-144.3211
 10
-259.3908
 20
-144.7285
 10
-259.5085
 20
-145.108
 10
-259.6949
 20
-145.4515
 10
-259.9417
 20
-145.7507
 10
-260.2408
 20
-145.9976
 10
-260.5841
 20
-146.184
 10
-260.9635
 20
-146.3018
 10
-261.3708
 20
-146.3429
 10
-261.7779
 20
-146.3018
 10
-262.157
 20
-146.184
 10
-262.5002
 20
-145.9976
 10
-262.7992
 20
-145.7507
 10
-263.046
 20
-145.4515
 10
-263.2323
 20
-145.108
 10
-263.35
 20
-144.7285
 10
-263.3911
 20
-144.3211
 10
-263.35
 20
-143.9137
 10
-263.2323
 20
-143.5342
 10
-263.046
 20
-143.1907
 10
-262.7992
 20
-142.8915
 10
-262.5002
 20
-142.6446
 10
-262.157
 20
-142.4582
 10
-261.7779
 20
-142.3404
 10
-261.3708
 20
-142.2993
  0
LWPOLYLINE
  5
BB
330
1F
100
AcDbEntity
  8
Layer 1
 62
     7
370
    25
100
AcDbPolyline
 90
       33
 70
     1
 43
0.0
 10
-511.9541
 20
-167.1564
 10
-511.547
 20
-167.1975
 10
-511.1679
 20
-167.3153
 10
-510.8247
 20
-167.5017
 10
-510.5257
 20
-167.7486
 10
-510.2789
 20
-168.0478
 10
-510.0926
 20
-168.3912
 10
-509.9749
 20
-168.7707
 10
-509.9338
 20
-169.1782
 10
-509.9749
 20
-169.5856
 10
-510.0926
 20
-169.9651
 10
-510.2789
 20
-170.3085
 10
-510.5257
 20
-170.6077
 10
-510.8247
 20
-170.8546
 10
-511.1679
 20
-171.041
 10
-511.547
 20
-171.1588
 10
-511.9541
 20
-171.1999
 10
-512.3612
 20
-171.1588
 10
-512.7404
 20
-171.041
 10
-513.0835
 20
-170.8546
 10
-513.3826
 20
-170.6077
 10
-513.6293
 20
-170.3085
 10
-513.8156
 20
-169.9651
 10
-513.9333
 20
-169.5856
 10
-513.9744
 20
-169.1782
 10
-513.9333
 20
-168.7707
 10
-513.8156
 20
-168.3912
 10
-513.6293
 20
-168.0478
 10
-513.3826
 20
-167.7486
 10
-513.0835
 20
-167.5017
 10
-512.7404
 20
-167.3153
 10
-512.3612
 20
-167.1975
 10
-511.9541
 20
-167.1564
  0
LWPOLYLINE
  5
BC
330
1F
100
AcDbEntity
  8
Layer 1
 62
     7
370
    25
100
AcDbPolyline
 90
       33
 70
     1
 43
0.0
 10
-484.1115
 20
-167.1564
 10
-483.7044
 20
-167.1975
 10
-483.3253
 20
-167.3153
 10
-482.9821
 20
-167.5017
 10
-482.6831
 20
-167.7486
 10
-482.4363
 20
-168.0478
 10
-482.25
 20
-168.3912
 10
-482.1323
 20
-168.7707
 10
-482.0912
 20
-169.1782
 10
-482.1323
 20
-169.5856
 10
-482.25
 20
-169.9651
 10
-482.4363
 20
-170.3085
 10
-482.6831
 20
-170.6077
 10
-482.9821
 20
-170.8546
 10
-483.3253
 20
-171.041
 10
-483.7044
 20
-171.1588
 10
-484.1115
 20
-171.1999
 10
-484.5186
 20
-171.1588
 10
-484.8978
 20
-171.041
 10
-485.2409
 20
-170.8546
 10
-485.54
 20
-170.6077
 10
-485.7867
 20
-170.3085
 10
-485.973
 20
-169.9651
 10
-486.0907
 20
-169.5856
 10
-486.1318
 20
-169.1782
 10
-486.0907
 20
-168.7707
 10
-485.973
 20
-168.3912
 10
-485.7867
 20
-168.0478
 10
-485.54
 20
-167.7486
 10
-485.2409
 20
-167.5017
 10
-484.8978
 20
-167.3153
 10
-484.5186
 20
-167.1975
 10
-484.1115
 20
-167.1564
  0
LWPOLYLINE
  5
BD
330
1F
100
AcDbEntity
  8
Layer 1
 62
     7
370
    25
100
AcDbPolyline
 90
       33
 70
     1
 43
0.0
 10
-456.2689
 20
-167.1564
 10
-455.8618
 20
-167.1975
 10
-455.4827
 20
-167.3153
 10
-455.1395
 20
-167.5017
 10
-454.8405
 20
-167.7486
 10
-454.5937
 20
-168.0478
 10
-454.4074
 20
-168.3912
 10
-454.2897
 20
-168.7707
 10
-454.2486
 20
-169.1782
 10
-454.2897
 20
-169.5856
 10
-454.4074
 20
-169.9651
 10
-454.5937
 20
-170.3085
 10
-454.8405
 20
-170.6077
 10
-455.1395
 20
-170.8546
 10
-455.4827
 20
-171.041
 10
-455.8618
 20
-171.1588
 10
-456.2689
 20
-171.1999
 10
-456.676
 20
-171.1588
 10
-457.0552
 20
-171.041
 10
-457.3983
 20
-170.8546
 10
-457.6974
 20
-170.6077
 10
-457.9441
 20
-170.3085
 10
-458.1304
 20
-169.9651
 10
-458.2481
 20
-169.5856
 10
-458.2892
 20
-169.1782
 10
-458.2481
 20
-168.7707
 10
-458.1304
 20
-168.3912
 10
-457.9441
 20
-168.0478
 10
-457.6974
 20
-167.7486
 10
-457.3983
 20
-167.5017
 10
-457.0552
 20
-167.3153
 10
-456.676
 20
-167.1975
 10
-456.2689
 20
-167.1564
  0
LWPOLYLINE
  5
BE
330
1F
100
AcDbEntity
  8
Layer 1
 62
     7
370
    25
100
AcDbPolyline
 90
       33
 70
     1
 43
0.0
 10
-428.4263
 20
-167.1564
 10
-428.019
 20
-167.1975
 10
-427.6397
 20
-167.3153
 10
-427.2965
 20
-167.5017
 10
-426.9976
 20
-167.7486
 10
-426.7509
 20
-168.0478
 10
-426.5647
 20
-168.3912
 10
-426.447
 20
-168.7707
 10
-426.406
 20
-169.1782
 10
-426.447
 20
-169.5856
 10
-426.5647
 20
-169.9651
 10
-426.7509
 20
-170.3085
 10
-426.9976
 20
-170.6077
 10
-427.2965
 20
-170.8546
 10
-427.6397
 20
-171.041
 10
-428.019
 20
-171.1588
 10
-428.4263
 20
-171.1999
 10
-428.8334
 20
-171.1588
 10
-429.2126
 20
-171.041
 10
-429.5557
 20
-170.8546
 10
-429.8548
 20
-170.6077
 10
-430.1015
 20
-170.3085
 10
-430.2878
 20
-169.9651
 10
-430.4055
 20
-169.5856
 10
-430.4466
 20
-169.1782
 10
-430.4055
 20
-168.7707
 10
-430.2878
 20
-168.3912
 10
-430.1015
 20
-168.0478
 10
-429.8548
 20
-167.7486
 10
-429.5557
 20
-167.5017
 10
-429.2126
 20
-167.3153
 10
-428.8334
 20
-167.1975
 10
-428.4263
 20
-167.1564
  0
LWPOLYLINE
  5
BF
330
1F
100
AcDbEntity
  8
Layer 1
 62
     7
370
    25
100
AcDbPolyline
 90
       33
 70
     1
 43
0.0
 10
-400.5837
 20
-167.1564
 10
-400.1764
 20
-167.1975
 10
-399.7971
 20
-167.3153
 10
-399.454
 20
-167.5017
 10
-399.155
 20
-167.7486
 10
-398.9084
 20
-168.0478
 10
-398.7222
 20
-168.3912
 10
-398.6045
 20
-168.7707
 10
-398.5635
 20
-169.1782
 10
-398.6045
 20
-169.5856
 10
-398.7222
 20
-169.9651
 10
-398.9084
 20
-170.3085
 10
-399.155
 20
-170.6077
 10
-399.454
 20
-170.8546
 10
-399.7971
 20
-171.041
 10
-400.1764
 20
-171.1588
 10
-400.5837
 20
-171.1999
 10
-400.9908
 20
-171.1588
 10
-401.37
 20
-171.041
 10
-401.7131
 20
-170.8546
 10
-402.0122
 20
-170.6077
 10
-402.2589
 20
-170.3085
 10
-402.4452
 20
-169.9651
 10
-402.5629
 20
-169.5856
 10
-402.604
 20
-169.1782
 10
-402.5629
 20
-168.7707
 10
-402.4452
 20
-168.3912
 10
-402.2589
 20
-168.0478
 10
-402.0122
 20
-167.7486
 10
-401.7131
 20
-167.5017
 10
-401.37
 20
-167.3153
 10
-400.9908
 20
-167.1975
 10
-400.5837
 20
-167.1564
  0
LWPOLYLINE
  5
C0
330
1F
100
AcDbEntity
  8
Layer 1
 62
     7
370
    25
100
AcDbPolyline
 90
       33
 70
     1
 43
0.0
 10
-372.7411
 20
-167.1564
 10
-372.3338
 20
-167.1975
 10
-371.9545
 20
-167.3153
 10
-371.6114
 20
-167.5017
 10
-371.3124
 20
-167.7486
 10
-371.0658
 20
-168.0478
 10
-370.8796
 20
-168.3912
 10
-370.7619
 20
-168.7707
 10
-370.7209
 20
-169.1782
 10
-370.7619
 20
-169.5856
 10
-370.8796
 20
-169.9651
 10
-371.0658
 20
-170.3085
 10
-371.3124
 20
-170.6077
 10
-371.6114
 20
-170.8546
 10
-371.9545
 20
-171.041
 10
-372.3338
 20
-171.1588
 10
-372.7411
 20
-171.1999
 10
-373.1482
 20
-171.1588
 10
-373.5274
 20
-171.041
 10
-373.8705
 20
-170.8546
 10
-374.1696
 20
-170.6077
 10
-374.4163
 20
-170.3085
 10
-374.6026
 20
-169.9651
 10
-374.7203
 20
-169.5856
 10
-374.7614
 20
-169.1782
 10
-374.7203
 20
-168.7707
 10
-374.6026
 20
-168.3912
 10
-374.4163
 20
-168.0478
 10
-374.1696
 20
-167.7486
 10
-373.8705
 20
-167.5017
 10
-373.5274
 20
-167.3153
 10
-373.1482
 20
-167.1975
 10
-372.7411
 20
-167.1564
  0
LWPOLYLINE
  5
C1
330
1F
100
AcDbEntity
  8
Layer 1
 62
     7
370
    25
100
AcDbPolyline
 90
       33
 70
     1
 43
0.0
 10
-344.8985
 20
-167.1564
 10
-344.4912
 20
-167.1975
 10
-344.1119
 20
-167.3153
 10
-343.7688
 20
-167.5017
 10
-343.4698
 20
-167.7486
 10
-343.2232
 20
-168.0478
 10
-343.037
 20
-168.3912
 10
-342.9193
 20
-168.7707
 10
-342.8783
 20
-169.1782
 10
-342.9193
 20
-169.5856
 10
-343.037
 20
-169.9651
 10
-343.2232
 20
-170.3085
 10
-343.4698
 20
-170.6077
 10
-343.7688
 20
-170.8546
 10
-344.1119
 20
-171.041
 10
-344.4912
 20
-171.1588
 10
-344.8985
 20
-171.1999
 10
-345.3056
 20
-171.1588
 10
-345.6848
 20
-171.041
 10
-346.0279
 20
-170.8546
 10
-346.327
 20
-170.6077
 10
-346.5737
 20
-170.3085
 10
-346.76
 20
-169.9651
 10
-346.8777
 20
-169.5856
 10
-346.9188
 20
-169.1782
 10
-346.8777
 20
-168.7707
 10
-346.76
 20
-168.3912
 10
-346.5737
 20
-168.0478
 10
-346.327
 20
-167.7486
 10
-346.0279
 20
-167.5017
 10
-345.6848
 20
-167.3153
 10
-345.3056
 20
-167.1975
 10
-344.8985
 20
-167.1564
  0
LWPOLYLINE
  5
C2
330
1F
100
AcDbEntity
  8
Layer 1
 62
     7
370
    25
100
AcDbPolyline
 90
       33
 70
     1
 43
0.0
 10
-317.056
 20
-167.1564
 10
-316.6487
 20
-167.1975
 10
-316.2694
 20
-167.3153
 10
-315.9262
 20
-167.5017
 10
-315.6272
 20
-167.7486
 10
-315.3806
 20
-168.0478
 10
-315.1944
 20
-168.3912
 10
-315.0767
 20
-168.7707
 10
-315.0357
 20
-169.1782
 10
-315.0767
 20
-169.5856
 10
-315.1944
 20
-169.9651
 10
-315.3806
 20
-170.3085
 10
-315.6272
 20
-170.6077
 10
-315.9262
 20
-170.8546
 10
-316.2694
 20
-171.041
 10
-316.6487
 20
-171.1588
 10
-317.056
 20
-171.1999
 10
-317.463
 20
-171.1588
 10
-317.8422
 20
-171.041
 10
-318.1854
 20
-170.8546
 10
-318.4844
 20
-170.6077
 10
-318.7311
 20
-170.3085
 10
-318.9174
 20
-169.9651
 10
-319.0351
 20
-169.5856
 10
-319.0762
 20
-169.1782
 10
-319.0351
 20
-168.7707
 10
-318.9174
 20
-168.3912
 10
-318.7311
 20
-168.0478
 10
-318.4844
 20
-167.7486
 10
-318.1854
 20
-167.5017
 10
-317.8422
 20
-167.3153
 10
-317.463
 20
-167.1975
 10
-317.056
 20
-167.1564
  0
LWPOLYLINE
  5
C3
330
1F
100
AcDbEntity
  8
Layer 1
 62
     7
370
    25
100
AcDbPolyline
 90
       33
 70
     1
 43
0.0
 10
-289.2134
 20
-167.1564
 10
-288.8061
 20
-167.1975
 10
-288.4267
 20
-167.3153
 10
-288.0833
 20
-167.5017
 10
-287.7842
 20
-167.7486
 10
-287.5375
 20
-168.0478
 10
-287.3511
 20
-168.3912
 10
-287.2334
 20
-168.7707
 10
-287.1923
 20
-169.1782
 10
-287.2334
 20
-169.5856
 10
-287.3511
 20
-169.9651
 10
-287.5375
 20
-170.3085
 10
-287.7842
 20
-170.6077
 10
-288.0833
 20
-170.8546
 10
-288.4267
 20
-171.041
 10
-288.8061
 20
-171.1588
 10
-289.2134
 20
-171.1999
 10
-289.6204
 20
-171.1588
 10
-289.9996
 20
-171.041
 10
-290.3428
 20
-170.8546
 10
-290.6418
 20
-170.6077
 10
-290.8885
 20
-170.3085
 10
-291.0748
 20
-169.9651
 10
-291.1925
 20
-169.5856
 10
-291.2336
 20
-169.1782
 10
-291.1925
 20
-168.7707
 10
-291.0748
 20
-168.3912
 10
-290.8885
 20
-168.0478
 10
-290.6418
 20
-167.7486
 10
-290.3428
 20
-167.5017
 10
-289.9996
 20
-167.3153
 10
-289.6204
 20
-167.1975
 10
-289.2134
 20
-167.1564
  0
LWPOLYLINE
  5
C4
330
1F
100
AcDbEntity
  8
Layer 1
 62
     7
370
    25
100
AcDbPolyline
 90
       33
 70
     1
 43
0.0
 10
-261.3708
 20
-167.1564
 10
-260.9635
 20
-167.1975
 10
-260.5841
 20
-167.3153
 10
-260.2408
 20
-167.5017
 10
-259.9417
 20
-167.7486
 10
-259.6949
 20
-168.0478
 10
-259.5085
 20
-168.3912
 10
-259.3908
 20
-168.7707
 10
-259.3497
 20
-169.1782
 10
-259.3908
 20
-169.5856
 10
-259.5085
 20
-169.9651
 10
-259.6949
 20
-170.3085
 10
-259.9417
 20
-170.6077
 10
-260.2408
 20
-170.8546
 10
-260.5841
 20
-171.041
 10
-260.9635
 20
-171.1588
 10
-261.3708
 20
-171.1999
 10
-261.7779
 20
-171.1588
 10
-262.157
 20
-171.041
 10
-262.5002
 20
-170.8546
 10
-262.7992
 20
-170.6077
 10
-263.046
 20
-170.3085
 10
-263.2323
 20
-169.9651
 10
-263.35
 20
-169.5856
 10
-263.3911
 20
-169.1782
 10
-263.35
 20
-168.7707
 10
-263.2323
 20
-168.3912
 10
-263.046
 20
-168.0478
 10
-262.7992
 20
-167.7486
 10
-262.5002
 20
-167.5017
 10
-262.157
 20
-167.3153
 10
-261.7779
 20
-167.1975
 10
-261.3708
 20
-167.1564
  0
LWPOLYLINE
  5
C5
330
1F
100
AcDbEntity
  8
Layer 1
 62
   250
100
AcDbPolyline
 90
        9
 70
     1
 43
0.0
 10
-558.9394
 20
140.0928
 10
-558.9394
 20
174.5872
 10
-555.1631
 20
174.5872
 10
-555.1631
 20
159.18
 10
-492.3718
 20
159.18
 10
-492.3718
 20
155.5006
 10
-555.1631
 20
155.5006
 10
-555.1631
 20
140.0928
 10
-558.9394
 20
140.0928
  0
LWPOLYLINE
  5
C6
330
1F
100
AcDbEntity
  8
Layer 1
 62
   250
100
AcDbPolyline
 90
        4
 70
     1
 43
0.0
 10
-426.5728
 20
168.1027
 10
-426.5728
 20
155.8477
 10
-434.8942
 20
155.8477
 10
-426.5728
 20
168.1027
  0
LWPOLYLINE
  5
C7
330
1F
100
AcDbEntity
  8
Layer 1
 62
   250
100
AcDbPolyline
 90
       11
 70
     1
 43
0.0
 10
-424.2363
 20
153.6024
 10
-421.4841
 20
153.6024
 10
-421.4841
 20
155.8477
 10
-424.2363
 20
155.8477
 10
-424.2683
 20
170.4722
 10
-427.4048
 20
170.4722
 10
-438.8628
 20
153.6024
 10
-426.5728
 20
153.6024
 10
-426.5728
 20
149.2683
 10
-424.2363
 20
149.2683
 10
-424.2363
 20
153.6024
  0
LWPOLYLINE
  5
C8
330
1F
100
AcDbEntity
  8
Layer 1
 62
   250
100
AcDbPolyline
 90
      129
 70
     1
 43
0.0
 10
-409.2739
 20
168.0089
 10
-408.9045
 20
167.7644
 10
-408.56
 20
167.4866
 10
-408.2405
 20
167.1758
 10
-407.946
 20
166.8318
 10
-407.6765
 20
166.4546
 10
-407.432
 20
166.0444
 10
-407.2125
 20
165.601
 10
-407.018
 20
165.1245
 10
-406.8003
 20
164.4924
 10
-406.6117
 20
163.851
 10
-406.4521
 20
163.2003
 10
-406.3216
 20
162.5404
 10
-406.2201
 20
161.8712
 10
-406.1476
 20
161.1927
 10
-406.1041
 20
160.505
 10
-406.0896
 20
159.8081
 10
-406.0911
 20
159.6406
 10
-406.0956
 20
159.4659
 10
-406.1031
 20
159.2839
 10
-406.1137
 20
159.0947
 10
-406.1272
 20
158.8981
 10
-406.1438
 20
158.6942
 10
-406.1633
 20
158.483
 10
-406.1859
 20
158.2645
 10
-406.2969
 20
157.4262
 10
-406.4419
 20
156.6342
 10
-406.6209
 20
155.8885
 10
-406.834
 20
155.189
 10
-407.081
 20
154.5359
 10
-407.3621
 20
153.929
 10
-407.6772
 20
153.3685
 10
-408.0262
 20
152.8543
 10
-408.3447
 20
152.4669
 10
-408.6802
 20
152.1311
 10
-409.0327
 20
151.8471
 10
-409.4023
 20
151.6147
 10
-409.7889
 20
151.4339
 10
-410.1925
 20
151.3049
 10
-410.6131
 20
151.2274
 10
-411.0507
 20
151.2016
 10
-411.5389
 20
151.2272
 10
-412.0036
 20
151.304
 10
-412.4448
 20
151.4319
 10
-412.8625
 20
151.6111
 10
-413.2568
 20
151.8413
 10
-413.6277
 20
152.1228
 10
-413.9752
 20
152.4553
 10
-414.2992
 20
152.839
 10
-414.4362
 20
153.025
 10
-414.5672
 20
153.2168
 10
-414.6921
 20
153.4146
 10
-414.8111
 20
153.6182
 10
-414.924
 20
153.8277
 10
-415.0309
 20
154.0431
 10
-415.1318
 20
154.2644
 10
-415.2267
 20
154.4917
 10
-415.3161
 20
154.7224
 10
-415.3999
 20
154.9545
 10
-415.4782
 20
155.188
 10
-415.551
 20
155.423
 10
-415.6182
 20
155.6595
 10
-415.68
 20
155.8974
 10
-415.7363
 20
156.1368
 10
-415.7872
 20
156.3777
 10
-415.8333
 20
156.6184
 10
-415.876
 20
156.8572
 10
-415.9152
 20
157.094
 10
-415.9509
 20
157.3289
 10
-415.9831
 20
157.5617
 10
-416.0119
 20
157.7926
 10
-416.0371
 20
158.0216
 10
-416.0588
 20
158.2485
 10
-416.0775
 20
158.4791
 10
-416.0938
 20
158.7183
 10
-416.1077
 20
158.9661
 10
-416.1191
 20
159.2226
 10
-416.1279
 20
159.4875
 10
-416.1343
 20
159.7609
 10
-416.1381
 20
160.0427
 10
-416.1394
 20
160.3328
 10
-416.1339
 20
160.6359
 10
-416.1174
 20
160.9565
 10
-416.0899
 20
161.2948
 10
-416.0514
 20
161.6509
 10
-416.0018
 20
162.0247
 10
-415.9413
 20
162.4164
 10
-415.8697
 20
162.8261
 10
-415.7872
 20
163.2538
 10
-415.7366
 20
163.4912
 10
-415.6811
 20
163.7282
 10
-415.6206
 20
163.9647
 10
-415.5551
 20
164.2008
 10
-415.4847
 20
164.4363
 10
-415.4092
 20
164.6714
 10
-415.3287
 20
164.9059
 10
-415.2432
 20
165.1398
 10
-415.1519
 20
165.3708
 10
-415.054
 20
165.5959
 10
-414.9497
 20
165.8152
 10
-414.8388
 20
166.0286
 10
-414.7215
 20
166.2362
 10
-414.5976
 20
166.4379
 10
-414.4673
 20
166.6337
 10
-414.3305
 20
166.8237
 10
-414.187
 20
167.0064
 10
-414.0365
 20
167.1797
 10
-413.879
 20
167.3437
 10
-413.7146
 20
167.4984
 10
-413.5431
 20
167.6438
 10
-413.3646
 20
167.7801
 10
-413.1791
 20
167.9071
 10
-412.9865
 20
168.0249
 10
-412.7859
 20
168.1308
 10
-412.5764
 20
168.2225
 10
-412.3579
 20
168.3001
 10
-412.1304
 20
168.3636
 10
-411.894
 20
168.413
 10
-411.6485
 20
168.4482
 10
-411.3941
 20
168.4694
 10
-411.1306
 20
168.4764
 10
-410.8671
 20
168.4691
 10
-410.6125
 20
168.4472
 10
-410.3669
 20
168.4107
 10
-410.1303
 20
168.3596
 10
-409.9027
 20
168.2939
 10
-409.6841
 20
168.2135
 10
-409.4745
 20
168.1185
 10
-409.2739
 20
168.0089
  0
LWPOLYLINE
  5
C9
330
1F
100
AcDbEntity
  8
Layer 1
 62
   250
100
AcDbPolyline
 90
       65
 70
     1
 43
0.0
 10
-411.0186
 20
148.9876
 10
-410.0841
 20
149.0453
 10
-409.2092
 20
149.2185
 10
-408.3937
 20
149.5072
 10
-407.6378
 20
149.9114
 10
-406.9415
 20
150.431
 10
-406.3047
 20
151.0661
 10
-405.7275
 20
151.8167
 10
-405.2098
 20
152.6827
 10
-404.846
 20
153.4384
 10
-404.5307
 20
154.2359
 10
-404.2639
 20
155.0754
 10
-404.0457
 20
155.9567
 10
-403.8759
 20
156.88
 10
-403.7546
 20
157.8452
 10
-403.6819
 20
158.8522
 10
-403.6576
 20
159.9012
 10
-403.6819
 20
160.9504
 10
-403.7546
 20
161.9576
 10
-403.8759
 20
162.9229
 10
-404.0457
 20
163.8462
 10
-404.2639
 20
164.7276
 10
-404.5307
 20
165.5671
 10
-404.846
 20
166.3647
 10
-405.2098
 20
167.1204
 10
-405.7275
 20
167.9864
 10
-406.3047
 20
168.7369
 10
-406.9415
 20
169.372
 10
-407.6378
 20
169.8916
 10
-408.3937
 20
170.2958
 10
-409.2092
 20
170.5845
 10
-410.0841
 20
170.7577
 10
-411.0186
 20
170.8154
 10
-411.9529
 20
170.7577
 10
-412.8277
 20
170.5845
 10
-413.643
 20
170.2958
 10
-414.3989
 20
169.8916
 10
-415.0953
 20
169.372
 10
-415.7322
 20
168.7369
 10
-416.3096
 20
167.9864
 10
-416.8275
 20
167.1204
 10
-417.1913
 20
166.3647
 10
-417.5066
 20
165.5671
 10
-417.7734
 20
164.7276
 10
-417.9917
 20
163.8462
 10
-418.1614
 20
162.9229
 10
-418.2827
 20
161.9576
 10
-418.3554
 20
160.9504
 10
-418.3797
 20
159.9012
 10
-418.3554
 20
158.8522
 10
-418.2827
 20
157.8452
 10
-418.1614
 20
156.88
 10
-417.9917
 20
155.9567
 10
-417.7734
 20
155.0754
 10
-417.5066
 20
154.2359
 10
-417.1913
 20
153.4384
 10
-416.8275
 20
152.6827
 10
-416.3096
 20
151.8167
 10
-415.7322
 20
151.0661
 10
-415.0953
 20
150.431
 10
-414.3989
 20
149.9114
 10
-413.643
 20
149.5072
 10
-412.8277
 20
149.2185
 10
-411.9529
 20
149.0453
 10
-411.0186
 20
148.9876
  0
LWPOLYLINE
  5
CA
330
1F
100
AcDbEntity
  8
Layer 1
 62
   250
100
AcDbPolyline
 90
      129
 70
     1
 43
0.0
 10
-391.3519
 20
168.0089
 10
-390.9825
 20
167.7644
 10
-390.6381
 20
167.4866
 10
-390.3186
 20
167.1758
 10
-390.0241
 20
166.8318
 10
-389.7546
 20
166.4546
 10
-389.51
 20
166.0444
 10
-389.2905
 20
165.601
 10
-389.096
 20
165.1245
 10
-388.8784
 20
164.4924
 10
-388.6898
 20
163.851
 10
-388.5302
 20
163.2003
 10
-388.3997
 20
162.5404
 10
-388.2982
 20
161.8712
 10
-388.2257
 20
161.1927
 10
-388.1822
 20
160.505
 10
-388.1677
 20
159.8081
 10
-388.1692
 20
159.6406
 10
-388.1737
 20
159.4659
 10
-388.1812
 20
159.2839
 10
-388.1918
 20
159.0947
 10
-388.2053
 20
158.8981
 10
-388.2219
 20
158.6942
 10
-388.2414
 20
158.483
 10
-388.264
 20
158.2645
 10
-388.3749
 20
157.4262
 10
-388.5199
 20
156.6342
 10
-388.6989
 20
155.8885
 10
-388.912
 20
155.189
 10
-389.159
 20
154.5359
 10
-389.4401
 20
153.929
 10
-389.7552
 20
153.3685
 10
-390.1042
 20
152.8543
 10
-390.4227
 20
152.4669
 10
-390.7582
 20
152.1311
 10
-391.1107
 20
151.8471
 10
-391.4803
 20
151.6147
 10
-391.8669
 20
151.4339
 10
-392.2705
 20
151.3049
 10
-392.6911
 20
151.2274
 10
-393.1288
 20
151.2016
 10
-393.6169
 20
151.2272
 10
-394.0816
 20
151.304
 10
-394.5228
 20
151.4319
 10
-394.9406
 20
151.6111
 10
-395.3349
 20
151.8413
 10
-395.7058
 20
152.1228
 10
-396.0532
 20
152.4553
 10
-396.3772
 20
152.839
 10
-396.5142
 20
153.025
 10
-396.6452
 20
153.2168
 10
-396.7702
 20
153.4146
 10
-396.8892
 20
153.6182
 10
-397.0021
 20
153.8277
 10
-397.109
 20
154.0431
 10
-397.2099
 20
154.2644
 10
-397.3048
 20
154.4917
 10
-397.3942
 20
154.7224
 10
-397.478
 20
154.9545
 10
-397.5563
 20
155.188
 10
-397.6291
 20
155.423
 10
-397.6963
 20
155.6595
 10
-397.7581
 20
155.8974
 10
-397.8144
 20
156.1368
 10
-397.8652
 20
156.3777
 10
-397.9113
 20
156.6184
 10
-397.954
 20
156.8572
 10
-397.9932
 20
157.094
 10
-398.0289
 20
157.3289
 10
-398.0611
 20
157.5617
 10
-398.0899
 20
157.7926
 10
-398.1151
 20
158.0216
 10
-398.1368
 20
158.2485
 10
-398.1556
 20
158.4791
 10
-398.1719
 20
158.7183
 10
-398.1858
 20
158.9661
 10
-398.1971
 20
159.2226
 10
-398.206
 20
159.4875
 10
-398.2124
 20
159.7609
 10
-398.2162
 20
160.0427
 10
-398.2175
 20
160.3328
 10
-398.212
 20
160.6359
 10
-398.1955
 20
160.9565
 10
-398.168
 20
161.2948
 10
-398.1294
 20
161.6509
 10
-398.0799
 20
162.0247
 10
-398.0193
 20
162.4164
 10
-397.9478
 20
162.8261
 10
-397.8652
 20
163.2538
 10
-397.8146
 20
163.4912
 10
-397.7591
 20
163.7282
 10
-397.6986
 20
163.9647
 10
-397.6331
 20
164.2008
 10
-397.5627
 20
164.4363
 10
-397.4872
 20
164.6714
 10
-397.4067
 20
164.9059
 10
-397.3212
 20
165.1398
 10
-397.2299
 20
165.3708
 10
-397.132
 20
165.5959
 10
-397.0277
 20
165.8152
 10
-396.9168
 20
166.0286
 10
-396.7995
 20
166.2362
 10
-396.6756
 20
166.4379
 10
-396.5453
 20
166.6337
 10
-396.4085
 20
166.8237
 10
-396.265
 20
167.0064
 10
-396.1145
 20
167.1797
 10
-395.9571
 20
167.3437
 10
-395.7926
 20
167.4984
 10
-395.6211
 20
167.6438
 10
-395.4426
 20
167.7801
 10
-395.2571
 20
167.9071
 10
-395.0645
 20
168.0249
 10
-394.864
 20
168.1308
 10
-394.6545
 20
168.2225
 10
-394.436
 20
168.3001
 10
-394.2085
 20
168.3636
 10
-393.972
 20
168.413
 10
-393.7266
 20
168.4482
 10
-393.4721
 20
168.4694
 10
-393.2086
 20
168.4764
 10
-392.9451
 20
168.4691
 10
-392.6906
 20
168.4472
 10
-392.445
 20
168.4107
 10
-392.2084
 20
168.3596
 10
-391.9807
 20
168.2939
 10
-391.7621
 20
168.2135
 10
-391.5525
 20
168.1185
 10
-391.3519
 20
168.0089
  0
LWPOLYLINE
  5
CB
330
1F
100
AcDbEntity
  8
Layer 1
 62
   250
100
AcDbPolyline
 90
       65
 70
     1
 43
0.0
 10
-393.0967
 20
148.9876
 10
-392.1622
 20
149.0453
 10
-391.2872
 20
149.2185
 10
-390.4718
 20
149.5072
 10
-389.7159
 20
149.9114
 10
-389.0195
 20
150.431
 10
-388.3827
 20
151.0661
 10
-387.8055
 20
151.8167
 10
-387.2879
 20
152.6827
 10
-386.9241
 20
153.4384
 10
-386.6088
 20
154.2359
 10
-386.342
 20
155.0754
 10
-386.1238
 20
155.9567
 10
-385.954
 20
156.88
 10
-385.8327
 20
157.8452
 10
-385.76
 20
158.8522
 10
-385.7357
 20
159.9012
 10
-385.76
 20
160.9504
 10
-385.8327
 20
161.9576
 10
-385.954
 20
162.9229
 10
-386.1238
 20
163.8462
 10
-386.342
 20
164.7276
 10
-386.6088
 20
165.5671
 10
-386.9241
 20
166.3647
 10
-387.2879
 20
167.1204
 10
-387.8055
 20
167.9864
 10
-388.3827
 20
168.7369
 10
-389.0195
 20
169.372
 10
-389.7159
 20
169.8916
 10
-390.4718
 20
170.2958
 10
-391.2872
 20
170.5845
 10
-392.1622
 20
170.7577
 10
-393.0967
 20
170.8154
 10
-394.031
 20
170.7577
 10
-394.9057
 20
170.5845
 10
-395.7211
 20
170.2958
 10
-396.4769
 20
169.8916
 10
-397.1733
 20
169.372
 10
-397.8102
 20
168.7369
 10
-398.3876
 20
167.9864
 10
-398.9055
 20
167.1204
 10
-399.2693
 20
166.3647
 10
-399.5846
 20
165.5671
 10
-399.8514
 20
164.7276
 10
-400.0697
 20
163.8462
 10
-400.2394
 20
162.9229
 10
-400.3607
 20
161.9576
 10
-400.4334
 20
160.9504
 10
-400.4577
 20
159.9012
 10
-400.4334
 20
158.8522
 10
-400.3607
 20
157.8452
 10
-400.2394
 20
156.88
 10
-400.0697
 20
155.9567
 10
-399.8514
 20
155.0754
 10
-399.5846
 20
154.2359
 10
-399.2693
 20
153.4384
 10
-398.9055
 20
152.6827
 10
-398.3876
 20
151.8167
 10
-397.8102
 20
151.0661
 10
-397.1733
 20
150.431
 10
-396.4769
 20
149.9114
 10
-395.7211
 20
149.5072
 10
-394.9057
 20
149.2185
 10
-394.031
 20
149.0453
 10
-393.0967
 20
148.9876
  0
LWPOLYLINE
  5
CC
330
1F
100
AcDbEntity
  8
Layer 1
 62
   250
100
AcDbPolyline
 90
      165
 70
     1
 43
0.0
 10
-363.8764
 20
149.3308
 10
-361.6362
 20
149.3308
 10
-361.6362
 20
157.9061
 10
-361.6545
 20
158.4753
 10
-361.7093
 20
159.0177
 10
-361.8006
 20
159.5334
 10
-361.9284
 20
160.0224
 10
-362.0926
 20
160.4845
 10
-362.2934
 20
160.9199
 10
-362.5305
 20
161.3284
 10
-362.8041
 20
161.7102
 10
-362.9568
 20
161.8926
 10
-363.119
 20
162.0658
 10
-363.2908
 20
162.2297
 10
-363.4721
 20
162.3844
 10
-363.6628
 20
162.5299
 10
-363.8631
 20
162.6661
 10
-364.0729
 20
162.793
 10
-364.2921
 20
162.9106
 10
-364.5251
 20
163.0165
 10
-364.7761
 20
163.1083
 10
-365.0452
 20
163.186
 10
-365.3323
 20
163.2497
 10
-365.6374
 20
163.2991
 10
-365.9605
 20
163.3345
 10
-366.3016
 20
163.3557
 10
-366.6607
 20
163.3628
 10
-367.023
 20
163.3506
 10
-367.3739
 20
163.3141
 10
-367.7132
 20
163.2531
 10
-368.0409
 20
163.1679
 10
-368.3572
 20
163.0583
 10
-368.6619
 20
162.9243
 10
-368.9551
 20
162.766
 10
-369.2368
 20
162.5834
 10
-369.4814
 20
162.401
 10
-369.715
 20
162.2052
 10
-369.9375
 20
161.996
 10
-370.1491
 20
161.7736
 10
-370.3496
 20
161.538
 10
-370.5392
 20
161.2895
 10
-370.7177
 20
161.028
 10
-370.8852
 20
160.7538
 10
-371.0151
 20
161.007
 10
-371.157
 20
161.2514
 10
-371.311
 20
161.4861
 10
-371.477
 20
161.7102
 10
-371.6297
 20
161.8926
 10
-371.7919
 20
162.0658
 10
-371.9637
 20
162.2297
 10
-372.145
 20
162.3844
 10
-372.3358
 20
162.5299
 10
-372.536
 20
162.6661
 10
-372.7458
 20
162.793
 10
-372.965
 20
162.9106
 10
-373.1982
 20
163.0165
 10
-373.4494
 20
163.1083
 10
-373.7184
 20
163.186
 10
-374.0055
 20
163.2497
 10
-374.3105
 20
163.2991
 10
-374.6335
 20
163.3345
 10
-374.9746
 20
163.3557
 10
-375.3336
 20
163.3628
 10
-375.6959
 20
163.3506
 10
-376.0468
 20
163.3141
 10
-376.3861
 20
163.2531
 10
-376.7138
 20
163.1679
 10
-377.0301
 20
163.0583
 10
-377.3348
 20
162.9243
 10
-377.628
 20
162.766
 10
-377.9097
 20
162.5834
 10
-378.1428
 20
162.4099
 10
-378.3658
 20
162.2247
 10
-378.5789
 20
162.0276
 10
-378.782
 20
161.8187
 10
-378.975
 20
161.5978
 10
-379.1581
 20
161.3649
 10
-379.3311
 20
161.1199
 10
-379.494
 20
160.8629
 10
-379.494
 20
163.0509
 10
-381.7342
 20
163.0509
 10
-381.7342
 20
149.3308
 10
-379.494
 20
149.3308
 10
-379.494
 20
156.3518
 10
-379.442
 20
156.7608
 10
-379.3739
 20
157.1538
 10
-379.2899
 20
157.5311
 10
-379.1899
 20
157.8927
 10
-379.0739
 20
158.2387
 10
-378.9418
 20
158.5692
 10
-378.7938
 20
158.8844
 10
-378.6298
 20
159.1843
 10
-378.4963
 20
159.3976
 10
-378.3518
 20
159.6013
 10
-378.1963
 20
159.7952
 10
-378.0298
 20
159.9793
 10
-377.8523
 20
160.1538
 10
-377.6638
 20
160.3185
 10
-377.4642
 20
160.4735
 10
-377.2537
 20
160.6188
 10
-377.0357
 20
160.7504
 10
-376.8137
 20
160.8645
 10
-376.5877
 20
160.961
 10
-376.3577
 20
161.0399
 10
-376.1238
 20
161.1012
 10
-375.8858
 20
161.1451
 10
-375.6438
 20
161.1713
 10
-375.3978
 20
161.1801
 10
-375.1578
 20
161.1755
 10
-374.9337
 20
161.1615
 10
-374.7257
 20
161.1383
 10
-374.5337
 20
161.1059
 10
-374.3576
 20
161.0641
 10
-374.1976
 20
161.0131
 10
-374.0535
 20
160.9529
 10
-373.9255
 20
160.8834
 10
-373.603
 20
160.6512
 10
-373.3235
 20
160.379
 10
-373.0869
 20
160.0667
 10
-372.8934
 20
159.7145
 10
-372.7429
 20
159.3223
 10
-372.6354
 20
158.8902
 10
-372.5709
 20
158.4181
 10
-372.5494
 20
157.9061
 10
-372.5494
 20
149.3308
 10
-370.3091
 20
149.3308
 10
-370.3091
 20
157.9061
 10
-370.3248
 20
158.4308
 10
-370.2419
 20
158.6295
 10
-370.1529
 20
158.8209
 10
-370.0578
 20
159.0057
 10
-369.9569
 20
159.1843
 10
-369.8234
 20
159.3976
 10
-369.6789
 20
159.6013
 10
-369.5234
 20
159.7952
 10
-369.3569
 20
159.9793
 10
-369.1794
 20
160.1538
 10
-368.9909
 20
160.3185
 10
-368.7913
 20
160.4735
 10
-368.5808
 20
160.6188
 10
-368.3627
 20
160.7504
 10
-368.1407
 20
160.8645
 10
-367.9146
 20
160.961
 10
-367.6844
 20
161.0399
 10
-367.4503
 20
161.1012
 10
-367.2122
 20
161.1451
 10
-366.9701
 20
161.1713
 10
-366.7241
 20
161.1801
 10
-366.4841
 20
161.1755
 10
-366.2602
 20
161.1615
 10
-366.0523
 20
161.1383
 10
-365.8604
 20
161.1059
 10
-365.6844
 20
161.0641
 10
-365.5245
 20
161.0131
 10
-365.3805
 20
160.9529
 10
-365.2525
 20
160.8834
 10
-364.93
 20
160.6512
 10
-364.6505
 20
160.379
 10
-364.4139
 20
160.0667
 10
-364.2204
 20
159.7145
 10
-364.0699
 20
159.3223
 10
-363.9624
 20
158.8902
 10
-363.8979
 20
158.4181
 10
-363.8764
 20
157.9061
 10
-363.8764
 20
149.3308
  0
LWPOLYLINE
  5
CD
330
1F
100
AcDbEntity
  8
Layer 1
 62
   250
100
AcDbPolyline
 90
      165
 70
     1
 43
0.0
 10
-339.4576
 20
149.3308
 10
-337.2166
 20
149.3308
 10
-337.2166
 20
157.9061
 10
-337.2349
 20
158.4753
 10
-337.2897
 20
159.0177
 10
-337.381
 20
159.5334
 10
-337.5089
 20
160.0224
 10
-337.6732
 20
160.4845
 10
-337.8741
 20
160.9199
 10
-338.1114
 20
161.3284
 10
-338.3852
 20
161.7102
 10
-338.5379
 20
161.8926
 10
-338.7002
 20
162.0658
 10
-338.872
 20
162.2297
 10
-339.0532
 20
162.3844
 10
-339.244
 20
162.5299
 10
-339.4443
 20
162.6661
 10
-339.6541
 20
162.793
 10
-339.8733
 20
162.9106
 10
-340.1063
 20
163.0165
 10
-340.3573
 20
163.1083
 10
-340.6264
 20
163.186
 10
-340.9135
 20
163.2497
 10
-341.2186
 20
163.2991
 10
-341.5417
 20
163.3345
 10
-341.8828
 20
163.3557
 10
-342.2419
 20
163.3628
 10
-342.6042
 20
163.3506
 10
-342.955
 20
163.3141
 10
-343.2943
 20
163.2531
 10
-343.6221
 20
163.1679
 10
-343.9383
 20
163.0583
 10
-344.243
 20
162.9243
 10
-344.5362
 20
162.766
 10
-344.8179
 20
162.5834
 10
-345.0625
 20
162.401
 10
-345.2961
 20
162.2052
 10
-345.5186
 20
161.996
 10
-345.7302
 20
161.7736
 10
-345.9308
 20
161.538
 10
-346.1203
 20
161.2895
 10
-346.2989
 20
161.028
 10
-346.4664
 20
160.7538
 10
-346.5963
 20
161.007
 10
-346.7382
 20
161.2514
 10
-346.8922
 20
161.4861
 10
-347.0582
 20
161.7102
 10
-347.2109
 20
161.8926
 10
-347.3731
 20
162.0658
 10
-347.5449
 20
162.2297
 10
-347.7262
 20
162.3844
 10
-347.9169
 20
162.5299
 10
-348.1172
 20
162.6661
 10
-348.327
 20
162.793
 10
-348.5462
 20
162.9106
 10
-348.7794
 20
163.0165
 10
-349.0305
 20
163.1083
 10
-349.2996
 20
163.186
 10
-349.5867
 20
163.2497
 10
-349.8917
 20
163.2991
 10
-350.2147
 20
163.3345
 10
-350.5557
 20
163.3557
 10
-350.9148
 20
163.3628
 10
-351.2771
 20
163.3506
 10
-351.628
 20
163.3141
 10
-351.9673
 20
163.2531
 10
-352.295
 20
163.1679
 10
-352.6113
 20
163.0583
 10
-352.916
 20
162.9243
 10
-353.2092
 20
162.766
 10
-353.4909
 20
162.5834
 10
-353.724
 20
162.4099
 10
-353.947
 20
162.2247
 10
-354.1601
 20
162.0276
 10
-354.3631
 20
161.8187
 10
-354.5562
 20
161.5978
 10
-354.7392
 20
161.3649
 10
-354.9122
 20
161.1199
 10
-355.0751
 20
160.8629
 10
-355.0751
 20
163.0509
 10
-357.3154
 20
163.0509
 10
-357.3154
 20
149.3308
 10
-355.0751
 20
149.3308
 10
-355.0751
 20
156.3518
 10
-355.0231
 20
156.7608
 10
-354.9551
 20
157.1538
 10
-354.871
 20
157.5311
 10
-354.771
 20
157.8927
 10
-354.655
 20
158.2387
 10
-354.523
 20
158.5692
 10
-354.375
 20
158.8844
 10
-354.211
 20
159.1843
 10
-354.0775
 20
159.3976
 10
-353.933
 20
159.6013
 10
-353.7775
 20
159.7952
 10
-353.611
 20
159.9793
 10
-353.4335
 20
160.1538
 10
-353.245
 20
160.3185
 10
-353.0454
 20
160.4735
 10
-352.8349
 20
160.6188
 10
-352.6169
 20
160.7504
 10
-352.3949
 20
160.8645
 10
-352.1689
 20
160.961
 10
-351.9389
 20
161.0399
 10
-351.705
 20
161.1012
 10
-351.467
 20
161.1451
 10
-351.225
 20
161.1713
 10
-350.979
 20
161.1801
 10
-350.739
 20
161.1755
 10
-350.5149
 20
161.1615
 10
-350.3069
 20
161.1383
 10
-350.1149
 20
161.1059
 10
-349.9388
 20
161.0641
 10
-349.7787
 20
161.0131
 10
-349.6347
 20
160.9529
 10
-349.5066
 20
160.8834
 10
-349.1841
 20
160.6512
 10
-348.9046
 20
160.379
 10
-348.668
 20
160.0667
 10
-348.4745
 20
159.7145
 10
-348.324
 20
159.3223
 10
-348.2165
 20
158.8902
 10
-348.152
 20
158.4181
 10
-348.1305
 20
157.9061
 10
-348.1305
 20
149.3308
 10
-345.8903
 20
149.3308
 10
-345.8903
 20
157.9061
 10
-345.906
 20
158.4308
 10
-345.8231
 20
158.6295
 10
-345.7341
 20
158.8209
 10
-345.639
 20
159.0057
 10
-345.5381
 20
159.1843
 10
-345.4046
 20
159.3976
 10
-345.2601
 20
159.6013
 10
-345.1046
 20
159.7952
 10
-344.9381
 20
159.9793
 10
-344.7606
 20
160.1538
 10
-344.5721
 20
160.3185
 10
-344.3725
 20
160.4735
 10
-344.162
 20
160.6188
 10
-343.9439
 20
160.7504
 10
-343.7219
 20
160.8645
 10
-343.4958
 20
160.961
 10
-343.2656
 20
161.0399
 10
-343.0315
 20
161.1012
 10
-342.7934
 20
161.1451
 10
-342.5513
 20
161.1713
 10
-342.3053
 20
161.1801
 10
-342.0653
 20
161.1755
 10
-341.8413
 20
161.1615
 10
-341.6334
 20
161.1383
 10
-341.4415
 20
161.1059
 10
-341.2656
 20
161.0641
 10
-341.1057
 20
161.0131
 10
-340.9617
 20
160.9529
 10
-340.8337
 20
160.8834
 10
-340.5112
 20
160.6512
 10
-340.2317
 20
160.379
 10
-339.9951
 20
160.0667
 10
-339.8016
 20
159.7145
 10
-339.6511
 20
159.3223
 10
-339.5436
 20
158.8902
 10
-339.4791
 20
158.4181
 10
-339.4576
 20
157.9061
 10
-339.4576
 20
149.3308
  0
LWPOLYLINE
  5
CE
330
1F
100
AcDbEntity
  8
Layer 1
 62
   250
100
AcDbPolyline
 90
        9
 70
     1
 43
0.0
 10
-218.8198
 20
140.0928
 10
-218.8198
 20
174.5872
 10
-222.5962
 20
174.5872
 10
-222.5962
 20
159.18
 10
-285.3874
 20
159.18
 10
-285.3874
 20
155.5006
 10
-222.5962
 20
155.5006
 10
-222.5962
 20
140.0928
 10
-218.8198
 20
140.0928
  0
LWPOLYLINE
  5
CF
330
1F
100
AcDbEntity
  8
Layer 1
 62
   250
100
AcDbPolyline
 90
        4
 70
     1
 43
0.0
 10
-171.1003
 20
-19.5464
 10
-183.6784
 20
-19.5464
 10
-183.6784
 20
-11.4387
 10
-171.1003
 20
-19.5464
  0
LWPOLYLINE
  5
D0
330
1F
100
AcDbEntity
  8
Layer 1
 62
   250
100
AcDbPolyline
 90
       11
 70
     1
 43
0.0
 10
-185.9828
 20
-21.8229
 10
-185.9828
 20
-24.5044
 10
-183.6784
 20
-24.5044
 10
-183.6784
 20
-21.8229
 10
-168.6683
 20
-21.7916
 10
-168.6683
 20
-18.7357
 10
-185.9828
 20
-7.572
 10
-185.9828
 20
-19.5464
 10
-190.4312
 20
-19.5464
 10
-190.4312
 20
-21.8229
 10
-185.9828
 20
-21.8229
  0
LWPOLYLINE
  5
D1
330
1F
100
AcDbEntity
  8
Layer 1
 62
   250
100
AcDbPolyline
 90
      129
 70
     1
 43
0.0
 10
-171.1966
 20
-36.4002
 10
-171.4476
 20
-36.7601
 10
-171.7326
 20
-37.0957
 10
-172.0516
 20
-37.407
 10
-172.4047
 20
-37.6939
 10
-172.7918
 20
-37.9565
 10
-173.2129
 20
-38.1947
 10
-173.6679
 20
-38.4086
 10
-174.157
 20
-38.5981
 10
-174.8058
 20
-38.8102
 10
-175.4641
 20
-38.9939
 10
-176.1319
 20
-39.1494
 10
-176.8093
 20
-39.2766
 10
-177.4961
 20
-39.3755
 10
-178.1925
 20
-39.4461
 10
-178.8983
 20
-39.4885
 10
-179.6136
 20
-39.5026
 10
-179.7855
 20
-39.5011
 10
-179.9648
 20
-39.4967
 10
-180.1516
 20
-39.4894
 10
-180.3459
 20
-39.4792
 10
-180.5476
 20
-39.466
 10
-180.7568
 20
-39.4499
 10
-180.9736
 20
-39.4308
 10
-181.1979
 20
-39.4088
 10
-182.0583
 20
-39.3007
 10
-182.8711
 20
-39.1595
 10
-183.6365
 20
-38.985
 10
-184.3544
 20
-38.7775
 10
-185.0248
 20
-38.5367
 10
-185.6476
 20
-38.2629
 10
-186.2229
 20
-37.9559
 10
-186.7507
 20
-37.6158
 10
-187.1483
 20
-37.3055
 10
-187.4929
 20
-36.9786
 10
-187.7845
 20
-36.6352
 10
-188.023
 20
-36.2751
 10
-188.2085
 20
-35.8985
 10
-188.341
 20
-35.5052
 10
-188.4205
 20
-35.0954
 10
-188.447
 20
-34.669
 10
-188.4207
 20
-34.1934
 10
-188.3419
 20
-33.7408
 10
-188.2106
 20
-33.311
 10
-188.0267
 20
-32.9041
 10
-187.7904
 20
-32.5201
 10
-187.5015
 20
-32.1588
 10
-187.1602
 20
-31.8204
 10
-186.7664
 20
-31.5047
 10
-186.5755
 20
-31.3712
 10
-186.3786
 20
-31.2436
 10
-186.1757
 20
-31.1218
 10
-185.9667
 20
-31.0059
 10
-185.7517
 20
-30.8959
 10
-185.5306
 20
-30.7917
 10
-185.3034
 20
-30.6934
 10
-185.0701
 20
-30.601
 10
-184.8334
 20
-30.5139
 10
-184.5952
 20
-30.4322
 10
-184.3555
 20
-30.3559
 10
-184.1143
 20
-30.2851
 10
-183.8716
 20
-30.2195
 10
-183.6274
 20
-30.1593
 10
-183.3817
 20
-30.1045
 10
-183.1344
 20
-30.0549
 10
-182.8874
 20
-30.01
 10
-182.6423
 20
-29.9684
 10
-182.3993
 20
-29.9302
 10
-182.1582
 20
-29.8954
 10
-181.9192
 20
-29.864
 10
-181.6822
 20
-29.836
 10
-181.4472
 20
-29.8114
 10
-181.2143
 20
-29.7903
 10
-180.9776
 20
-29.772
 10
-180.7321
 20
-29.7561
 10
-180.4777
 20
-29.7426
 10
-180.2145
 20
-29.7315
 10
-179.9426
 20
-29.7229
 10
-179.662
 20
-29.7167
 10
-179.3728
 20
-29.7129
 10
-179.075
 20
-29.7117
 10
-178.764
 20
-29.7171
 10
-178.4349
 20
-29.7332
 10
-178.0877
 20
-29.76
 10
-177.7222
 20
-29.7975
 10
-177.3385
 20
-29.8458
 10
-176.9365
 20
-29.9048
 10
-176.516
 20
-29.9745
 10
-176.0771
 20
-30.0549
 10
-175.8334
 20
-30.1042
 10
-175.5901
 20
-30.1583
 10
-175.3474
 20
-30.2173
 10
-175.1051
 20
-30.2811
 10
-174.8633
 20
-30.3497
 10
-174.6221
 20
-30.4232
 10
-174.3814
 20
-30.5017
 10
-174.1413
 20
-30.585
 10
-173.9042
 20
-30.674
 10
-173.6731
 20
-30.7693
 10
-173.448
 20
-30.871
 10
-173.229
 20
-30.979
 10
-173.016
 20
-31.0933
 10
-172.809
 20
-31.214
 10
-172.608
 20
-31.3409
 10
-172.413
 20
-31.4742
 10
-172.2255
 20
-31.614
 10
-172.0477
 20
-31.7606
 10
-171.8793
 20
-31.914
 10
-171.7206
 20
-32.0742
 10
-171.5713
 20
-32.2412
 10
-171.4315
 20
-32.415
 10
-171.3011
 20
-32.5955
 10
-171.1802
 20
-32.7829
 10
-171.0715
 20
-32.9783
 10
-170.9774
 20
-33.1825
 10
-170.8977
 20
-33.3954
 10
-170.8326
 20
-33.617
 10
-170.7819
 20
-33.8474
 10
-170.7457
 20
-34.0866
 10
-170.724
 20
-34.3345
 10
-170.7168
 20
-34.5912
 10
-170.7243
 20
-34.8479
 10
-170.7468
 20
-35.096
 10
-170.7842
 20
-35.3352
 10
-170.8367
 20
-35.5658
 10
-170.9041
 20
-35.7875
 10
-170.9866
 20
-36.0005
 10
-171.0841
 20
-36.2047
 10
-171.1966
 20
-36.4002
  0
LWPOLYLINE
  5
D2
330
1F
100
AcDbEntity
  8
Layer 1
 62
   250
100
AcDbPolyline
 90
       65
 70
     1
 43
0.0
 10
-190.7193
 20
-34.7002
 10
-190.66
 20
-35.6107
 10
-190.4823
 20
-36.4632
 10
-190.186
 20
-37.2577
 10
-189.7712
 20
-37.9942
 10
-189.2378
 20
-38.6726
 10
-188.586
 20
-39.2931
 10
-187.8157
 20
-39.8555
 10
-186.9268
 20
-40.3598
 10
-186.1512
 20
-40.7143
 10
-185.3326
 20
-41.0215
 10
-184.4711
 20
-41.2814
 10
-183.5665
 20
-41.4941
 10
-182.6189
 20
-41.6595
 10
-181.6283
 20
-41.7777
 10
-180.5947
 20
-41.8486
 10
-179.5181
 20
-41.8722
 10
-178.4412
 20
-41.8486
 10
-177.4074
 20
-41.7777
 10
-176.4167
 20
-41.6595
 10
-175.469
 20
-41.4941
 10
-174.5643
 20
-41.2814
 10
-173.7027
 20
-41.0215
 10
-172.8841
 20
-40.7143
 10
-172.1085
 20
-40.3598
 10
-171.2196
 20
-39.8555
 10
-170.4493
 20
-39.2931
 10
-169.7975
 20
-38.6726
 10
-169.2642
 20
-37.9942
 10
-168.8494
 20
-37.2577
 10
-168.5531
 20
-36.4632
 10
-168.3754
 20
-35.6107
 10
-168.3161
 20
-34.7002
 10
-168.3754
 20
-33.7902
 10
-168.5531
 20
-32.9381
 10
-168.8494
 20
-32.1438
 10
-169.2642
 20
-31.4075
 10
-169.7975
 20
-30.7291
 10
-170.4493
 20
-30.1086
 10
-171.2196
 20
-29.546
 10
-172.1085
 20
-29.0414
 10
-172.8841
 20
-28.6869
 10
-173.7027
 20
-28.3797
 10
-174.5643
 20
-28.1198
 10
-175.469
 20
-27.9071
 10
-176.4167
 20
-27.7417
 10
-177.4074
 20
-27.6235
 10
-178.4412
 20
-27.5526
 10
-179.5181
 20
-27.529
 10
-180.5947
 20
-27.5526
 10
-181.6283
 20
-27.6235
 10
-182.6189
 20
-27.7417
 10
-183.5665
 20
-27.9071
 10
-184.4711
 20
-28.1198
 10
-185.3326
 20
-28.3797
 10
-186.1512
 20
-28.6869
 10
-186.9268
 20
-29.0414
 10
-187.8157
 20
-29.546
 10
-188.586
 20
-30.1086
 10
-189.2378
 20
-30.7291
 10
-189.7712
 20
-31.4075
 10
-190.186
 20
-32.1438
 10
-190.4823
 20
-32.9381
 10
-190.66
 20
-33.7902
 10
-190.7193
 20
-34.7002
  0
LWPOLYLINE
  5
D3
330
1F
100
AcDbEntity
  8
Layer 1
 62
   250
100
AcDbPolyline
 90
      129
 70
     1
 43
0.0
 10
-171.1966
 20
-53.8625
 10
-171.4476
 20
-54.2225
 10
-171.7326
 20
-54.5581
 10
-172.0516
 20
-54.8694
 10
-172.4047
 20
-55.1563
 10
-172.7918
 20
-55.4189
 10
-173.2129
 20
-55.6571
 10
-173.6679
 20
-55.871
 10
-174.157
 20
-56.0605
 10
-174.8058
 20
-56.2726
 10
-175.4641
 20
-56.4563
 10
-176.1319
 20
-56.6118
 10
-176.8093
 20
-56.739
 10
-177.4961
 20
-56.8379
 10
-178.1925
 20
-56.9085
 10
-178.8983
 20
-56.9509
 10
-179.6136
 20
-56.965
 10
-179.7855
 20
-56.9635
 10
-179.9648
 20
-56.9591
 10
-180.1516
 20
-56.9518
 10
-180.3459
 20
-56.9415
 10
-180.5476
 20
-56.9283
 10
-180.7568
 20
-56.9122
 10
-180.9736
 20
-56.8932
 10
-181.1979
 20
-56.8712
 10
-182.0583
 20
-56.7631
 10
-182.8711
 20
-56.6218
 10
-183.6365
 20
-56.4474
 10
-184.3544
 20
-56.2398
 10
-185.0248
 20
-55.9991
 10
-185.6476
 20
-55.7252
 10
-186.2229
 20
-55.4183
 10
-186.7507
 20
-55.0782
 10
-187.1483
 20
-54.7679
 10
-187.4929
 20
-54.441
 10
-187.7845
 20
-54.0976
 10
-188.023
 20
-53.7375
 10
-188.2085
 20
-53.3608
 10
-188.341
 20
-52.9676
 10
-188.4205
 20
-52.5577
 10
-188.447
 20
-52.1313
 10
-188.4207
 20
-51.6557
 10
-188.3419
 20
-51.203
 10
-188.2106
 20
-50.7731
 10
-188.0267
 20
-50.3661
 10
-187.7904
 20
-49.9819
 10
-187.5015
 20
-49.6205
 10
-187.1602
 20
-49.282
 10
-186.7664
 20
-48.9663
 10
-186.5755
 20
-48.8328
 10
-186.3786
 20
-48.7052
 10
-186.1757
 20
-48.5835
 10
-185.9667
 20
-48.4676
 10
-185.7517
 20
-48.3575
 10
-185.5306
 20
-48.2534
 10
-185.3034
 20
-48.155
 10
-185.0701
 20
-48.0626
 10
-184.8334
 20
-47.9755
 10
-184.5952
 20
-47.8938
 10
-184.3555
 20
-47.8175
 10
-184.1143
 20
-47.7467
 10
-183.8716
 20
-47.6811
 10
-183.6274
 20
-47.6209
 10
-183.3817
 20
-47.5661
 10
-183.1344
 20
-47.5165
 10
-182.8874
 20
-47.4716
 10
-182.6423
 20
-47.43
 10
-182.3993
 20
-47.3918
 10
-182.1582
 20
-47.3571
 10
-181.9192
 20
-47.3257
 10
-181.6822
 20
-47.2977
 10
-181.4472
 20
-47.2731
 10
-181.2143
 20
-47.2519
 10
-180.9776
 20
-47.2336
 10
-180.7321
 20
-47.2177
 10
-180.4777
 20
-47.2042
 10
-180.2145
 20
-47.1931
 10
-179.9426
 20
-47.1845
 10
-179.662
 20
-47.1783
 10
-179.3728
 20
-47.1745
 10
-179.075
 20
-47.1733
 10
-178.764
 20
-47.1787
 10
-178.4349
 20
-47.1948
 10
-178.0877
 20
-47.2216
 10
-177.7222
 20
-47.2591
 10
-177.3385
 20
-47.3074
 10
-176.9365
 20
-47.3664
 10
-176.516
 20
-47.4361
 10
-176.0771
 20
-47.5165
 10
-175.8334
 20
-47.5658
 10
-175.5901
 20
-47.6199
 10
-175.3474
 20
-47.6789
 10
-175.1051
 20
-47.7427
 10
-174.8633
 20
-47.8113
 10
-174.6221
 20
-47.8848
 10
-174.3814
 20
-47.9633
 10
-174.1413
 20
-48.0466
 10
-173.9042
 20
-48.1356
 10
-173.6731
 20
-48.2309
 10
-173.448
 20
-48.3326
 10
-173.229
 20
-48.4406
 10
-173.016
 20
-48.5549
 10
-172.809
 20
-48.6756
 10
-172.608
 20
-48.8025
 10
-172.413
 20
-48.9358
 10
-172.2255
 20
-49.0756
 10
-172.0477
 20
-49.2223
 10
-171.8793
 20
-49.3757
 10
-171.7206
 20
-49.536
 10
-171.5713
 20
-49.703
 10
-171.4315
 20
-49.8769
 10
-171.3011
 20
-50.0577
 10
-171.1802
 20
-50.2453
 10
-171.0715
 20
-50.4407
 10
-170.9774
 20
-50.6448
 10
-170.8977
 20
-50.8577
 10
-170.8326
 20
-51.0793
 10
-170.7819
 20
-51.3097
 10
-170.7457
 20
-51.5489
 10
-170.724
 20
-51.7968
 10
-170.7168
 20
-52.0535
 10
-170.7243
 20
-52.3103
 10
-170.7468
 20
-52.5583
 10
-170.7842
 20
-52.7976
 10
-170.8367
 20
-53.0281
 10
-170.9041
 20
-53.2499
 10
-170.9866
 20
-53.4629
 10
-171.0841
 20
-53.6671
 10
-171.1966
 20
-53.8625
  0
LWPOLYLINE
  5
D4
330
1F
100
AcDbEntity
  8
Layer 1
 62
   250
100
AcDbPolyline
 90
       65
 70
     1
 43
0.0
 10
-190.7193
 20
-52.1626
 10
-190.66
 20
-53.0731
 10
-190.4823
 20
-53.9256
 10
-190.186
 20
-54.7201
 10
-189.7712
 20
-55.4566
 10
-189.2378
 20
-56.135
 10
-188.586
 20
-56.7555
 10
-187.8157
 20
-57.3179
 10
-186.9268
 20
-57.8222
 10
-186.1512
 20
-58.1766
 10
-185.3326
 20
-58.4838
 10
-184.4711
 20
-58.7438
 10
-183.5665
 20
-58.9565
 10
-182.6189
 20
-59.1219
 10
-181.6283
 20
-59.2401
 10
-180.5947
 20
-59.311
 10
-179.5181
 20
-59.3346
 10
-178.4412
 20
-59.311
 10
-177.4074
 20
-59.2401
 10
-176.4167
 20
-59.1219
 10
-175.469
 20
-58.9565
 10
-174.5643
 20
-58.7438
 10
-173.7027
 20
-58.4838
 10
-172.8841
 20
-58.1766
 10
-172.1085
 20
-57.8222
 10
-171.2196
 20
-57.3179
 10
-170.4493
 20
-56.7555
 10
-169.7975
 20
-56.135
 10
-169.2642
 20
-55.4566
 10
-168.8494
 20
-54.7201
 10
-168.5531
 20
-53.9256
 10
-168.3754
 20
-53.0731
 10
-168.3161
 20
-52.1626
 10
-168.3754
 20
-51.2524
 10
-168.5531
 20
-50.4001
 10
-168.8494
 20
-49.6057
 10
-169.2642
 20
-48.8692
 10
-169.7975
 20
-48.1907
 10
-170.4493
 20
-47.5702
 10
-171.2196
 20
-47.0076
 10
-172.1085
 20
-46.503
 10
-172.8841
 20
-46.1486
 10
-173.7027
 20
-45.8414
 10
-174.5643
 20
-45.5814
 10
-175.469
 20
-45.3687
 10
-176.4167
 20
-45.2033
 10
-177.4074
 20
-45.0851
 10
-178.4412
 20
-45.0142
 10
-179.5181
 20
-44.9906
 10
-180.5947
 20
-45.0142
 10
-181.6283
 20
-45.0851
 10
-182.6189
 20
-45.2033
 10
-183.5665
 20
-45.3687
 10
-184.4711
 20
-45.5814
 10
-185.3326
 20
-45.8414
 10
-186.1512
 20
-46.1486
 10
-186.9268
 20
-46.503
 10
-187.8157
 20
-47.0076
 10
-188.586
 20
-47.5702
 10
-189.2378
 20
-48.1907
 10
-189.7712
 20
-48.8692
 10
-190.186
 20
-49.6057
 10
-190.4823
 20
-50.4001
 10
-190.66
 20
-51.2524
 10
-190.7193
 20
-52.1626
  0
LWPOLYLINE
  5
D5
330
1F
100
AcDbEntity
  8
Layer 1
 62
   250
100
AcDbPolyline
 90
      165
 70
     1
 43
0.0
 10
-190.3671
 20
-80.6315
 10
-190.3671
 20
-82.815
 10
-181.5658
 20
-82.815
 10
-180.9816
 20
-82.7972
 10
-180.4248
 20
-82.7438
 10
-179.8955
 20
-82.6548
 10
-179.3937
 20
-82.5303
 10
-178.9194
 20
-82.3701
 10
-178.4726
 20
-82.1744
 10
-178.0532
 20
-81.9432
 10
-177.6614
 20
-81.6764
 10
-177.4741
 20
-81.5276
 10
-177.2964
 20
-81.3695
 10
-177.1281
 20
-81.2022
 10
-176.9693
 20
-81.0256
 10
-176.82
 20
-80.8397
 10
-176.6803
 20
-80.6446
 10
-176.55
 20
-80.4402
 10
-176.4293
 20
-80.2266
 10
-176.3206
 20
-79.9996
 10
-176.2263
 20
-79.755
 10
-176.1465
 20
-79.4929
 10
-176.0813
 20
-79.2131
 10
-176.0304
 20
-78.9159
 10
-175.9942
 20
-78.601
 10
-175.9724
 20
-78.2687
 10
-175.9651
 20
-77.9188
 10
-175.9776
 20
-77.5658
 10
-176.0151
 20
-77.224
 10
-176.0777
 20
-76.8934
 10
-176.1652
 20
-76.574
 10
-176.2777
 20
-76.2659
 10
-176.4152
 20
-75.969
 10
-176.5777
 20
-75.6833
 10
-176.7651
 20
-75.4089
 10
-176.9523
 20
-75.1706
 10
-177.1533
 20
-74.943
 10
-177.368
 20
-74.7262
 10
-177.5963
 20
-74.5201
 10
-177.8381
 20
-74.3247
 10
-178.0932
 20
-74.14
 10
-178.3615
 20
-73.966
 10
-178.6429
 20
-73.8028
 10
-178.383
 20
-73.6763
 10
-178.1322
 20
-73.538
 10
-177.8914
 20
-73.388
 10
-177.6614
 20
-73.2262
 10
-177.4741
 20
-73.0774
 10
-177.2964
 20
-72.9193
 10
-177.1281
 20
-72.752
 10
-176.9693
 20
-72.5754
 10
-176.82
 20
-72.3895
 10
-176.6803
 20
-72.1944
 10
-176.55
 20
-71.99
 10
-176.4293
 20
-71.7764
 10
-176.3206
 20
-71.5492
 10
-176.2263
 20
-71.3046
 10
-176.1465
 20
-71.0426
 10
-176.0813
 20
-70.763
 10
-176.0304
 20
-70.466
 10
-175.9942
 20
-70.1514
 10
-175.9724
 20
-69.8192
 10
-175.9651
 20
-69.4694
 10
-175.9776
 20
-69.1164
 10
-176.0151
 20
-68.7746
 10
-176.0777
 20
-68.444
 10
-176.1652
 20
-68.1246
 10
-176.2777
 20
-67.8165
 10
-176.4152
 20
-67.5196
 10
-176.5777
 20
-67.2339
 10
-176.7651
 20
-66.9595
 10
-176.9431
 20
-66.7324
 10
-177.1333
 20
-66.5151
 10
-177.3355
 20
-66.3075
 10
-177.55
 20
-66.1096
 10
-177.7768
 20
-65.9215
 10
-178.0158
 20
-65.7432
 10
-178.2672
 20
-65.5747
 10
-178.531
 20
-65.4159
 10
-176.2853
 20
-65.4159
 10
-176.2853
 20
-63.2332
 10
-190.3671
 20
-63.2332
 10
-190.3671
 20
-65.4159
 10
-183.161
 20
-65.4159
 10
-182.7412
 20
-65.4666
 10
-182.3378
 20
-65.5329
 10
-181.9506
 20
-65.6148
 10
-181.5795
 20
-65.7122
 10
-181.2243
 20
-65.8253
 10
-180.8851
 20
-65.9539
 10
-180.5617
 20
-66.0981
 10
-180.2539
 20
-66.2579
 10
-180.0349
 20
-66.388
 10
-179.8259
 20
-66.5287
 10
-179.6269
 20
-66.6802
 10
-179.4378
 20
-66.8425
 10
-179.2588
 20
-67.0154
 10
-179.0897
 20
-67.1991
 10
-178.9306
 20
-67.3935
 10
-178.7815
 20
-67.5986
 10
-178.6464
 20
-67.811
 10
-178.5294
 20
-68.0273
 10
-178.4303
 20
-68.2475
 10
-178.3493
 20
-68.4716
 10
-178.2864
 20
-68.6995
 10
-178.2414
 20
-68.9314
 10
-178.2144
 20
-69.1672
 10
-178.2054
 20
-69.4069
 10
-178.2102
 20
-69.6408
 10
-178.2245
 20
-69.859
 10
-178.2483
 20
-70.0617
 10
-178.2816
 20
-70.2487
 10
-178.3244
 20
-70.4202
 10
-178.3768
 20
-70.576
 10
-178.4386
 20
-70.7161
 10
-178.5099
 20
-70.8406
 10
-178.7482
 20
-71.1549
 10
-179.0277
 20
-71.4272
 10
-179.3481
 20
-71.6577
 10
-179.7097
 20
-71.8462
 10
-180.1122
 20
-71.9929
 10
-180.5557
 20
-72.0976
 10
-181.0403
 20
-72.1605
 10
-181.5658
 20
-72.1814
 10
-190.3671
 20
-72.1814
 10
-190.3671
 20
-74.3641
 10
-181.5658
 20
-74.3641
 10
-181.0272
 20
-74.3488
 10
-180.8233
 20
-74.4296
 10
-180.6268
 20
-74.5163
 10
-180.4371
 20
-74.6089
 10
-180.2539
 20
-74.7073
 10
-180.0349
 20
-74.8374
 10
-179.8259
 20
-74.9781
 10
-179.6269
 20
-75.1296
 10
-179.4378
 20
-75.2919
 10
-179.2588
 20
-75.4648
 10
-179.0897
 20
-75.6485
 10
-178.9306
 20
-75.8429
 10
-178.7815
 20
-76.048
 10
-178.6464
 20
-76.2605
 10
-178.5294
 20
-76.4768
 10
-178.4303
 20
-76.6971
 10
-178.3493
 20
-76.9213
 10
-178.2864
 20
-77.1494
 10
-178.2414
 20
-77.3814
 10
-178.2144
 20
-77.6173
 10
-178.2054
 20
-77.857
 10
-178.2102
 20
-78.0909
 10
-178.2245
 20
-78.3091
 10
-178.2483
 20
-78.5117
 10
-178.2816
 20
-78.6986
 10
-178.3244
 20
-78.87
 10
-178.3768
 20
-79.0258
 10
-178.4386
 20
-79.1661
 10
-178.5099
 20
-79.2908
 10
-178.7482
 20
-79.605
 10
-179.0277
 20
-79.8774
 10
-179.3481
 20
-80.1078
 10
-179.7097
 20
-80.2963
 10
-180.1122
 20
-80.443
 10
-180.5557
 20
-80.5477
 10
-181.0403
 20
-80.6106
 10
-181.5658
 20
-80.6315
 10
-190.3671
 20
-80.6315
  0
LWPOLYLINE
  5
D6
330
1F
100
AcDbEntity
  8
Layer 1
 62
   250
100
AcDbPolyline
 90
      165
 70
     1
 43
0.0
 10
-190.3671
 20
-104.4239
 10
-190.3671
 20
-106.6074
 10
-181.5658
 20
-106.6074
 10
-180.9816
 20
-106.5896
 10
-180.4248
 20
-106.5362
 10
-179.8955
 20
-106.4472
 10
-179.3937
 20
-106.3226
 10
-178.9194
 20
-106.1625
 10
-178.4726
 20
-105.9668
 10
-178.0532
 20
-105.7355
 10
-177.6614
 20
-105.4687
 10
-177.4741
 20
-105.3199
 10
-177.2964
 20
-105.1619
 10
-177.1281
 20
-104.9945
 10
-176.9693
 20
-104.8179
 10
-176.82
 20
-104.632
 10
-176.6803
 20
-104.4369
 10
-176.55
 20
-104.2325
 10
-176.4293
 20
-104.0189
 10
-176.3206
 20
-103.7919
 10
-176.2263
 20
-103.5473
 10
-176.1465
 20
-103.2852
 10
-176.0813
 20
-103.0055
 10
-176.0304
 20
-102.7082
 10
-175.9942
 20
-102.3934
 10
-175.9724
 20
-102.0611
 10
-175.9651
 20
-101.7112
 10
-175.9776
 20
-101.3582
 10
-176.0151
 20
-101.0164
 10
-176.0777
 20
-100.6858
 10
-176.1652
 20
-100.3664
 10
-176.2777
 20
-100.0583
 10
-176.4152
 20
-99.7614
 10
-176.5777
 20
-99.4757
 10
-176.7651
 20
-99.2013
 10
-176.9523
 20
-98.963
 10
-177.1533
 20
-98.7354
 10
-177.368
 20
-98.5185
 10
-177.5963
 20
-98.3124
 10
-177.8381
 20
-98.117
 10
-178.0932
 20
-97.9323
 10
-178.3615
 20
-97.7583
 10
-178.6429
 20
-97.5951
 10
-178.383
 20
-97.4686
 10
-178.1322
 20
-97.3303
 10
-177.8914
 20
-97.1803
 10
-177.6614
 20
-97.0186
 10
-177.4741
 20
-96.8698
 10
-177.2964
 20
-96.7117
 10
-177.1281
 20
-96.5444
 10
-176.9693
 20
-96.3678
 10
-176.82
 20
-96.1819
 10
-176.6803
 20
-95.9868
 10
-176.55
 20
-95.7824
 10
-176.4293
 20
-95.5688
 10
-176.3206
 20
-95.3416
 10
-176.2263
 20
-95.0969
 10
-176.1465
 20
-94.8347
 10
-176.0813
 20
-94.555
 10
-176.0304
 20
-94.2579
 10
-175.9942
 20
-93.9431
 10
-175.9724
 20
-93.6109
 10
-175.9651
 20
-93.261
 10
-175.9776
 20
-92.908
 10
-176.0151
 20
-92.5662
 10
-176.0777
 20
-92.2356
 10
-176.1652
 20
-91.9162
 10
-176.2777
 20
-91.6081
 10
-176.4152
 20
-91.3112
 10
-176.5777
 20
-91.0255
 10
-176.7651
 20
-90.7511
 10
-176.9431
 20
-90.524
 10
-177.1333
 20
-90.3067
 10
-177.3355
 20
-90.0991
 10
-177.55
 20
-89.9012
 10
-177.7768
 20
-89.7131
 10
-178.0158
 20
-89.5348
 10
-178.2672
 20
-89.3663
 10
-178.531
 20
-89.2075
 10
-176.2853
 20
-89.2075
 10
-176.2853
 20
-87.0248
 10
-190.3671
 20
-87.0248
 10
-190.3671
 20
-89.2075
 10
-183.161
 20
-89.2075
 10
-182.7412
 20
-89.2582
 10
-182.3378
 20
-89.3245
 10
-181.9506
 20
-89.4064
 10
-181.5795
 20
-89.5038
 10
-181.2243
 20
-89.6169
 10
-180.8851
 20
-89.7455
 10
-180.5617
 20
-89.8897
 10
-180.2539
 20
-90.0495
 10
-180.0349
 20
-90.1796
 10
-179.8259
 20
-90.3203
 10
-179.6269
 20
-90.4718
 10
-179.4378
 20
-90.6341
 10
-179.2588
 20
-90.807
 10
-179.0897
 20
-90.9907
 10
-178.9306
 20
-91.1851
 10
-178.7815
 20
-91.3902
 10
-178.6464
 20
-91.6026
 10
-178.5294
 20
-91.8189
 10
-178.4303
 20
-92.0391
 10
-178.3493
 20
-92.2632
 10
-178.2864
 20
-92.4911
 10
-178.2414
 20
-92.723
 10
-178.2144
 20
-92.9588
 10
-178.2054
 20
-93.1985
 10
-178.2102
 20
-93.4324
 10
-178.2245
 20
-93.6506
 10
-178.2483
 20
-93.8533
 10
-178.2816
 20
-94.0404
 10
-178.3244
 20
-94.212
 10
-178.3768
 20
-94.3679
 10
-178.4386
 20
-94.5082
 10
-178.5099
 20
-94.633
 10
-178.7482
 20
-94.9472
 10
-179.0277
 20
-95.2196
 10
-179.3481
 20
-95.45
 10
-179.7097
 20
-95.6385
 10
-180.1122
 20
-95.7852
 10
-180.5557
 20
-95.8899
 10
-181.0403
 20
-95.9528
 10
-181.5658
 20
-95.9737
 10
-190.3671
 20
-95.9737
 10
-190.3671
 20
-98.1564
 10
-181.5658
 20
-98.1564
 10
-181.0272
 20
-98.1412
 10
-180.8233
 20
-98.222
 10
-180.6268
 20
-98.3087
 10
-180.4371
 20
-98.4012
 10
-180.2539
 20
-98.4996
 10
-180.0349
 20
-98.6297
 10
-179.8259
 20
-98.7705
 10
-179.6269
 20
-98.922
 10
-179.4378
 20
-99.0842
 10
-179.2588
 20
-99.2572
 10
-179.0897
 20
-99.4409
 10
-178.9306
 20
-99.6353
 10
-178.7815
 20
-99.8404
 10
-178.6464
 20
-100.0529
 10
-178.5294
 20
-100.2692
 10
-178.4303
 20
-100.4895
 10
-178.3493
 20
-100.7137
 10
-178.2864
 20
-100.9418
 10
-178.2414
 20
-101.1738
 10
-178.2144
 20
-101.4096
 10
-178.2054
 20
-101.6494
 10
-178.2102
 20
-101.8832
 10
-178.2245
 20
-102.1014
 10
-178.2483
 20
-102.304
 10
-178.2816
 20
-102.491
 10
-178.3244
 20
-102.6623
 10
-178.3768
 20
-102.8182
 10
-178.4386
 20
-102.9584
 10
-178.5099
 20
-103.0832
 10
-178.7482
 20
-103.3974
 10
-179.0277
 20
-103.6698
 10
-179.3481
 20
-103.9002
 10
-179.7097
 20
-104.0887
 10
-180.1122
 20
-104.2354
 10
-180.5557
 20
-104.3401
 10
-181.0403
 20
-104.403
 10
-181.5658
 20
-104.4239
 10
-190.3671
 20
-104.4239
  0
LWPOLYLINE
  5
D7
330
1F
100
AcDbEntity
  8
Layer 1
 62
   250
100
AcDbPolyline
 90
        9
 70
     1
 43
0.0
 10
-159.1838
 20
107.773
 10
-194.5875
 20
107.773
 10
-194.5875
 20
104.0936
 10
-178.7741
 20
104.0936
 10
-178.7741
 20
42.9152
 10
-174.9978
 20
42.9152
 10
-174.9978
 20
104.0936
 10
-159.1838
 20
104.0936
 10
-159.1838
 20
107.773
  0
LWPOLYLINE
  5
D8
330
1F
100
AcDbEntity
  8
Layer 1
 62
     7
370
    25
100
AcDbPolyline
 90
       33
 70
     1
 43
0.0
 10
-289.2134
 20
31.6991
 10
-288.8061
 20
31.658
 10
-288.4267
 20
31.5402
 10
-288.0833
 20
31.3538
 10
-287.7842
 20
31.1069
 10
-287.5375
 20
30.8077
 10
-287.3511
 20
30.4642
 10
-287.2334
 20
30.0847
 10
-287.1923
 20
29.6773
 10
-287.2334
 20
29.2699
 10
-287.3511
 20
28.8904
 10
-287.5375
 20
28.5469
 10
-287.7842
 20
28.2477
 10
-288.0833
 20
28.0008
 10
-288.4267
 20
27.8144
 10
-288.8061
 20
27.6966
 10
-289.2134
 20
27.6555
 10
-289.6204
 20
27.6966
 10
-289.9996
 20
27.8144
 10
-290.3428
 20
28.0008
 10
-290.6418
 20
28.2477
 10
-290.8885
 20
28.5469
 10
-291.0748
 20
28.8904
 10
-291.1925
 20
29.2699
 10
-291.2336
 20
29.6773
 10
-291.1925
 20
30.0847
 10
-291.0748
 20
30.4642
 10
-290.8885
 20
30.8077
 10
-290.6418
 20
31.1069
 10
-290.3428
 20
31.3538
 10
-289.9996
 20
31.5402
 10
-289.6204
 20
31.658
 10
-289.2134
 20
31.6991
  0
LWPOLYLINE
  5
D9
330
1F
100
AcDbEntity
  8
Layer 1
 62
     7
370
    25
100
AcDbPolyline
 90
       33
 70
     1
 43
0.0
 10
-289.2134
 20
-142.2993
 10
-288.8061
 20
-142.3404
 10
-288.4267
 20
-142.4582
 10
-288.0833
 20
-142.6446
 10
-287.7842
 20
-142.8915
 10
-287.5375
 20
-143.1907
 10
-287.3511
 20
-143.5342
 10
-287.2334
 20
-143.9137
 10
-287.1923
 20
-144.3211
 10
-287.2334
 20
-144.7285
 10
-287.3511
 20
-145.108
 10
-287.5375
 20
-145.4515
 10
-287.7842
 20
-145.7507
 10
-288.0833
 20
-145.9976
 10
-288.4267
 20
-146.184
 10
-288.8061
 20
-146.3018
 10
-289.2134
 20
-146.3429
 10
-289.6204
 20
-146.3018
 10
-289.9996
 20
-146.184
 10
-290.3428
 20
-145.9976
 10
-290.6418
 20
-145.7507
 10
-290.8885
 20
-145.4515
 10
-291.0748
 20
-145.108
 10
-291.1925
 20
-144.7285
 10
-291.2336
 20
-144.3211
 10
-291.1925
 20
-143.9137
 10
-291.0748
 20
-143.5342
 10
-290.8885
 20
-143.1907
 10
-290.6418
 20
-142.8915
 10
-290.3428
 20
-142.6446
 10
-289.9996
 20
-142.4582
 10
-289.6204
 20
-142.3404
 10
-289.2134
 20
-142.2993
  0
LWPOLYLINE
  5
DA
330
1F
100
AcDbEntity
  8
Layer 1
 62
     7
370
    25
100
AcDbPolyline
 90
       33
 70
     1
 43
0.0
 10
-484.1115
 20
-142.2993
 10
-483.7042
 20
-142.3404
 10
-483.3248
 20
-142.4582
 10
-482.9815
 20
-142.6446
 10
-482.6824
 20
-142.8915
 10
-482.4356
 20
-143.1907
 10
-482.2493
 20
-143.5342
 10
-482.1316
 20
-143.9137
 10
-482.0905
 20
-144.3211
 10
-482.1316
 20
-144.7285
 10
-482.2493
 20
-145.108
 10
-482.4356
 20
-145.4515
 10
-482.6824
 20
-145.7507
 10
-482.9815
 20
-145.9976
 10
-483.3248
 20
-146.184
 10
-483.7042
 20
-146.3018
 10
-484.1115
 20
-146.3429
 10
-484.5186
 20
-146.3018
 10
-484.8978
 20
-146.184
 10
-485.2409
 20
-145.9976
 10
-485.54
 20
-145.7507
 10
-485.7867
 20
-145.4515
 10
-485.973
 20
-145.108
 10
-486.0907
 20
-144.7285
 10
-486.1318
 20
-144.3211
 10
-486.0907
 20
-143.9137
 10
-485.973
 20
-143.5342
 10
-485.7867
 20
-143.1907
 10
-485.54
 20
-142.8915
 10
-485.2409
 20
-142.6446
 10
-484.8978
 20
-142.4582
 10
-484.5186
 20
-142.3404
 10
-484.1115
 20
-142.2993
  0
LWPOLYLINE
  5
DB
330
1F
100
AcDbEntity
  8
Layer 1
 62
     7
370
    25
100
AcDbPolyline
 90
       33
 70
     1
 43
0.0
 10
-484.1115
 20
31.6991
 10
-483.7044
 20
31.658
 10
-483.3253
 20
31.5402
 10
-482.9821
 20
31.3538
 10
-482.6831
 20
31.1069
 10
-482.4363
 20
30.8077
 10
-482.25
 20
30.4642
 10
-482.1323
 20
30.0847
 10
-482.0912
 20
29.6773
 10
-482.1323
 20
29.2701
 10
-482.25
 20
28.8908
 10
-482.4363
 20
28.5475
 10
-482.6831
 20
28.2484
 10
-482.9821
 20
28.0016
 10
-483.3253
 20
27.8152
 10
-483.7044
 20
27.6974
 10
-484.1115
 20
27.6563
 10
-484.5186
 20
27.6974
 10
-484.8978
 20
27.8152
 10
-485.2409
 20
28.0016
 10
-485.54
 20
28.2484
 10
-485.7867
 20
28.5475
 10
-485.973
 20
28.8908
 10
-486.0907
 20
29.2701
 10
-486.1318
 20
29.6773
 10
-486.0907
 20
30.0847
 10
-485.973
 20
30.4642
 10
-485.7867
 20
30.8077
 10
-485.54
 20
31.1069
 10
-485.2409
 20
31.3538
 10
-484.8978
 20
31.5402
 10
-484.5186
 20
31.658
 10
-484.1115
 20
31.6991
  0
LWPOLYLINE
  5
DC
330
1F
100
AcDbEntity
  8
Layer 1
 62
   250
100
AcDbPolyline
 90
        9
 70
     1
 43
0.0
 10
-159.1838
 20
-221.9524
 10
-194.5875
 20
-221.9524
 10
-194.5875
 20
-218.273
 10
-178.7741
 20
-218.273
 10
-178.7741
 20
-157.0946
 10
-174.9978
 20
-157.0946
 10
-174.9978
 20
-218.273
 10
-159.1838
 20
-218.273
 10
-159.1838
 20
-221.9524
  0
ENDSEC
  0
SECTION
  2
OBJECTS
  0
DICTIONARY
  5
C
330
0
100
AcDbDictionary
281
     1
  3
ACAD_DETAILVIEWSTYLE
350
E4
  3
ACAD_GROUP
350
D
  3
ACAD_LAYOUT
350
1A
  3
ACAD_MATERIAL
350
43
  3
ACAD_MLEADERSTYLE
350
5B
  3
ACAD_MLINESTYLE
350
17
  3
ACAD_PLOTSETTINGS
350
19
  3
ACAD_PLOTSTYLENAME
350
E
  3
ACAD_SCALELIST
350
47
  3
ACAD_SECTIONVIEWSTYLE
350
E5
  3
ACAD_TABLESTYLE
350
59
  3
ACAD_VISUALSTYLE
350
2A
  3
ACDB_RECOMPOSE_DATA
350
E1
  3
AcDbVariableDictionary
350
DD
  0
SUN
  5
5D
330
29
100
AcDbSun
 90
        1
290
     0
 63
     7
421
 16777215
 40
1.0
291
     1
 91
  2455826
 92
 54000000
292
     0
 70
     2
 71
   256
280
     1
  0
DICTIONARY
  5
E4
102
{ACAD_REACTORS
330
C
102
}
330
C
100
AcDbDictionary
281
     1
  0
DICTIONARY
  5
D
102
{ACAD_REACTORS
330
C
102
}
330
C
100
AcDbDictionary
281
     1
  0
DICTIONARY
  5
1A
102
{ACAD_REACTORS
330
C
102
}
330
C
100
AcDbDictionary
281
     1
  3
Layout1
350
1E
  3
Layout2
350
26
  3
Model
350
22
  0
DICTIONARY
  5
43
102
{ACAD_REACTORS
330
C
102
}
330
C
100
AcDbDictionary
281
     1
  3
ByBlock
350
45
  3
ByLayer
350
44
  3
Global
350
46
  0
DICTIONARY
  5
5B
102
{ACAD_REACTORS
330
C
102
}
330
C
100
AcDbDictionary
281
     1
  3
Standard
350
5C
  0
DICTIONARY
  5
17
102
{ACAD_REACTORS
330
C
102
}
330
C
100
AcDbDictionary
281
     1
  3
Standard
350
18
  0
DICTIONARY
  5
19
102
{ACAD_REACTORS
330
C
102
}
330
C
100
AcDbDictionary
281
     1
  0
ACDBDICTIONARYWDFLT
  5
E
102
{ACAD_REACTORS
330
C
102
}
330
C
100
AcDbDictionary
281
     1
  3
Normal
350
F
100
AcDbDictionaryWithDefault
340
F
  0
DICTIONARY
  5
47
102
{ACAD_REACTORS
330
C
102
}
330
C
100
AcDbDictionary
281
     1
  3
A0
350
48
  3
A1
350
49
  3
A2
350
4A
  3
A3
350
4B
  3
A4
350
4C
  3
A5
350
4D
  3
A6
350
4E
  3
A7
350
4F
  3
A8
350
50
  3
A9
350
51
  3
B1
350
52
  3
B2
350
53
  3
B3
350
54
  3
B4
350
55
  3
B5
350
56
  3
B6
350
57
  3
B7
350
58
  0
DICTIONARY
  5
E5
102
{ACAD_REACTORS
330
C
102
}
330
C
100
AcDbDictionary
281
     1
  0
DICTIONARY
  5
59
102
{ACAD_REACTORS
330
C
102
}
330
C
100
AcDbDictionary
281
     1
  3
Standard
350
5A
  0
DICTIONARY
  5
2A
102
{ACAD_REACTORS
330
C
102
}
330
C
100
AcDbDictionary
281
     1
  3
2dWireframe
350
2F
  3
Basic
350
32
  3
Brighten
350
36
  3
ColorChange
350
3A
  3
Conceptual
350
34
  3
Dim
350
35
  3
EdgeColorOff
350
3D
  3
Facepattern
350
39
  3
Flat
350
2B
  3
FlatWithEdges
350
2C
  3
Gouraud
350
2D
  3
GouraudWithEdges
350
2E
  3
Hidden
350
31
  3
JitterOff
350
3B
  3
Linepattern
350
38
  3
OverhangOff
350
3C
  3
Realistic
350
33
  3
Shaded
350
42
  3
Shaded with edges
350
41
  3
Shades of Gray
350
3E
  3
Sketchy
350
3F
  3
Thicken
350
37
  3
Wireframe
350
30
  3
X-Ray
350
40
  0
XRECORD
  5
E1
102
{ACAD_REACTORS
330
C
102
}
330
C
100
AcDbXrecord
280
     1
 90
        1
330
5A
  0
DICTIONARY
  5
DD
102
{ACAD_REACTORS
330
C
102
}
330
C
100
AcDbDictionary
281
     1
  3
CANNOSCALE
350
DE
  3
CMLEADERSTYLE
350
E3
  3
CTABLESTYLE
350
E2
  0
LAYOUT
  5
1E
102
{ACAD_REACTORS
330
1A
102
}
330
1A
100
AcDbPlotSettings
  1

  2
none_device
  4

  6

 40
0.0
 41
0.0
 42
0.0
 43
0.0
 44
0.0
 45
0.0
 46
0.0
 47
0.0
 48
0.0
 49
0.0
140
0.0
141
0.0
142
1.0
143
1.0
 70
   688
 72
     0
 73
     0
 74
     5
  7

 75
    16
 76
     0
 77
     2
 78
   300
147
1.0
148
0.0
149
0.0
100
AcDbLayout
  1
Layout1
 70
     1
 71
     1
 10
0.0
 20
0.0
 11
12.0
 21
9.0
 12
0.0
 22
0.0
 32
0.0
 14
1.000000000000000E+20
 24
1.000000000000000E+20
 34
1.000000000000000E+20
 15
-1.000000000000000E+20
 25
-1.000000000000000E+20
 35
-1.000000000000000E+20
146
0.0
 13
0.0
 23
0.0
 33
0.0
 16
1.0
 26
0.0
 36
0.0
 17
0.0
 27
1.0
 37
0.0
 76
     0
330
1B
  0
LAYOUT
  5
26
102
{ACAD_REACTORS
330
1A
102
}
330
1A
100
AcDbPlotSettings
  1

  2
none_device
  4

  6

 40
0.0
 41
0.0
 42
0.0
 43
0.0
 44
0.0
 45
0.0
 46
0.0
 47
0.0
 48
0.0
 49
0.0
140
0.0
141
0.0
142
1.0
143
1.0
 70
   688
 72
     0
 73
     0
 74
     5
  7

 75
    16
 76
     0
 77
     2
 78
   300
147
1.0
148
0.0
149
0.0
100
AcDbLayout
  1
Layout2
 70
     1
 71
     2
 10
0.0
 20
0.0
 11
0.0
 21
0.0
 12
0.0
 22
0.0
 32
0.0
 14
0.0
 24
0.0
 34
0.0
 15
0.0
 25
0.0
 35
0.0
146
0.0
 13
0.0
 23
0.0
 33
0.0
 16
1.0
 26
0.0
 36
0.0
 17
0.0
 27
1.0
 37
0.0
 76
     0
330
23
  0
LAYOUT
  5
22
102
{ACAD_REACTORS
330
1A
102
}
330
1A
100
AcDbPlotSettings
  1

  2
none_device
  4
Letter_(8.50_x_11.00_Inches)
  6

 40
6.35
 41
6.35
 42
6.35000508
 43
6.35000508
 44
215.9
 45
279.4
 46
0.0
 47
0.0
 48
0.0
 49
0.0
140
0.0
141
0.0
142
1.0
143
1.0
 70
  1712
 72
     0
 73
     0
 74
     0
  7

 75
     0
 76
     0
 77
     2
 78
   300
147
1.0
148
0.0
149
0.0
100
AcDbLayout
  1
Model
 70
     1
 71
     0
 10
0.0
 20
0.0
 11
12.0
 21
9.0
 12
0.0
 22
0.0
 32
0.0
 14
-559.3604
 24
-225.5893
 34
0.0
 15
-159.1838
 25
174.5872
 35
0.0
146
0.0
 13
0.0
 23
0.0
 33
0.0
 16
1.0
 26
0.0
 36
0.0
 17
0.0
 27
1.0
 37
0.0
 76
     0
330
1F
331
29
  0
MATERIAL
  5
45
102
{ACAD_REACTORS
330
43
102
}
330
43
100
AcDbMaterial
  1
ByBlock
 72
     1
 94
      127
  0
MATERIAL
  5
44
102
{ACAD_REACTORS
330
43
102
}
330
43
100
AcDbMaterial
  1
ByLayer
 72
     1
 94
      127
  0
MATERIAL
  5
46
102
{ACAD_REACTORS
330
43
102
}
330
43
100
AcDbMaterial
  1
Global
 72
     1
 94
      127
  0
MLEADERSTYLE
  5
5C
102
{ACAD_REACTORS
330
5B
102
}
330
5B
100
AcDbMLeaderStyle
179
     2
170
     2
171
     1
172
     0
 90
        2
 40
0.0
 41
0.0
173
     1
 91
-1056964608
340
14
 92
       -2
290
     1
 42
0.09
291
     1
 43
0.36
  3
Standard
341
0
 44
0.18
300

342
11
174
     1
178
     6
175
     1
176
     0
 93
-1056964608
 45
0.18
292
     0
297
     0
 46
0.18
343
0
 94
-1056964608
 47
1.0
 49
1.0
140
1.0
293
     1
141
0.0
294
     1
177
     0
142
1.0
295
     0
296
     0
143
0.125
271
     0
272
     9
273
     9
298
     0
  0
MLINESTYLE
  5
18
102
{ACAD_REACTORS
330
17
102
}
330
17
100
AcDbMlineStyle
  2
Standard
 70
     0
  3

 62
   256
 51
90.0
 52
90.0
 71
     2
 49
0.5
 62
   256
  6
BYLAYER
 49
-0.5
 62
   256
  6
BYLAYER
  0
ACDBPLACEHOLDER
  5
F
102
{ACAD_REACTORS
330
E
102
}
330
E
  0
SCALE
  5
48
102
{ACAD_REACTORS
330
47
102
}
330
47
100
AcDbScale
 70
     0
300
1:1
140
1.0
141
1.0
290
     1
  0
SCALE
  5
49
102
{ACAD_REACTORS
330
47
102
}
330
47
100
AcDbScale
 70
     0
300
1/128" = 1'-0"
140
0.0078125
141
12.0
290
     0
  0
SCALE
  5
4A
102
{ACAD_REACTORS
330
47
102
}
330
47
100
AcDbScale
 70
     0
300
1/64" = 1'-0"
140
0.015625
141
12.0
290
     0
  0
SCALE
  5
4B
102
{ACAD_REACTORS
330
47
102
}
330
47
100
AcDbScale
 70
     0
300
1/32" = 1'-0"
140
0.03125
141
12.0
290
     0
  0
SCALE
  5
4C
102
{ACAD_REACTORS
330
47
102
}
330
47
100
AcDbScale
 70
     0
300
1/16" = 1'-0"
140
0.0625
141
12.0
290
     0
  0
SCALE
  5
4D
102
{ACAD_REACTORS
330
47
102
}
330
47
100
AcDbScale
 70
     0
300
3/32" = 1'-0"
140
0.09375
141
12.0
290
     0
  0
SCALE
  5
4E
102
{ACAD_REACTORS
330
47
102
}
330
47
100
AcDbScale
 70
     0
300
1/8" = 1'-0"
140
0.125
141
12.0
290
     0
  0
SCALE
  5
4F
102
{ACAD_REACTORS
330
47
102
}
330
47
100
AcDbScale
 70
     0
300
3/16" = 1'-0"
140
0.1875
141
12.0
290
     0
  0
SCALE
  5
50
102
{ACAD_REACTORS
330
47
102
}
330
47
100
AcDbScale
 70
     0
300
1/4" = 1'-0"
140
0.25
141
12.0
290
     0
  0
SCALE
  5
51
102
{ACAD_REACTORS
330
47
102
}
330
47
100
AcDbScale
 70
     0
300
3/8" = 1'-0"
140
0.375
141
12.0
290
     0
  0
SCALE
  5
52
102
{ACAD_REACTORS
330
47
102
}
330
47
100
AcDbScale
 70
     0
300
1/2" = 1'-0"
140
0.5
141
12.0
290
     0
  0
SCALE
  5
53
102
{ACAD_REACTORS
330
47
102
}
330
47
100
AcDbScale
 70
     0
300
3/4" = 1'-0"
140
0.75
141
12.0
290
     0
  0
SCALE
  5
54
102
{ACAD_REACTORS
330
47
102
}
330
47
100
AcDbScale
 70
     0
300
1" = 1'-0"
140
1.0
141
12.0
290
     0
  0
SCALE
  5
55
102
{ACAD_REACTORS
330
47
102
}
330
47
100
AcDbScale
 70
     0
300
1-1/2" = 1'-0"
140
1.5
141
12.0
290
     0
  0
SCALE
  5
56
102
{ACAD_REACTORS
330
47
102
}
330
47
100
AcDbScale
 70
     0
300
3" = 1'-0"
140
3.0
141
12.0
290
     0
  0
SCALE
  5
57
102
{ACAD_REACTORS
330
47
102
}
330
47
100
AcDbScale
 70
     0
300
6" = 1'-0"
140
6.0
141
12.0
290
     0
  0
SCALE
  5
58
102
{ACAD_REACTORS
330
47
102
}
330
47
100
AcDbScale
 70
     0
300
1'-0" = 1'-0"
140
12.0
141
12.0
290
     0
  0
TABLESTYLE
  5
5A
102
{ACAD_REACTORS
330
59
102
}
102
{ACAD_XDICTIONARY
360
DF
102
}
330
59
100
AcDbTableStyle
  3
Standard
 70
     0
 71
     0
 40
0.06
 41
0.06
280
     0
281
     0
  7
Standard
140
0.18
170
     2
 62
     0
 63
   257
283
     0
 90
        4
 91
        0
  1

274
    -2
284
     1
 64
     0
275
    -2
285
     1
 65
     0
276
    -2
286
     1
 66
     0
277
    -2
287
     1
 67
     0
278
    -2
288
     1
 68
     0
279
    -2
289
     1
 69
     0
  7
Standard
140
0.25
170
     5
 62
     0
 63
   257
283
     0
 90
        4
 91
        0
  1

274
    -2
284
     1
 64
     0
275
    -2
285
     1
 65
     0
276
    -2
286
     1
 66
     0
277
    -2
287
     1
 67
     0
278
    -2
288
     1
 68
     0
279
    -2
289
     1
 69
     0
  7
Standard
140
0.18
170
     5
 62
     0
 63
   257
283
     0
 90
        4
 91
        0
  1

274
    -2
284
     1
 64
     0
275
    -2
285
     1
 65
     0
276
    -2
286
     1
 66
     0
277
    -2
287
     1
 67
     0
278
    -2
288
     1
 68
     0
279
    -2
289
     1
 69
     0
  0
VISUALSTYLE
  5
2F
102
{ACAD_REACTORS
330
2A
102
}
330
2A
100
AcDbVisualStyle
  2
2dWireframe
 70
     4
177
     3
291
     0
 70
    58
 90
        0
176
     1
 90
        2
176
     1
 90
        0
176
     1
 90
        0
176
     1
 40
0.6
176
     1
 40
30.0
176
     1
 62
     7
420
 16777215
176
     1
 90
        1
176
     1
 90
        4
176
     1
 62
     7
176
     1
 62
   257
176
     1
 90
        1
176
     1
 90
        1
176
     1
 40
1.0
176
     1
 90
        0
176
     1
 62
   257
176
     1
 40
1.0
176
     1
 90
        1
176
     1
 90
        6
176
     1
 90
        2
176
     1
 62
     7
176
     1
 90
        5
176
     1
 90
        0
176
     1
 90
        0
176
     1
290
     0
176
     1
 90
        1
176
     1
 40
0.0
176
     1
 90
        0
176
     1
290
     1
176
     1
290
     1
176
     1
290
     0
176
     1
290
     0
176
     1
290
     0
176
     1
290
     0
176
     1
290
     0
176
     1
290
     0
176
     1
290
     0
176
     1
 90
       50
176
     1
 40
0.0
176
     1
 40
1.0
176
     1
 90
        0
176
     1
 62
    18
420
        0
176
     1
 90
       50
176
     1
 90
        3
176
     1
 62
     5
420
      255
176
     1
290
     0
176
     1
 90
       50
176
     1
 90
       50
176
     1
 90
       50
176
     1
290
     0
176
     1
 90
       50
176
     1
 62
   256
176
     0
 40
1.0
176
     0
 90
        2
176
     1
  1
strokes_ogs.tif
176
     1
290
     0
176
     1
 40
1.0
176
     1
 40
1.0
176
     1
  0
VISUALSTYLE
  5
32
102
{ACAD_REACTORS
330
2A
102
}
330
2A
100
AcDbVisualStyle
  2
Basic
 70
     7
177
     3
291
     1
 70
    58
 90
        1
176
     1
 90
        0
176
     1
 90
        1
176
     1
 90
        0
176
     1
 40
0.6
176
     1
 40
30.0
176
     1
 62
     7
420
 16777215
176
     1
 90
        0
176
     1
 90
        4
176
     1
 62
     7
176
     1
 62
   257
176
     1
 90
        1
176
     1
 90
        1
176
     1
 40
1.0
176
     1
 90
        8
176
     1
 62
     7
176
     1
 40
1.0
176
     1
 90
        1
176
     1
 90
        6
176
     1
 90
        2
176
     1
 62
     7
176
     1
 90
        5
176
     1
 90
        0
176
     1
 90
        0
176
     1
290
     0
176
     1
 90
        1
176
     1
 40
0.0
176
     1
 90
        0
176
     1
290
     0
176
     1
290
     1
176
     1
290
     1
176
     1
290
     0
176
     1
290
     0
176
     1
290
     0
176
     1
290
     0
176
     1
290
     0
176
     1
290
     0
176
     1
 90
       50
176
     1
 40
0.0
176
     1
 40
1.0
176
     1
 90
        0
176
     1
 62
    18
420
        0
176
     1
 90
       50
176
     1
 90
        3
176
     1
 62
     5
420
      255
176
     1
290
     0
176
     1
 90
       50
176
     1
 90
       50
176
     1
 90
       50
176
     1
290
     0
176
     1
 90
       50
176
     1
 62
   256
176
     0
 40
1.0
176
     0
 90
        2
176
     1
  1
strokes_ogs.tif
176
     1
290
     0
176
     1
 40
1.0
176
     1
 40
1.0
176
     1
  0
VISUALSTYLE
  5
36
102
{ACAD_REACTORS
330
2A
102
}
330
2A
100
AcDbVisualStyle
  2
Brighten
 70
    12
177
     3
291
     1
 70
    58
 90
        2
176
     1
 90
        2
176
     1
 90
        0
176
     1
 90
        0
176
     1
 40
0.6
176
     1
 40
30.0
176
     1
 62
     7
420
 16777215
176
     1
 90
        1
176
     1
 90
        4
176
     1
 62
     7
176
     1
 62
   257
176
     1
 90
        1
176
     1
 90
        1
176
     1
 40
1.0
176
     1
 90
        8
176
     1
 62
     7
176
     1
 40
1.0
176
     1
 90
        1
176
     1
 90
        6
176
     1
 90
        2
176
     1
 62
     7
176
     1
 90
        5
176
     1
 90
        0
176
     1
 90
        0
176
     1
290
     0
176
     1
 90
        1
176
     1
 40
50.0
176
     1
 90
        0
176
     1
290
     0
176
     1
290
     1
176
     1
290
     1
176
     1
290
     0
176
     1
290
     0
176
     1
290
     0
176
     1
290
     0
176
     1
290
     0
176
     1
290
     0
176
     1
 90
       50
176
     1
 40
0.0
176
     1
 40
1.0
176
     1
 90
        0
176
     1
 62
    18
420
        0
176
     1
 90
       50
176
     1
 90
        3
176
     1
 62
     5
420
      255
176
     1
290
     0
176
     1
 90
       50
176
     1
 90
       50
176
     1
 90
       50
176
     1
290
     0
176
     1
 90
       50
176
     1
 62
   256
176
     0
 40
1.0
176
     0
 90
        2
176
     1
  1
strokes_ogs.tif
176
     1
290
     0
176
     1
 40
1.0
176
     1
 40
1.0
176
     1
  0
VISUALSTYLE
  5
3A
102
{ACAD_REACTORS
330
2A
102
}
330
2A
100
AcDbVisualStyle
  2
ColorChange
 70
    16
177
     3
291
     1
 70
    58
 90
        2
176
     1
 90
        2
176
     1
 90
        3
176
     1
 90
        0
176
     1
 40
0.6
176
     1
 40
30.0
176
     1
 62
     8
420
  8421504
176
     1
 90
        1
176
     1
 90
        4
176
     1
 62
     7
176
     1
 62
   257
176
     1
 90
        1
176
     1
 90
        1
176
     1
 40
1.0
176
     1
 90
        8
176
     1
 62
     8
420
  8421504
176
     1
 40
1.0
176
     1
 90
        1
176
     1
 90
        6
176
     1
 90
        2
176
     1
 62
     7
176
     1
 90
        5
176
     1
 90
        0
176
     1
 90
        0
176
     1
290
     0
176
     1
 90
        1
176
     1
 40
0.0
176
     1
 90
        0
176
     1
290
     0
176
     1
290
     1
176
     1
290
     1
176
     1
290
     0
176
     1
290
     0
176
     1
290
     0
176
     1
290
     0
176
     1
290
     0
176
     1
290
     0
176
     1
 90
       50
176
     1
 40
0.0
176
     1
 40
1.0
176
     1
 90
        0
176
     1
 62
    18
420
        0
176
     1
 90
       50
176
     1
 90
        3
176
     1
 62
     5
420
      255
176
     1
290
     0
176
     1
 90
       50
176
     1
 90
       50
176
     1
 90
       50
176
     1
290
     0
176
     1
 90
       50
176
     1
 62
   256
176
     0
 40
1.0
176
     0
 90
        2
176
     1
  1
strokes_ogs.tif
176
     1
290
     0
176
     1
 40
1.0
176
     1
 40
1.0
176
     1
  0
VISUALSTYLE
  5
34
102
{ACAD_REACTORS
330
2A
102
}
330
2A
100
AcDbVisualStyle
  2
Conceptual
 70
     9
177
     3
291
     0
 70
    58
 90
        3
176
     1
 90
        2
176
     1
 90
        0
176
     1
 90
        0
176
     1
 40
0.6
176
     1
 40
30.0
176
     1
 62
     7
420
 16777215
176
     1
 90
        2
176
     1
 90
        2
176
     1
 62
     7
176
     1
 62
   257
176
     1
 90
        1
176
     1
 90
        1
176
     1
 40
179.0
176
     1
 90
        8
176
     1
 62
     7
176
     1
 40
1.0
176
     1
 90
        1
176
     1
 90
        6
176
     1
 90
        2
176
     1
 62
     7
176
     1
 90
        3
176
     1
 90
        0
176
     1
 90
        0
176
     1
290
     0
176
     1
 90
        1
176
     1
 40
0.0
176
     1
 90
        0
176
     1
290
     0
176
     1
290
     1
176
     1
290
     1
176
     1
290
     0
176
     1
290
     0
176
     1
290
     0
176
     1
290
     0
176
     1
290
     0
176
     1
290
     0
176
     1
 90
       50
176
     1
 40
0.0
176
     1
 40
1.0
176
     1
 90
        0
176
     1
 62
    18
420
        0
176
     1
 90
       50
176
     1
 90
        3
176
     1
 62
     5
420
      255
176
     1
290
     0
176
     1
 90
       50
176
     1
 90
       50
176
     1
 90
       50
176
     1
290
     0
176
     1
 90
       50
176
     1
 62
   256
176
     0
 40
1.0
176
     0
 90
        2
176
     1
  1
strokes_ogs.tif
176
     1
290
     0
176
     1
 40
1.0
176
     1
 40
1.0
176
     1
  0
VISUALSTYLE
  5
35
102
{ACAD_REACTORS
330
2A
102
}
330
2A
100
AcDbVisualStyle
  2
Dim
 70
    11
177
     3
291
     1
 70
    58
 90
        2
176
     1
 90
        2
176
     1
 90
        0
176
     1
 90
        0
176
     1
 40
0.6
176
     1
 40
30.0
176
     1
 62
     7
420
 16777215
176
     1
 90
        1
176
     1
 90
        4
176
     1
 62
     7
176
     1
 62
   257
176
     1
 90
        1
176
     1
 90
        1
176
     1
 40
1.0
176
     1
 90
        8
176
     1
 62
     7
176
     1
 40
1.0
176
     1
 90
        1
176
     1
 90
        6
176
     1
 90
        2
176
     1
 62
     7
176
     1
 90
        5
176
     1
 90
        0
176
     1
 90
        0
176
     1
290
     0
176
     1
 90
        1
176
     1
 40
-50.0
176
     1
 90
        0
176
     1
290
     0
176
     1
290
     1
176
     1
290
     1
176
     1
290
     0
176
     1
290
     0
176
     1
290
     0
176
     1
290
     0
176
     1
290
     0
176
     1
290
     0
176
     1
 90
       50
176
     1
 40
0.0
176
     1
 40
1.0
176
     1
 90
        0
176
     1
 62
    18
420
        0
176
     1
 90
       50
176
     1
 90
        3
176
     1
 62
     5
420
      255
176
     1
290
     0
176
     1
 90
       50
176
     1
 90
       50
176
     1
 90
       50
176
     1
290
     0
176
     1
 90
       50
176
     1
 62
   256
176
     0
 40
1.0
176
     0
 90
        2
176
     1
  1
strokes_ogs.tif
176
     1
290
     0
176
     1
 40
1.0
176
     1
 40
1.0
176
     1
  0
VISUALSTYLE
  5
3D
102
{ACAD_REACTORS
330
2A
102
}
330
2A
100
AcDbVisualStyle
  2
EdgeColorOff
 70
    22
177
     3
291
     1
 70
    58
 90
        2
176
     0
 90
        2
176
     0
 90
        0
176
     0
 90
        0
176
     0
 40
0.6
176
     0
 40
30.0
176
     0
 62
     7
420
 16777215
176
     0
 90
        1
176
     0
 90
        4
176
     0
 62
     7
176
     0
 62
   257
176
     0
 90
        1
176
     0
 90
        1
176
     0
 40
1.0
176
     0
 90
        8
176
     2
 62
     7
176
     0
 40
1.0
176
     0
 90
        1
176
     0
 90
        6
176
     0
 90
        2
176
     0
 62
     7
176
     0
 90
        5
176
     0
 90
        0
176
     0
 90
        0
176
     0
290
     0
176
     0
 90
        1
176
     0
 40
0.0
176
     0
 90
        0
176
     0
290
     0
176
     0
290
     1
176
     0
290
     1
176
     0
290
     0
176
     0
290
     0
176
     0
290
     0
176
     0
290
     0
176
     0
290
     0
176
     0
290
     0
176
     0
 90
       50
176
     0
 40
0.0
176
     0
 40
1.0
176
     0
 90
        0
176
     0
 62
    18
420
        0
176
     0
 90
       50
176
     0
 90
        3
176
     0
 62
     5
420
      255
176
     0
290
     0
176
     0
 90
       50
176
     0
 90
       50
176
     0
 90
       50
176
     0
290
     0
176
     0
 90
       50
176
     0
 62
   256
176
     0
 40
1.0
176
     0
 90
        2
176
     0
  1
strokes_ogs.tif
176
     0
290
     0
176
     0
 40
1.0
176
     0
 40
1.0
176
     0
  0
VISUALSTYLE
  5
39
102
{ACAD_REACTORS
330
2A
102
}
330
2A
100
AcDbVisualStyle
  2
Facepattern
 70
    15
177
     3
291
     1
 70
    58
 90
        2
176
     1
 90
        2
176
     1
 90
        0
176
     1
 90
        0
176
     1
 40
0.6
176
     1
 40
30.0
176
     1
 62
     7
420
 16777215
176
     1
 90
        1
176
     1
 90
        4
176
     1
 62
     7
176
     1
 62
   257
176
     1
 90
        1
176
     1
 90
        1
176
     1
 40
1.0
176
     1
 90
        8
176
     1
 62
     7
176
     1
 40
1.0
176
     1
 90
        1
176
     1
 90
        6
176
     1
 90
        2
176
     1
 62
     7
176
     1
 90
        5
176
     1
 90
        0
176
     1
 90
        0
176
     1
290
     0
176
     1
 90
        1
176
     1
 40
0.0
176
     1
 90
        0
176
     1
290
     0
176
     1
290
     1
176
     1
290
     1
176
     1
290
     0
176
     1
290
     0
176
     1
290
     0
176
     1
290
     0
176
     1
290
     0
176
     1
290
     0
176
     1
 90
       50
176
     1
 40
0.0
176
     1
 40
1.0
176
     1
 90
        0
176
     1
 62
    18
420
        0
176
     1
 90
       50
176
     1
 90
        3
176
     1
 62
     5
420
      255
176
     1
290
     0
176
     1
 90
       50
176
     1
 90
       50
176
     1
 90
       50
176
     1
290
     0
176
     1
 90
       50
176
     1
 62
   256
176
     0
 40
1.0
176
     0
 90
        2
176
     1
  1
strokes_ogs.tif
176
     1
290
     0
176
     1
 40
1.0
176
     1
 40
1.0
176
     1
  0
VISUALSTYLE
  5
2B
102
{ACAD_REACTORS
330
2A
102
}
330
2A
100
AcDbVisualStyle
  2
Flat
 70
     0
177
     3
291
     1
 70
    58
 90
        2
176
     1
 90
        1
176
     1
 90
        1
176
     1
 90
        2
176
     1
 40
0.6
176
     1
 40
30.0
176
     1
 62
     7
420
 16777215
176
     1
 90
        0
176
     1
 90
        0
176
     1
 62
     7
176
     1
 62
   257
176
     1
 90
        1
176
     1
 90
        1
176
     1
 40
1.0
176
     1
 90
        8
176
     1
 62
     7
176
     1
 40
1.0
176
     1
 90
        1
176
     1
 90
        6
176
     1
 90
        2
176
     1
 62
     7
176
     1
 90
        5
176
     1
 90
        0
176
     1
 90
        0
176
     1
290
     0
176
     1
 90
       13
176
     1
 40
0.0
176
     1
 90
        0
176
     1
290
     0
176
     1
290
     1
176
     1
290
     1
176
     1
290
     0
176
     1
290
     0
176
     1
290
     0
176
     1
290
     0
176
     1
290
     0
176
     1
290
     0
176
     1
 90
       50
176
     1
 40
0.0
176
     1
 40
1.0
176
     1
 90
        0
176
     1
 62
    18
420
        0
176
     1
 90
       50
176
     1
 90
        3
176
     1
 62
     5
420
      255
176
     1
290
     0
176
     1
 90
       50
176
     1
 90
       50
176
     1
 90
       50
176
     1
290
     0
176
     1
 90
       50
176
     1
 62
   256
176
     0
 40
1.0
176
     0
 90
        2
176
     1
  1
strokes_ogs.tif
176
     1
290
     0
176
     1
 40
1.0
176
     1
 40
1.0
176
     1
  0
VISUALSTYLE
  5
2C
102
{ACAD_REACTORS
330
2A
102
}
330
2A
100
AcDbVisualStyle
  2
FlatWithEdges
 70
     1
177
     3
291
     1
 70
    58
 90
        2
176
     1
 90
        1
176
     1
 90
        1
176
     1
 90
        2
176
     1
 40
0.6
176
     1
 40
30.0
176
     1
 62
     7
420
 16777215
176
     1
 90
        1
176
     1
 90
        0
176
     1
 62
     7
176
     1
 62
   257
176
     1
 90
        1
176
     1
 90
        1
176
     1
 40
1.0
176
     1
 90
        0
176
     1
 62
   257
176
     1
 40
1.0
176
     1
 90
        1
176
     1
 90
        6
176
     1
 90
        2
176
     1
 62
     7
176
     1
 90
        5
176
     1
 90
        0
176
     1
 90
        0
176
     1
290
     0
176
     1
 90
       13
176
     1
 40
0.0
176
     1
 90
        0
176
     1
290
     0
176
     1
290
     1
176
     1
290
     1
176
     1
290
     0
176
     1
290
     0
176
     1
290
     0
176
     1
290
     0
176
     1
290
     0
176
     1
290
     0
176
     1
 90
       50
176
     1
 40
0.0
176
     1
 40
1.0
176
     1
 90
        0
176
     1
 62
    18
420
        0
176
     1
 90
       50
176
     1
 90
        3
176
     1
 62
     5
420
      255
176
     1
290
     0
176
     1
 90
       50
176
     1
 90
       50
176
     1
 90
       50
176
     1
290
     0
176
     1
 90
       50
176
     1
 62
   256
176
     0
 40
1.0
176
     0
 90
        2
176
     1
  1
strokes_ogs.tif
176
     1
290
     0
176
     1
 40
1.0
176
     1
 40
1.0
176
     1
  0
VISUALSTYLE
  5
2D
102
{ACAD_REACTORS
330
2A
102
}
330
2A
100
AcDbVisualStyle
  2
Gouraud
 70
     2
177
     3
291
     1
 70
    58
 90
        2
176
     1
 90
        2
176
     1
 90
        1
176
     1
 90
        2
176
     1
 40
0.6
176
     1
 40
30.0
176
     1
 62
     7
420
 16777215
176
     1
 90
        0
176
     1
 90
        0
176
     1
 62
     7
176
     1
 62
   257
176
     1
 90
        1
176
     1
 90
        1
176
     1
 40
1.0
176
     1
 90
        0
176
     1
 62
     7
176
     1
 40
1.0
176
     1
 90
        1
176
     1
 90
        6
176
     1
 90
        2
176
     1
 62
     7
176
     1
 90
        5
176
     1
 90
        0
176
     1
 90
        0
176
     1
290
     0
176
     1
 90
       13
176
     1
 40
0.0
176
     1
 90
        0
176
     1
290
     0
176
     1
290
     1
176
     1
290
     1
176
     1
290
     0
176
     1
290
     0
176
     1
290
     0
176
     1
290
     0
176
     1
290
     0
176
     1
290
     0
176
     1
 90
       50
176
     1
 40
0.0
176
     1
 40
1.0
176
     1
 90
        0
176
     1
 62
    18
420
        0
176
     1
 90
       50
176
     1
 90
        3
176
     1
 62
     5
420
      255
176
     1
290
     0
176
     1
 90
       50
176
     1
 90
       50
176
     1
 90
       50
176
     1
290
     0
176
     1
 90
       50
176
     1
 62
   256
176
     0
 40
1.0
176
     0
 90
        2
176
     1
  1
strokes_ogs.tif
176
     1
290
     0
176
     1
 40
1.0
176
     1
 40
1.0
176
     1
  0
VISUALSTYLE
  5
2E
102
{ACAD_REACTORS
330
2A
102
}
330
2A
100
AcDbVisualStyle
  2
GouraudWithEdges
 70
     3
177
     3
291
     1
 70
    58
 90
        2
176
     1
 90
        2
176
     1
 90
        1
176
     1
 90
        2
176
     1
 40
0.6
176
     1
 40
30.0
176
     1
 62
     7
420
 16777215
176
     1
 90
        1
176
     1
 90
        0
176
     1
 62
     7
176
     1
 62
   257
176
     1
 90
        1
176
     1
 90
        1
176
     1
 40
1.0
176
     1
 90
        0
176
     1
 62
   257
176
     1
 40
1.0
176
     1
 90
        1
176
     1
 90
        6
176
     1
 90
        2
176
     1
 62
     7
176
     1
 90
        5
176
     1
 90
        0
176
     1
 90
        0
176
     1
290
     0
176
     1
 90
       13
176
     1
 40
0.0
176
     1
 90
        0
176
     1
290
     0
176
     1
290
     1
176
     1
290
     1
176
     1
290
     0
176
     1
290
     0
176
     1
290
     0
176
     1
290
     0
176
     1
290
     0
176
     1
290
     0
176
     1
 90
       50
176
     1
 40
0.0
176
     1
 40
1.0
176
     1
 90
        0
176
     1
 62
    18
420
        0
176
     1
 90
       50
176
     1
 90
        3
176
     1
 62
     5
420
      255
176
     1
290
     0
176
     1
 90
       50
176
     1
 90
       50
176
     1
 90
       50
176
     1
290
     0
176
     1
 90
       50
176
     1
 62
   256
176
     0
 40
1.0
176
     0
 90
        2
176
     1
  1
strokes_ogs.tif
176
     1
290
     0
176
     1
 40
1.0
176
     1
 40
1.0
176
     1
  0
VISUALSTYLE
  5
31
102
{ACAD_REACTORS
330
2A
102
}
330
2A
100
AcDbVisualStyle
  2
Hidden
 70
     6
177
     3
291
     0
 70
    58
 90
        1
176
     1
 90
        2
176
     1
 90
        2
176
     1
 90
        0
176
     1
 40
0.6
176
     1
 40
30.0
176
     1
 62
     7
420
 16777215
176
     1
 90
        2
176
     1
 90
        2
176
     1
 62
     7
176
     1
 62
   257
176
     1
 90
        2
176
     1
 90
        1
176
     1
 40
40.0
176
     1
 90
        0
176
     1
 62
   257
176
     1
 40
1.0
176
     1
 90
        1
176
     1
 90
        6
176
     1
 90
        2
176
     1
 62
     7
176
     1
 90
        3
176
     1
 90
        0
176
     1
 90
        0
176
     1
290
     0
176
     1
 90
        1
176
     1
 40
0.0
176
     1
 90
        0
176
     1
290
     0
176
     1
290
     1
176
     1
290
     1
176
     1
290
     0
176
     1
290
     0
176
     1
290
     0
176
     1
290
     0
176
     1
290
     0
176
     1
290
     0
176
     1
 90
       50
176
     1
 40
0.0
176
     1
 40
1.0
176
     1
 90
        0
176
     1
 62
    18
420
        0
176
     1
 90
       50
176
     1
 90
        3
176
     1
 62
     5
420
      255
176
     1
290
     0
176
     1
 90
       50
176
     1
 90
       50
176
     1
 90
       50
176
     1
290
     0
176
     1
 90
       50
176
     1
 62
   256
176
     0
 40
1.0
176
     0
 90
        2
176
     1
  1
strokes_ogs.tif
176
     1
290
     0
176
     1
 40
1.0
176
     1
 40
1.0
176
     1
  0
VISUALSTYLE
  5
3B
102
{ACAD_REACTORS
330
2A
102
}
330
2A
100
AcDbVisualStyle
  2
JitterOff
 70
    20
177
     3
291
     1
 70
    58
 90
        2
176
     0
 90
        2
176
     0
 90
        0
176
     0
 90
        0
176
     0
 40
0.6
176
     0
 40
30.0
176
     0
 62
     7
420
 16777215
176
     0
 90
        1
176
     0
 90
        4
176
     0
 62
     7
176
     0
 62
   257
176
     0
 90
        1
176
     0
 90
        1
176
     0
 40
1.0
176
     0
 90
       10
176
     2
 62
     7
176
     0
 40
1.0
176
     0
 90
        1
176
     0
 90
        6
176
     0
 90
        2
176
     0
 62
     7
176
     0
 90
        5
176
     0
 90
        0
176
     0
 90
        0
176
     0
290
     0
176
     0
 90
        1
176
     0
 40
0.0
176
     0
 90
        0
176
     0
290
     0
176
     0
290
     1
176
     0
290
     1
176
     0
290
     0
176
     0
290
     0
176
     0
290
     0
176
     0
290
     0
176
     0
290
     0
176
     0
290
     0
176
     0
 90
       50
176
     0
 40
0.0
176
     0
 40
1.0
176
     0
 90
        0
176
     0
 62
    18
420
        0
176
     0
 90
       50
176
     0
 90
        3
176
     0
 62
     5
420
      255
176
     0
290
     0
176
     0
 90
       50
176
     0
 90
       50
176
     0
 90
       50
176
     0
290
     0
176
     0
 90
       50
176
     0
 62
   256
176
     0
 40
1.0
176
     0
 90
        2
176
     0
  1
strokes_ogs.tif
176
     0
290
     0
176
     0
 40
1.0
176
     0
 40
1.0
176
     0
  0
VISUALSTYLE
  5
38
102
{ACAD_REACTORS
330
2A
102
}
330
2A
100
AcDbVisualStyle
  2
Linepattern
 70
    14
177
     3
291
     1
 70
    58
 90
        2
176
     1
 90
        2
176
     1
 90
        0
176
     1
 90
        0
176
     1
 40
0.6
176
     1
 40
30.0
176
     1
 62
     7
420
 16777215
176
     1
 90
        1
176
     1
 90
        4
176
     1
 62
     7
176
     1
 62
   257
176
     1
 90
        7
176
     1
 90
        7
176
     1
 40
1.0
176
     1
 90
        8
176
     1
 62
     7
176
     1
 40
1.0
176
     1
 90
        1
176
     1
 90
        6
176
     1
 90
        2
176
     1
 62
     7
176
     1
 90
        5
176
     1
 90
        0
176
     1
 90
        0
176
     1
290
     0
176
     1
 90
        1
176
     1
 40
0.0
176
     1
 90
        0
176
     1
290
     0
176
     1
290
     1
176
     1
290
     1
176
     1
290
     0
176
     1
290
     0
176
     1
290
     0
176
     1
290
     0
176
     1
290
     0
176
     1
290
     0
176
     1
 90
       50
176
     1
 40
0.0
176
     1
 40
1.0
176
     1
 90
        0
176
     1
 62
    18
420
        0
176
     1
 90
       50
176
     1
 90
        3
176
     1
 62
     5
420
      255
176
     1
290
     0
176
     1
 90
       50
176
     1
 90
       50
176
     1
 90
       50
176
     1
290
     0
176
     1
 90
       50
176
     1
 62
   256
176
     0
 40
1.0
176
     0
 90
        2
176
     1
  1
strokes_ogs.tif
176
     1
290
     0
176
     1
 40
1.0
176
     1
 40
1.0
176
     1
  0
VISUALSTYLE
  5
3C
102
{ACAD_REACTORS
330
2A
102
}
330
2A
100
AcDbVisualStyle
  2
OverhangOff
 70
    21
177
     3
291
     1
 70
    58
 90
        2
176
     0
 90
        2
176
     0
 90
        0
176
     0
 90
        0
176
     0
 40
0.6
176
     0
 40
30.0
176
     0
 62
     7
420
 16777215
176
     0
 90
        1
176
     0
 90
        4
176
     0
 62
     7
176
     0
 62
   257
176
     0
 90
        1
176
     0
 90
        1
176
     0
 40
1.0
176
     0
 90
        9
176
     2
 62
     7
176
     0
 40
1.0
176
     0
 90
        1
176
     0
 90
        6
176
     0
 90
        2
176
     0
 62
     7
176
     0
 90
        5
176
     0
 90
        0
176
     0
 90
        0
176
     0
290
     0
176
     0
 90
        1
176
     0
 40
0.0
176
     0
 90
        0
176
     0
290
     0
176
     0
290
     1
176
     0
290
     1
176
     0
290
     0
176
     0
290
     0
176
     0
290
     0
176
     0
290
     0
176
     0
290
     0
176
     0
290
     0
176
     0
 90
       50
176
     0
 40
0.0
176
     0
 40
1.0
176
     0
 90
        0
176
     0
 62
    18
420
        0
176
     0
 90
       50
176
     0
 90
        3
176
     0
 62
     5
420
      255
176
     0
290
     0
176
     0
 90
       50
176
     0
 90
       50
176
     0
 90
       50
176
     0
290
     0
176
     0
 90
       50
176
     0
 62
   256
176
     0
 40
1.0
176
     0
 90
        2
176
     0
  1
strokes_ogs.tif
176
     0
290
     0
176
     0
 40
1.0
176
     0
 40
1.0
176
     0
  0
VISUALSTYLE
  5
33
102
{ACAD_REACTORS
330
2A
102
}
330
2A
100
AcDbVisualStyle
  2
Realistic
 70
     8
177
     3
291
     0
 70
    58
 90
        2
176
     1
 90
        3
176
     1
 90
        0
176
     1
 90
        2
176
     1
 40
0.6
176
     1
 40
30.0
176
     1
 62
     7
420
 16777215
176
     1
 90
        0
176
     1
 90
        0
176
     1
 62
     7
176
     1
 62
   257
176
     1
 90
        1
176
     1
 90
        1
176
     1
 40
1.0
176
     1
 90
        8
176
     1
 62
   257
176
     1
 40
1.0
176
     1
 90
        1
176
     1
 90
        6
176
     1
 90
        2
176
     1
 62
     7
176
     1
 90
        3
176
     1
 90
        0
176
     1
 90
        0
176
     1
290
     0
176
     1
 90
       13
176
     1
 40
0.0
176
     1
 90
        0
176
     1
290
     0
176
     1
290
     1
176
     1
290
     1
176
     1
290
     0
176
     1
290
     0
176
     1
290
     0
176
     1
290
     0
176
     1
290
     0
176
     1
290
     0
176
     1
 90
       50
176
     1
 40
0.0
176
     1
 40
1.0
176
     1
 90
        0
176
     1
 62
    18
420
        0
176
     1
 90
       50
176
     1
 90
        3
176
     1
 62
     5
420
      255
176
     1
290
     0
176
     1
 90
       50
176
     1
 90
       50
176
     1
 90
       50
176
     1
290
     0
176
     1
 90
       50
176
     1
 62
   256
176
     0
 40
1.0
176
     0
 90
        2
176
     1
  1
strokes_ogs.tif
176
     1
290
     0
176
     1
 40
1.0
176
     1
 40
1.0
176
     1
  0
VISUALSTYLE
  5
42
102
{ACAD_REACTORS
330
2A
102
}
330
2A
100
AcDbVisualStyle
  2
Shaded
 70
    27
177
     3
291
     0
 70
    58
 90
        2
176
     1
 90
        2
176
     1
 90
        1
176
     1
 90
        2
176
     1
 40
0.6
176
     1
 40
30.0
176
     1
 62
     7
420
 16777215
176
     1
 90
        0
176
     1
 90
        4
176
     1
 62
     7
176
     1
 62
   257
176
     1
 90
        1
176
     1
 90
        1
176
     1
 40
1.0
176
     1
 90
        8
176
     1
 62
   257
176
     1
 40
1.0
176
     1
 90
        1
176
     1
 90
        6
176
     1
 90
        2
176
     1
 62
     8
420
  7895160
176
     1
 90
        3
176
     1
 90
        0
176
     1
 90
        0
176
     1
290
     0
176
     1
 90
        5
176
     1
 40
0.0
176
     1
 90
        0
176
     1
290
     0
176
     1
290
     1
176
     1
290
     1
176
     1
290
     0
176
     1
290
     0
176
     1
290
     0
176
     1
290
     0
176
     1
290
     0
176
     1
290
     0
176
     1
 90
       50
176
     1
 40
0.0
176
     1
 40
1.0
176
     1
 90
        0
176
     1
 62
    18
420
        0
176
     1
 90
       50
176
     1
 90
        3
176
     1
 62
     5
420
      255
176
     1
290
     0
176
     1
 90
       50
176
     1
 90
       50
176
     1
 90
       50
176
     1
290
     0
176
     1
 90
       50
176
     1
 62
   256
176
     0
 40
1.0
176
     0
 90
        2
176
     1
  1
strokes_ogs.tif
176
     1
290
     0
176
     1
 40
1.0
176
     1
 40
1.0
176
     1
  0
VISUALSTYLE
  5
41
102
{ACAD_REACTORS
330
2A
102
}
330
2A
100
AcDbVisualStyle
  2
Shaded with edges
 70
    26
177
     3
291
     0
 70
    58
 90
        2
176
     1
 90
        2
176
     1
 90
        1
176
     1
 90
        2
176
     1
 40
0.6
176
     1
 40
30.0
176
     1
 62
     7
420
 16777215
176
     1
 90
        1
176
     1
 90
       10
176
     1
 62
     7
176
     1
 62
   257
176
     1
 90
        2
176
     1
 90
        1
176
     1
 40
1.0
176
     1
 90
        8
176
     1
 62
   257
176
     1
 40
1.0
176
     1
 90
        1
176
     1
 90
        6
176
     1
 90
        2
176
     1
 62
     7
176
     1
 90
        3
176
     1
 90
        0
176
     1
 90
        0
176
     1
290
     0
176
     1
 90
        5
176
     1
 40
0.0
176
     1
 90
        0
176
     1
290
     0
176
     1
290
     1
176
     1
290
     1
176
     1
290
     0
176
     1
290
     0
176
     1
290
     0
176
     1
290
     0
176
     1
290
     0
176
     1
290
     0
176
     1
 90
       50
176
     1
 40
0.0
176
     1
 40
1.0
176
     1
 90
        0
176
     1
 62
    18
420
        0
176
     1
 90
       50
176
     1
 90
        3
176
     1
 62
     5
420
      255
176
     1
290
     0
176
     1
 90
       50
176
     1
 90
       50
176
     1
 90
       50
176
     1
290
     0
176
     1
 90
       50
176
     1
 62
   256
176
     0
 40
1.0
176
     0
 90
        2
176
     1
  1
strokes_ogs.tif
176
     1
290
     0
176
     1
 40
1.0
176
     1
 40
1.0
176
     1
  0
VISUALSTYLE
  5
3E
102
{ACAD_REACTORS
330
2A
102
}
330
2A
100
AcDbVisualStyle
  2
Shades of Gray
 70
    23
177
     3
291
     0
 70
    58
 90
        2
176
     1
 90
        2
176
     1
 90
        3
176
     1
 90
        0
176
     1
 40
0.6
176
     1
 40
30.0
176
     1
 62
     7
420
 16777215
176
     1
 90
        2
176
     1
 90
        2
176
     1
 62
     7
176
     1
 62
     7
176
     1
 90
        1
176
     1
 90
        1
176
     1
 40
40.0
176
     1
 90
        8
176
     1
 62
     7
176
     1
 40
1.0
176
     1
 90
        1
176
     1
 90
        6
176
     1
 90
        2
176
     1
 62
     7
176
     1
 90
        3
176
     1
 90
        0
176
     1
 90
        0
176
     1
290
     0
176
     1
 90
        1
176
     1
 40
0.0
176
     1
 90
        0
176
     1
290
     0
176
     1
290
     1
176
     1
290
     1
176
     1
290
     0
176
     1
290
     0
176
     1
290
     0
176
     1
290
     0
176
     1
290
     0
176
     1
290
     0
176
     1
 90
       50
176
     1
 40
0.0
176
     1
 40
1.0
176
     1
 90
        0
176
     1
 62
    18
420
        0
176
     1
 90
       50
176
     1
 90
        3
176
     1
 62
     5
420
      255
176
     1
290
     0
176
     1
 90
       50
176
     1
 90
       50
176
     1
 90
       50
176
     1
290
     0
176
     1
 90
       50
176
     1
 62
   256
176
     0
 40
1.0
176
     0
 90
        2
176
     1
  1
strokes_ogs.tif
176
     1
290
     0
176
     1
 40
1.0
176
     1
 40
1.0
176
     1
  0
VISUALSTYLE
  5
3F
102
{ACAD_REACTORS
330
2A
102
}
330
2A
100
AcDbVisualStyle
  2
Sketchy
 70
    24
177
     3
291
     0
 70
    58
 90
        1
176
     1
 90
        2
176
     1
 90
        2
176
     1
 90
        0
176
     1
 40
0.6
176
     1
 40
30.0
176
     1
 62
     7
420
 16777215
176
     1
 90
        2
176
     1
 90
        2
176
     1
 62
     7
176
     1
 62
     7
176
     1
 90
        1
176
     1
 90
        1
176
     1
 40
40.0
176
     1
 90
       11
176
     1
 62
     7
176
     1
 40
1.0
176
     1
 90
        1
176
     1
 90
        6
176
     1
 90
        2
176
     1
 62
     7
176
     1
 90
        6
176
     1
 90
        0
176
     1
 90
        0
176
     1
290
     0
176
     1
 90
        1
176
     1
 40
0.0
176
     1
 90
        0
176
     1
290
     0
176
     1
290
     1
176
     1
290
     1
176
     1
290
     0
176
     1
290
     0
176
     1
290
     0
176
     1
290
     0
176
     1
290
     0
176
     1
290
     0
176
     1
 90
       50
176
     1
 40
0.0
176
     1
 40
1.0
176
     1
 90
        0
176
     1
 62
    18
420
        0
176
     1
 90
       50
176
     1
 90
        3
176
     1
 62
     5
420
      255
176
     1
290
     0
176
     1
 90
       50
176
     1
 90
       50
176
     1
 90
       50
176
     1
290
     0
176
     1
 90
       50
176
     1
 62
   256
176
     0
 40
1.0
176
     0
 90
        2
176
     1
  1
strokes_ogs.tif
176
     1
290
     0
176
     1
 40
1.0
176
     1
 40
1.0
176
     1
  0
VISUALSTYLE
  5
37
102
{ACAD_REACTORS
330
2A
102
}
330
2A
100
AcDbVisualStyle
  2
Thicken
 70
    13
177
     3
291
     1
 70
    58
 90
        2
176
     1
 90
        2
176
     1
 90
        0
176
     1
 90
        0
176
     1
 40
0.6
176
     1
 40
30.0
176
     1
 62
     7
420
 16777215
176
     1
 90
        1
176
     1
 90
        4
176
     1
 62
     7
176
     1
 62
   257
176
     1
 90
        1
176
     1
 90
        1
176
     1
 40
1.0
176
     1
 90
       12
176
     1
 62
     7
176
     1
 40
1.0
176
     1
 90
        1
176
     1
 90
        6
176
     1
 90
        2
176
     1
 62
     7
176
     1
 90
        5
176
     1
 90
        0
176
     1
 90
        0
176
     1
290
     0
176
     1
 90
        1
176
     1
 40
0.0
176
     1
 90
        0
176
     1
290
     0
176
     1
290
     1
176
     1
290
     1
176
     1
290
     0
176
     1
290
     0
176
     1
290
     0
176
     1
290
     0
176
     1
290
     0
176
     1
290
     0
176
     1
 90
       50
176
     1
 40
0.0
176
     1
 40
1.0
176
     1
 90
        0
176
     1
 62
    18
420
        0
176
     1
 90
       50
176
     1
 90
        3
176
     1
 62
     5
420
      255
176
     1
290
     0
176
     1
 90
       50
176
     1
 90
       50
176
     1
 90
       50
176
     1
290
     0
176
     1
 90
       50
176
     1
 62
   256
176
     0
 40
1.0
176
     0
 90
        2
176
     1
  1
strokes_ogs.tif
176
     1
290
     0
176
     1
 40
1.0
176
     1
 40
1.0
176
     1
  0
VISUALSTYLE
  5
30
102
{ACAD_REACTORS
330
2A
102
}
330
2A
100
AcDbVisualStyle
  2
Wireframe
 70
     5
177
     3
291
     0
 70
    58
 90
        0
176
     1
 90
        2
176
     1
 90
        0
176
     1
 90
        0
176
     1
 40
0.6
176
     1
 40
30.0
176
     1
 62
     7
420
 16777215
176
     1
 90
        1
176
     1
 90
        4
176
     1
 62
     7
176
     1
 62
   257
176
     1
 90
        1
176
     1
 90
        1
176
     1
 40
1.0
176
     1
 90
        0
176
     1
 62
   257
176
     1
 40
1.0
176
     1
 90
        1
176
     1
 90
        6
176
     1
 90
        2
176
     1
 62
     7
176
     1
 90
        3
176
     1
 90
        0
176
     1
 90
        0
176
     1
290
     0
176
     1
 90
        1
176
     1
 40
0.0
176
     1
 90
        0
176
     1
290
     0
176
     1
290
     1
176
     1
290
     1
176
     1
290
     0
176
     1
290
     0
176
     1
290
     0
176
     1
290
     0
176
     1
290
     0
176
     1
290
     0
176
     1
 90
       50
176
     1
 40
0.0
176
     1
 40
1.0
176
     1
 90
        0
176
     1
 62
    18
420
        0
176
     1
 90
       50
176
     1
 90
        3
176
     1
 62
     5
420
      255
176
     1
290
     0
176
     1
 90
       50
176
     1
 90
       50
176
     1
 90
       50
176
     1
290
     0
176
     1
 90
       50
176
     1
 62
   256
176
     0
 40
1.0
176
     0
 90
        2
176
     1
  1
strokes_ogs.tif
176
     1
290
     0
176
     1
 40
1.0
176
     1
 40
1.0
176
     1
  0
VISUALSTYLE
  5
40
102
{ACAD_REACTORS
330
2A
102
}
330
2A
100
AcDbVisualStyle
  2
X-Ray
 70
    25
177
     3
291
     0
 70
    58
 90
        2
176
     1
 90
        2
176
     1
 90
        1
176
     1
 90
        1
176
     1
 40
0.5
176
     1
 40
30.0
176
     1
 62
     7
420
 16777215
176
     1
 90
        1
176
     1
 90
        0
176
     1
 62
     7
176
     1
 62
   257
176
     1
 90
        1
176
     1
 90
        1
176
     1
 40
1.0
176
     1
 90
        8
176
     1
 62
     7
176
     1
 40
1.0
176
     1
 90
        1
176
     1
 90
        6
176
     1
 90
        2
176
     1
 62
     7
176
     1
 90
        3
176
     1
 90
        0
176
     1
 90
        0
176
     1
290
     0
176
     1
 90
       13
176
     1
 40
0.0
176
     1
 90
        0
176
     1
290
     0
176
     1
290
     1
176
     1
290
     1
176
     1
290
     0
176
     1
290
     0
176
     1
290
     0
176
     1
290
     0
176
     1
290
     0
176
     1
290
     0
176
     1
 90
       50
176
     1
 40
0.0
176
     1
 40
1.0
176
     1
 90
        0
176
     1
 62
    18
420
        0
176
     1
 90
       50
176
     1
 90
        3
176
     1
 62
     5
420
      255
176
     1
290
     0
176
     1
 90
       50
176
     1
 90
       50
176
     1
 90
       50
176
     1
290
     0
176
     1
 90
       50
176
     1
 62
   256
176
     0
 40
1.0
176
     0
 90
        2
176
     1
  1
strokes_ogs.tif
176
     1
290
     0
176
     1
 40
1.0
176
     1
 40
1.0
176
     1
  0
DICTIONARYVAR
  5
DE
102
{ACAD_REACTORS
330
DD
102
}
330
DD
100
DictionaryVariables
280
     0
  1
1:1
  0
DICTIONARYVAR
  5
E3
102
{ACAD_REACTORS
330
DD
102
}
330
DD
100
DictionaryVariables
280
     0
  1
Standard
  0
DICTIONARYVAR
  5
E2
102
{ACAD_REACTORS
330
DD
102
}
330
DD
100
DictionaryVariables
280
     0
  1
Standard
  0
DICTIONARY
  5
DF
330
5A
100
AcDbDictionary
280
     1
281
     1
  3
ACAD_ROUNDTRIP_2008_TABLESTYLE_CELLSTYLEMAP
360
E0
  0
CELLSTYLEMAP
  5
E0
102
{ACAD_REACTORS
330
DF
102
}
330
DF
100
AcDbCellStyleMap
 90
        3
300
CELLSTYLE
  1
TABLEFORMAT_BEGIN
 90
        5
170
     1
 91
        0
 92
    32768
 62
   257
 93
        1
300
CONTENTFORMAT
  1
CONTENTFORMAT_BEGIN
 90
        0
 91
        0
 92
        4
 93
        0
300

 40
0.0
140
1.0
 94
        5
 62
     0
340
11
144
0.25
309
CONTENTFORMAT_END
171
     1
301
MARGIN
  1
CELLMARGIN_BEGIN
 40
0.06
 40
0.06
 40
0.06
 40
0.06
 40
0.06
 40
0.06
309
CELLMARGIN_END
 94
        6
 95
        1
302
GRIDFORMAT
  1
GRIDFORMAT_BEGIN
 90
        0
 91
        1
 62
     0
 92
       -2
340
14
 93
        0
 40
0.045
309
GRIDFORMAT_END
 95
        2
302
GRIDFORMAT
  1
GRIDFORMAT_BEGIN
 90
        0
 91
        1
 62
     0
 92
       -2
340
14
 93
        0
 40
0.045
309
GRIDFORMAT_END
 95
        4
302
GRIDFORMAT
  1
GRIDFORMAT_BEGIN
 90
        0
 91
        1
 62
     0
 92
       -2
340
14
 93
        0
 40
0.045
309
GRIDFORMAT_END
 95
        8
302
GRIDFORMAT
  1
GRIDFORMAT_BEGIN
 90
        0
 91
        1
 62
     0
 92
       -2
340
14
 93
        0
 40
0.045
309
GRIDFORMAT_END
 95
       16
302
GRIDFORMAT
  1
GRIDFORMAT_BEGIN
 90
        0
 91
        1
 62
     0
 92
       -2
340
14
 93
        0
 40
0.045
309
GRIDFORMAT_END
 95
       32
302
GRIDFORMAT
  1
GRIDFORMAT_BEGIN
 90
        0
 91
        1
 62
     0
 92
       -2
340
14
 93
        0
 40
0.045
309
GRIDFORMAT_END
309
TABLEFORMAT_END
  1
CELLSTYLE_BEGIN
 90
        1
 91
        1
300
_TITLE
309
CELLSTYLE_END
300
CELLSTYLE
  1
TABLEFORMAT_BEGIN
 90
        5
170
     1
 91
        0
 92
        0
 62
   257
 93
        1
300
CONTENTFORMAT
  1
CONTENTFORMAT_BEGIN
 90
        0
 91
        0
 92
        4
 93
        0
300

 40
0.0
140
1.0
 94
        5
 62
     0
340
11
144
0.18
309
CONTENTFORMAT_END
171
     1
301
MARGIN
  1
CELLMARGIN_BEGIN
 40
0.06
 40
0.06
 40
0.06
 40
0.06
 40
0.06
 40
0.06
309
CELLMARGIN_END
 94
        6
 95
        1
302
GRIDFORMAT
  1
GRIDFORMAT_BEGIN
 90
        0
 91
        1
 62
     0
 92
       -2
340
14
 93
        0
 40
0.045
309
GRIDFORMAT_END
 95
        2
302
GRIDFORMAT
  1
GRIDFORMAT_BEGIN
 90
        0
 91
        1
 62
     0
 92
       -2
340
14
 93
        0
 40
0.045
309
GRIDFORMAT_END
 95
        4
302
GRIDFORMAT
  1
GRIDFORMAT_BEGIN
 90
        0
 91
        1
 62
     0
 92
       -2
340
14
 93
        0
 40
0.045
309
GRIDFORMAT_END
 95
        8
302
GRIDFORMAT
  1
GRIDFORMAT_BEGIN
 90
        0
 91
        1
 62
     0
 92
       -2
340
14
 93
        0
 40
0.045
309
GRIDFORMAT_END
 95
       16
302
GRIDFORMAT
  1
GRIDFORMAT_BEGIN
 90
        0
 91
        1
 62
     0
 92
       -2
340
14
 93
        0
 40
0.045
309
GRIDFORMAT_END
 95
       32
302
GRIDFORMAT
  1
GRIDFORMAT_BEGIN
 90
        0
 91
        1
 62
     0
 92
       -2
340
14
 93
        0
 40
0.045
309
GRIDFORMAT_END
309
TABLEFORMAT_END
  1
CELLSTYLE_BEGIN
 90
        2
 91
        1
300
_HEADER
309
CELLSTYLE_END
300
CELLSTYLE
  1
TABLEFORMAT_BEGIN
 90
        5
170
     1
 91
        0
 92
        0
 62
   257
 93
        1
300
CONTENTFORMAT
  1
CONTENTFORMAT_BEGIN
 90
        0
 91
        0
 92
        4
 93
        0
300

 40
0.0
140
1.0
 94
        2
 62
     0
340
11
144
0.18
309
CONTENTFORMAT_END
171
     1
301
MARGIN
  1
CELLMARGIN_BEGIN
 40
0.06
 40
0.06
 40
0.06
 40
0.06
 40
0.06
 40
0.06
309
CELLMARGIN_END
 94
        6
 95
        1
302
GRIDFORMAT
  1
GRIDFORMAT_BEGIN
 90
        0
 91
        1
 62
     0
 92
       -2
340
14
 93
        0
 40
0.045
309
GRIDFORMAT_END
 95
        2
302
GRIDFORMAT
  1
GRIDFORMAT_BEGIN
 90
        0
 91
        1
 62
     0
 92
       -2
340
14
 93
        0
 40
0.045
309
GRIDFORMAT_END
 95
        4
302
GRIDFORMAT
  1
GRIDFORMAT_BEGIN
 90
        0
 91
        1
 62
     0
 92
       -2
340
14
 93
        0
 40
0.045
309
GRIDFORMAT_END
 95
        8
302
GRIDFORMAT
  1
GRIDFORMAT_BEGIN
 90
        0
 91
        1
 62
     0
 92
       -2
340
14
 93
        0
 40
0.045
309
GRIDFORMAT_END
 95
       16
302
GRIDFORMAT
  1
GRIDFORMAT_BEGIN
 90
        0
 91
        1
 62
     0
 92
       -2
340
14
 93
        0
 40
0.045
309
GRIDFORMAT_END
 95
       32
302
GRIDFORMAT
  1
GRIDFORMAT_BEGIN
 90
        0
 91
        1
 62
     0
 92
       -2
340
14
 93
        0
 40
0.045
309
GRIDFORMAT_END
309
TABLEFORMAT_END
  1
CELLSTYLE_BEGIN
 90
        3
 91
        2
300
_DATA
309
CELLSTYLE_END
  0
ENDSEC
  0
EOF
