  0
SECTION
  2
HEADER
  9
$ACADVER
  1
AC1027
  9
$ACADMAINTVER
 70
   105
  9
$DWGCODEPAGE
  3
ANSI_1252
  9
$LASTSAVEDBY
  1
Office Desk
  9
$REQUIREDVERSIONS
160
                 0
  9
$INSBASE
 10
0.0
 20
0.0
 30
0.0
  9
$EXTMIN
 10
-26.07618110236221
 20
0.1865551181102362
 30
0.0
  9
$EXTMAX
 10
-13.83355905511811
 20
16.69428346456693
 30
0.0
  9
$LIMMIN
 10
0.0
 20
0.0
  9
$LIMMAX
 10
12.0
 20
9.0
  9
$ORTHOMODE
 70
     0
  9
$REGENMODE
 70
     1
  9
$FILLMODE
 70
     1
  9
$QTEXTMODE
 70
     0
  9
$MIRRTEXT
 70
     1
  9
$LTSCALE
 40
1.0
  9
$ATTMODE
 70
     1
  9
$TEXTSIZE
 40
0.2
  9
$TRACEWID
 40
0.05
  9
$TEXTSTYLE
  7
Standard
  9
$CLAYER
  8
0
  9
$CELTYPE
  6
ByLayer
  9
$CECOLOR
 62
   256
  9
$CELTSCALE
 40
1.0
  9
$DISPSILH
 70
     0
  9
$DIMSCALE
 40
1.0
  9
$DIMASZ
 40
0.18
  9
$DIMEXO
 40
0.0625
  9
$DIMDLI
 40
0.38
  9
$DIMRND
 40
0.0
  9
$DIMDLE
 40
0.0
  9
$DIMEXE
 40
0.18
  9
$DIMTP
 40
0.0
  9
$DIMTM
 40
0.0
  9
$DIMTXT
 40
0.18
  9
$DIMCEN
 40
0.09
  9
$DIMTSZ
 40
0.0
  9
$DIMTOL
 70
     0
  9
$DIMLIM
 70
     0
  9
$DIMTIH
 70
     1
  9
$DIMTOH
 70
     1
  9
$DIMSE1
 70
     0
  9
$DIMSE2
 70
     0
  9
$DIMTAD
 70
     0
  9
$DIMZIN
 70
     0
  9
$DIMBLK
  1

  9
$DIMASO
 70
     1
  9
$DIMSHO
 70
     1
  9
$DIMPOST
  1

  9
$DIMAPOST
  1

  9
$DIMALT
 70
     0
  9
$DIMALTD
 70
     2
  9
$DIMALTF
 40
25.4
  9
$DIMLFAC
 40
1.0
  9
$DIMTOFL
 70
     0
  9
$DIMTVP
 40
0.0
  9
$DIMTIX
 70
     0
  9
$DIMSOXD
 70
     0
  9
$DIMSAH
 70
     0
  9
$DIMBLK1
  1

  9
$DIMBLK2
  1

  9
$DIMSTYLE
  2
Standard
  9
$DIMCLRD
 70
     0
  9
$DIMCLRE
 70
     0
  9
$DIMCLRT
 70
     0
  9
$DIMTFAC
 40
1.0
  9
$DIMGAP
 40
0.09
  9
$DIMJUST
 70
     0
  9
$DIMSD1
 70
     0
  9
$DIMSD2
 70
     0
  9
$DIMTOLJ
 70
     1
  9
$DIMTZIN
 70
     0
  9
$DIMALTZ
 70
     0
  9
$DIMALTTZ
 70
     0
  9
$DIMUPT
 70
     0
  9
$DIMDEC
 70
     4
  9
$DIMTDEC
 70
     4
  9
$DIMALTU
 70
     2
  9
$DIMALTTD
 70
     2
  9
$DIMTXSTY
  7
Standard
  9
$DIMAUNIT
 70
     0
  9
$DIMADEC
 70
     0
  9
$DIMALTRND
 40
0.0
  9
$DIMAZIN
 70
     0
  9
$DIMDSEP
 70
    46
  9
$DIMATFIT
 70
     3
  9
$DIMFRAC
 70
     0
  9
$DIMLDRBLK
  1

  9
$DIMLUNIT
 70
     2
  9
$DIMLWD
 70
    -2
  9
$DIMLWE
 70
    -2
  9
$DIMTMOVE
 70
     0
  9
$DIMFXL
 40
1.0
  9
$DIMFXLON
 70
     0
  9
$DIMJOGANG
 40
0.7853981633974483
  9
$DIMTFILL
 70
     0
  9
$DIMTFILLCLR
 70
     0
  9
$DIMARCSYM
 70
     0
  9
$DIMLTYPE
  6

  9
$DIMLTEX1
  6

  9
$DIMLTEX2
  6

  9
$DIMTXTDIRECTION
 70
     0
  9
$LUNITS
 70
     2
  9
$LUPREC
 70
     4
  9
$SKETCHINC
 40
0.1
  9
$FILLETRAD
 40
0.0
  9
$AUNITS
 70
     0
  9
$AUPREC
 70
     0
  9
$MENU
  1
.
  9
$ELEVATION
 40
0.0
  9
$PELEVATION
 40
0.0
  9
$THICKNESS
 40
0.0
  9
$LIMCHECK
 70
     0
  9
$CHAMFERA
 40
0.0
  9
$CHAMFERB
 40
0.0
  9
$CHAMFERC
 40
0.0
  9
$CHAMFERD
 40
0.0
  9
$SKPOLY
 70
     0
  9
$TDCREATE
 40
2461020.702636007
  9
$TDUCREATE
 40
2461020.47346934
  9
$TDUPDATE
 40
2461020.702636007
  9
$TDUUPDATE
 40
2461020.47346934
  9
$TDINDWG
 40
0.0000000116
  9
$TDUSRTIMER
 40
0.0000000116
  9
$USRTIMER
 70
     1
  9
$ANGBASE
 50
0.0
  9
$ANGDIR
 70
     0
  9
$PDMODE
 70
     0
  9
$PDSIZE
 40
0.0
  9
$PLINEWID
 40
0.0
  9
$SPLFRAME
 70
     0
  9
$SPLINETYPE
 70
     6
  9
$SPLINESEGS
 70
     8
  9
$HANDSEED
  5
91
  9
$SURFTAB1
 70
     6
  9
$SURFTAB2
 70
     6
  9
$SURFTYPE
 70
     6
  9
$SURFU
 70
     6
  9
$SURFV
 70
     6
  9
$UCSBASE
  2

  9
$UCSNAME
  2

  9
$UCSORG
 10
0.0
 20
0.0
 30
0.0
  9
$UCSXDIR
 10
1.0
 20
0.0
 30
0.0
  9
$UCSYDIR
 10
0.0
 20
1.0
 30
0.0
  9
$UCSORTHOREF
  2

  9
$UCSORTHOVIEW
 70
     0
  9
$UCSORGTOP
 10
0.0
 20
0.0
 30
0.0
  9
$UCSORGBOTTOM
 10
0.0
 20
0.0
 30
0.0
  9
$UCSORGLEFT
 10
0.0
 20
0.0
 30
0.0
  9
$UCSORGRIGHT
 10
0.0
 20
0.0
 30
0.0
  9
$UCSORGFRONT
 10
0.0
 20
0.0
 30
0.0
  9
$UCSORGBACK
 10
0.0
 20
0.0
 30
0.0
  9
$PUCSBASE
  2

  9
$PUCSNAME
  2

  9
$PUCSORG
 10
0.0
 20
0.0
 30
0.0
  9
$PUCSXDIR
 10
1.0
 20
0.0
 30
0.0
  9
$PUCSYDIR
 10
0.0
 20
1.0
 30
0.0
  9
$PUCSORTHOREF
  2

  9
$PUCSORTHOVIEW
 70
     0
  9
$PUCSORGTOP
 10
0.0
 20
0.0
 30
0.0
  9
$PUCSORGBOTTOM
 10
0.0
 20
0.0
 30
0.0
  9
$PUCSORGLEFT
 10
0.0
 20
0.0
 30
0.0
  9
$PUCSORGRIGHT
 10
0.0
 20
0.0
 30
0.0
  9
$PUCSORGFRONT
 10
0.0
 20
0.0
 30
0.0
  9
$PUCSORGBACK
 10
0.0
 20
0.0
 30
0.0
  9
$USERI1
 70
     0
  9
$USERI2
 70
     0
  9
$USERI3
 70
     0
  9
$USERI4
 70
     0
  9
$USERI5
 70
     0
  9
$USERR1
 40
0.0
  9
$USERR2
 40
0.0
  9
$USERR3
 40
0.0
  9
$USERR4
 40
0.0
  9
$USERR5
 40
0.0
  9
$WORLDVIEW
 70
     1
  9
$SHADEDGE
 70
     3
  9
$SHADEDIF
 70
    70
  9
$TILEMODE
 70
     1
  9
$MAXACTVP
 70
    64
  9
$PINSBASE
 10
0.0
 20
0.0
 30
0.0
  9
$PLIMCHECK
 70
     0
  9
$PEXTMIN
 10
1.000000000000000E+20
 20
1.000000000000000E+20
 30
1.000000000000000E+20
  9
$PEXTMAX
 10
-1.000000000000000E+20
 20
-1.000000000000000E+20
 30
-1.000000000000000E+20
  9
$PLIMMIN
 10
0.0
 20
0.0
  9
$PLIMMAX
 10
12.0
 20
9.0
  9
$UNITMODE
 70
     0
  9
$VISRETAIN
 70
     1
  9
$PLINEGEN
 70
     0
  9
$PSLTSCALE
 70
     1
  9
$TREEDEPTH
 70
  3020
  9
$CMLSTYLE
  2
Standard
  9
$CMLJUST
 70
     0
  9
$CMLSCALE
 40
1.0
  9
$PROXYGRAPHICS
 70
     1
  9
$MEASUREMENT
 70
     0
  9
$CELWEIGHT
370
    -1
  9
$ENDCAPS
280
     0
  9
$JOINSTYLE
280
     0
  9
$LWDISPLAY
290
     0
  9
$INSUNITS
 70
     1
  9
$HYPERLINKBASE
  1

  9
$STYLESHEET
  1

  9
$XEDIT
290
     1
  9
$CEPSNTYPE
380
     0
  9
$PSTYLEMODE
290
     1
  9
$FINGERPRINTGUID
  2
{d2a1c717-0a67-4310-a813-fc514600e74e}
  9
$VERSIONGUID
  2
{FAEB1C32-E019-11D5-929B-00C0DF256EC4}
  9
$EXTNAMES
290
     1
  9
$PSVPSCALE
 40
0.0
  9
$OLESTARTUP
290
     0
  9
$SORTENTS
280
   127
  9
$INDEXCTL
280
     0
  9
$HIDETEXT
280
     1
  9
$XCLIPFRAME
280
     2
  9
$HALOGAP
280
     0
  9
$OBSCOLOR
 70
   257
  9
$OBSLTYPE
280
     0
  9
$INTERSECTIONDISPLAY
280
     0
  9
$INTERSECTIONCOLOR
 70
   257
  9
$DIMASSOC
280
     2
  9
$PROJECTNAME
  1

  9
$CAMERADISPLAY
290
     0
  9
$LENSLENGTH
 40
50.0
  9
$CAMERAHEIGHT
 40
0.0
  9
$STEPSPERSEC
 40
2.0
  9
$STEPSIZE
 40
6.0
  9
$3DDWFPREC
 40
2.0
  9
$PSOLWIDTH
 40
0.25
  9
$PSOLHEIGHT
 40
4.0
  9
$LOFTANG1
 40
1.570796326794897
  9
$LOFTANG2
 40
1.570796326794897
  9
$LOFTMAG1
 40
0.0
  9
$LOFTMAG2
 40
0.0
  9
$LOFTPARAM
 70
     7
  9
$LOFTNORMALS
280
     1
  9
$LATITUDE
 40
37.795
  9
$LONGITUDE
 40
-122.394
  9
$NORTHDIRECTION
 40
0.0
  9
$TIMEZONE
 70
 -8000
  9
$LIGHTGLYPHDISPLAY
280
     1
  9
$TILEMODELIGHTSYNCH
280
     1
  9
$CMATERIAL
347
44
  9
$SOLIDHIST
280
     0
  9
$SHOWHIST
280
     1
  9
$DWFFRAME
280
     2
  9
$DGNFRAME
280
     2
  9
$REALWORLDSCALE
290
     1
  9
$INTERFERECOLOR
 62
   256
  9
$CSHADOW
280
     0
  9
$SHADOWPLANELOCATION
 40
0.0
  0
ENDSEC
  0
SECTION
  2
CLASSES
  0
CLASS
  1
ACDBDICTIONARYWDFLT
  2
AcDbDictionaryWithDefault
  3
ObjectDBX Classes
 90
        0
 91
        3
280
     0
281
     0
  0
CLASS
  1
VISUALSTYLE
  2
AcDbVisualStyle
  3
ObjectDBX Classes
 90
     4095
 91
        3
280
     0
281
     0
  0
CLASS
  1
MATERIAL
  2
AcDbMaterial
  3
ObjectDBX Classes
 90
     1153
 91
        3
280
     0
281
     0
  0
CLASS
  1
SCALE
  2
AcDbScale
  3
ObjectDBX Classes
 90
     1153
 91
        3
280
     0
281
     0
  0
CLASS
  1
TABLESTYLE
  2
AcDbTableStyle
  3
ObjectDBX Classes
 90
     4095
 91
        3
280
     0
281
     0
  0
CLASS
  1
MLEADERSTYLE
  2
AcDbMLeaderStyle
  3
ACDB_MLEADERSTYLE_CLASS
 90
     4095
 91
        3
280
     0
281
     0
  0
CLASS
  1
SUN
  2
AcDbSun
  3
SCENEOE
 90
     1153
 91
        3
280
     0
281
     0
  0
CLASS
  1
DICTIONARYVAR
  2
AcDbDictionaryVar
  3
ObjectDBX Classes
 90
        0
 91
        3
280
     0
281
     0
  0
CLASS
  1
CELLSTYLEMAP
  2
AcDbCellStyleMap
  3
ObjectDBX Classes
 90
     1152
 91
        3
280
     0
281
     0
  0
ENDSEC
  0
SECTION
  2
TABLES
  0
TABLE
  2
VPORT
  5
8
330
0
100
AcDbSymbolTable
 70
     1
  0
VPORT
  5
29
330
8
100
AcDbSymbolTableRecord
100
AcDbViewportTableRecord
  2
*Active
 70
     0
 10
0.0
 20
0.0
 11
1.0
 21
1.0
 12
10.42990654205607
 22
4.5
 13
0.0
 23
0.0
 14
0.5
 24
0.5
 15
0.5
 25
0.5
 16
0.0
 26
0.0
 36
1.0
 17
0.0
 27
0.0
 37
0.0
 40
9.0
 41
1.972972972850329
 42
50.0
 43
0.0
 44
0.0
 50
0.0
 51
0.0
 71
     0
 72
   100
 73
     1
 74
     3
 75
     0
 76
     0
 77
     0
 78
     0
281
     0
 65
     1
110
0.0
120
0.0
130
0.0
111
1.0
121
0.0
131
0.0
112
0.0
122
1.0
132
0.0
 79
     0
146
0.0
348
2F
 60
     3
 61
     5
292
     1
282
     1
141
0.0
142
0.0
 63
   250
361
5D
  0
ENDTAB
  0
TABLE
  2
LTYPE
  5
5
330
0
100
AcDbSymbolTable
 70
     1
  0
LTYPE
  5
14
330
5
100
AcDbSymbolTableRecord
100
AcDbLinetypeTableRecord
  2
ByBlock
 70
     0
  3

 72
    65
 73
     0
 40
0.0
  0
LTYPE
  5
15
330
5
100
AcDbSymbolTableRecord
100
AcDbLinetypeTableRecord
  2
ByLayer
 70
     0
  3

 72
    65
 73
     0
 40
0.0
  0
LTYPE
  5
16
330
5
100
AcDbSymbolTableRecord
100
AcDbLinetypeTableRecord
  2
Continuous
 70
     0
  3
Solid line
 72
    65
 73
     0
 40
0.0
  0
ENDTAB
  0
TABLE
  2
LAYER
  5
2
330
0
100
AcDbSymbolTable
 70
     2
  0
LAYER
  5
10
330
2
100
AcDbSymbolTableRecord
100
AcDbLayerTableRecord
  2
0
 70
     0
 62
     7
  6
Continuous
370
    -3
390
F
347
46
348
0
  0
LAYER
  5
5F
330
2
100
AcDbSymbolTableRecord
100
AcDbLayerTableRecord
  2
Layer 1
 70
     0
 62
     7
  6
Continuous
370
    -3
390
F
347
46
348
0
  0
ENDTAB
  0
TABLE
  2
STYLE
  5
3
330
0
100
AcDbSymbolTable
 70
     1
  0
STYLE
  5
11
330
3
100
AcDbSymbolTableRecord
100
AcDbTextStyleTableRecord
  2
Standard
 70
     0
 40
0.0
 41
1.0
 50
0.0
 71
     0
 42
0.2
  3
txt
  4

  0
ENDTAB
  0
TABLE
  2
VIEW
  5
6
330
0
100
AcDbSymbolTable
 70
     0
  0
ENDTAB
  0
TABLE
  2
UCS
  5
7
330
0
100
AcDbSymbolTable
 70
     0
  0
ENDTAB
  0
TABLE
  2
APPID
  5
9
330
0
100
AcDbSymbolTable
 70
     2
  0
APPID
  5
12
330
9
100
AcDbSymbolTableRecord
100
AcDbRegAppTableRecord
  2
ACAD
 70
     0
  0
APPID
  5
5E
330
9
100
AcDbSymbolTableRecord
100
AcDbRegAppTableRecord
  2
ODA
 70
     0
  0
ENDTAB
  0
TABLE
  2
DIMSTYLE
  5
A
330
0
100
AcDbSymbolTable
 70
     1
100
AcDbDimStyleTable
  0
DIMSTYLE
105
27
330
A
100
AcDbSymbolTableRecord
100
AcDbDimStyleTableRecord
  2
Standard
 70
     0
178
     0
340
11
  0
ENDTAB
  0
TABLE
  2
BLOCK_RECORD
  5
1
330
0
100
AcDbSymbolTable
 70
     1
  0
BLOCK_RECORD
  5
1F
330
1
100
AcDbSymbolTableRecord
100
AcDbBlockTableRecord
  2
*Model_Space
340
22
 70
     0
280
     1
281
     0
  0
BLOCK_RECORD
  5
1B
330
1
100
AcDbSymbolTableRecord
100
AcDbBlockTableRecord
  2
*Paper_Space
340
1E
 70
     0
280
     1
281
     0
  0
BLOCK_RECORD
  5
23
330
1
100
AcDbSymbolTableRecord
100
AcDbBlockTableRecord
  2
*Paper_Space0
340
26
 70
     0
280
     1
281
     0
  0
ENDTAB
  0
ENDSEC
  0
SECTION
  2
BLOCKS
  0
BLOCK
  5
20
330
1F
100
AcDbEntity
  8
0
100
AcDbBlockBegin
  2
*Model_Space
 70
     0
 10
0.0
 20
0.0
 30
0.0
  3
*Model_Space
  1

  0
ENDBLK
  5
21
330
1F
100
AcDbEntity
  8
0
100
AcDbBlockEnd
  0
BLOCK
  5
1C
330
1B
100
AcDbEntity
 67
     1
  8
0
100
AcDbBlockBegin
  2
*Paper_Space
 70
     0
 10
0.0
 20
0.0
 30
0.0
  3
*Paper_Space
  1

  0
ENDBLK
  5
1D
330
1B
100
AcDbEntity
 67
     1
  8
0
100
AcDbBlockEnd
  0
BLOCK
  5
24
330
23
100
AcDbEntity
  8
0
100
AcDbBlockBegin
  2
*Paper_Space0
 70
     0
 10
0.0
 20
0.0
 30
0.0
  3
*Paper_Space0
  1

  0
ENDBLK
  5
25
330
23
100
AcDbEntity
  8
0
100
AcDbBlockEnd
  0
ENDSEC
  0
SECTION
  2
ENTITIES
  0
LWPOLYLINE
  5
60
330
1F
100
AcDbEntity
  8
Layer 1
 62
   250
370
     9
100
AcDbPolyline
 90
        5
 70
     1
 43
0.0
 10
-26.07468110236221
 20
0.1880590551181102
 10
-13.83505905511811
 20
0.1880590551181102
 10
-13.83505905511811
 20
16.69278346456693
 10
-26.07468110236221
 20
16.69278346456693
 10
-26.07468110236221
 20
0.1880590551181102
  0
LWPOLYLINE
  5
61
330
1F
100
AcDbEntity
  8
Layer 1
 62
     7
370
    15
100
AcDbPolyline
 90
      209
 70
     0
 43
0.0
 10
-23.10993700787402
 20
5.103129921259843
 10
-23.09801181102362
 20
4.958456692913386
 10
-23.0838937007874
 20
4.687047244094488
 10
-23.06874803149606
 20
4.333905511811023
 10
-23.05374015748032
 20
3.944043307086614
 10
-23.04003543307087
 20
3.562468503937008
 10
-23.0288031496063
 20
3.234192913385827
 10
-23.02120866141732
 20
3.004220472440945
 10
-23.01841732283465
 20
2.91755905511811
 10
-23.01148818897638
 20
2.872456692913386
 10
-23.00072047244095
 20
2.831996062992126
 10
-22.98758267716535
 20
2.796598425196851
 10
-22.97354330708662
 20
2.766688976377953
 10
-22.96007086614173
 20
2.742688976377953
 10
-22.94862992125984
 20
2.725023622047244
 10
-22.94068897637795
 20
2.714114173228346
 10
-22.93771653543307
 20
2.710381889763779
 10
-22.88764173228347
 20
2.661885826771654
 10
-22.81745669291339
 20
2.60559842519685
 10
-22.73542519685039
 20
2.545917322834646
 10
-22.64979527559055
 20
2.487232283464567
 10
-22.56882283464567
 20
2.433937007874016
 10
-22.50076377952756
 20
2.390433070866142
 10
-22.45387795275591
 20
2.361106299212599
 10
-22.43641338582677
 20
2.350354330708662
 10
-22.32524803149606
 20
2.281937007874016
 10
-22.17834645669291
 20
2.188858267716535
 10
-22.01129527559055
 20
2.081535433070866
 10
-21.83967716535433
 20
1.970377952755906
 10
-21.67907086614173
 20
1.865799212598425
 10
-21.54505905511811
 20
1.778208661417323
 10
-21.45322834645669
 20
1.71801968503937
 10
-21.41915354330709
 20
1.695641732283464
 10
-21.34029527559055
 20
1.63894094488189
 10
-21.26459448818898
 20
1.591531496062992
 10
-21.19432677165354
 20
1.552885826771653
 10
-21.13175196850394
 20
1.522464566929134
 10
-21.07913779527559
 20
1.499736220472441
 10
-21.03875196850394
 20
1.484161417322835
 10
-21.01285826771653
 20
1.475212598425197
 10
-21.00372440944882
 20
1.472346456692913
 10
-20.89762598425197
 20
1.459692913385827
 10
-20.80168897637795
 20
1.462807086614173
 10
-20.71714960629921
 20
1.477346456692913
 10
-20.64522440944882
 20
1.498976377952756
 10
-20.58714960629921
 20
1.523354330708661
 10
-20.54414960629921
 20
1.546141732283465
 10
-20.51744881889764
 20
1.562996062992126
 10
-20.50827559055118
 20
1.56957874015748
 10
-20.46827165354331
 20
1.606173228346457
 10
-20.41258267716535
 20
1.659287401574803
 10
-20.34769291338583
 20
1.722330708661417
 10
-20.28007480314961
 20
1.788700787401575
 10
-20.21620472440945
 20
1.851807086614173
 10
-20.16256692913386
 20
1.905047244094488
 10
-20.12563385826772
 20
1.941826771653543
 10
-20.11188188976378
 20
1.955555118110236
 10
-19.92466929133858
 20
2.131334645669291
 10
-19.74926771653543
 20
2.300468503937008
 10
-19.58972834645669
 20
2.457779527559055
 10
-19.4501062992126
 20
2.598090551181103
 10
-19.33445275590551
 20
2.716228346456693
 10
-19.24682677165355
 20
2.80701968503937
 10
-19.19127559055118
 20
2.865287401574803
 10
-19.17185826771653
 20
2.885862204724409
 10
-19.15018503937008
 20
2.913736220472441
 10
-19.13378346456693
 20
2.941712598425197
 10
-19.12192125984252
 20
2.968614173228346
 10
-19.11386220472441
 20
2.993263779527559
 10
-19.10887007874016
 20
3.014484251968504
 10
-19.10621653543307
 20
3.031094488188976
 10
-19.10516141732283
 20
3.041929133858268
 10
-19.10497244094488
 20
3.045799212598425
 10
-19.08222047244094
 20
3.186736220472441
 10
-19.03635826771654
 20
3.459488188976378
 10
-18.97544488188976
 20
3.817629921259842
 10
-18.90753937007874
 20
4.214751968503937
 10
-18.8406968503937
 20
4.604425196850394
 10
-18.78297637795276
 20
4.940236220472441
 10
-18.74243307086614
 20
5.175763779527559
 10
-18.72712992125984
 20
5.264586614173228
 10
-18.68719291338583
 20
5.301401574803149
 10
-18.63225590551181
 20
5.353885826771654
 10
-18.56858661417323
 20
5.415696850393701
 10
-18.50244488188977
 20
5.480492125984252
 10
-18.44009842519685
 20
5.541925196850394
 10
-18.38781102362205
 20
5.593661417322835
 10
-18.35184645669291
 20
5.629354330708662
 10
-18.33846456692913
 20
5.642661417322834
 10
-18.32921653543307
 20
5.679791338582677
 10
-18.31777165354331
 20
5.746736220472441
 10
-18.30519291338583
 20
5.832775590551181
 10
-18.29253149606299
 20
5.927196850393701
 10
-18.28084251968504
 20
6.019291338582677
 10
-18.27118897637795
 20
6.098334645669292
 10
-18.2646220472441
 20
6.153618110236221
 10
-18.2621968503937
 20
6.174429133858268
 10
-18.25087401574803
 20
6.211610236220473
 10
-18.23788188976378
 20
6.267181102362205
 10
-18.22420078740157
 20
6.333944881889764
 10
-18.21080708661417
 20
6.404704724409449
 10
-18.19868503937008
 20
6.472263779527559
 10
-18.18881102362205
 20
6.529433070866141
 10
-18.18216929133858
 20
6.569007874015748
 10
-18.17973622047244
 20
6.583799212598425
 10
-18.16886220472441
 20
6.645366141732284
 10
-18.15919291338583
 20
6.711133858267717
 10
-18.15079527559055
 20
6.777279527559055
 10
-18.14375590551181
 20
6.839968503937008
 10
-18.13814960629921
 20
6.895389763779527
 10
-18.13404724409449
 20
6.939708661417323
 10
-18.13152755905512
 20
6.969102362204724
 10
-18.13067322834646
 20
6.979751968503937
 10
-18.13056299212598
 20
7.028736220472441
 10
-18.13998031496063
 20
7.073574803149606
 10
-18.15599606299213
 20
7.113527559055118
 10
-18.17566929133858
 20
7.14786220472441
 10
-18.19607874015748
 20
7.175846456692914
 10
-18.21428346456693
 20
7.196748031496063
 10
-18.22735826771654
 20
7.209822834645669
 10
-18.23236614173228
 20
7.214346456692914
 10
-18.27677165354331
 20
7.244763779527559
 10
-18.33511811023622
 20
7.280287401574803
 10
-18.4012874015748
 20
7.318094488188977
 10
-18.46915354330709
 20
7.355362204724409
 10
-18.53259842519685
 20
7.389263779527559
 10
-18.58549212598425
 20
7.416972440944882
 10
-18.62172047244094
 20
7.435673228346457
 10
-18.63515748031496
 20
7.442531496062992
 10
-18.76238188976378
 20
7.50888188976378
 10
-19.00425196850394
 20
7.638291338582677
 10
-19.32020078740157
 20
7.80859842519685
 10
-19.66966929133858
 20
7.997633858267717
 10
-20.01208661417323
 20
8.183244094488188
 10
-20.3068937007874
 20
8.343259842519686
 10
-20.51352755905512
 20
8.455523622047243
 10
-20.59141732283464
 20
8.497870078740158
 10
-20.6642125984252
 20
8.532625984251968
 10
-20.75449606299212
 20
8.56755905511811
 10
-20.85388976377953
 20
8.601181102362204
 10
-20.95400787401575
 20
8.632015748031495
 10
-21.04646850393701
 20
8.658574803149607
 10
-21.12288976377953
 20
8.67938188976378
 10
-21.17488976377953
 20
8.692952755905512
 10
-21.19408661417323
 20
8.697807086614173
 10
-21.25658267716535
 20
8.676791338582678
 10
-21.34183070866142
 20
8.628913385826772
 10
-21.44024803149606
 20
8.56332283464567
 10
-21.54225984251968
 20
8.48915748031496
 10
-21.63827559055118
 20
8.415555118110236
 10
-21.71872440944882
 20
8.351669291338583
 10
-21.77401968503937
 20
8.306629921259843
 10
-21.79457874015748
 20
8.289586614173228
 10
-21.91999606299213
 20
8.1945
 10
-22.11658661417323
 20
8.04105905511811
 10
-22.35725984251969
 20
7.851161417322834
 10
-22.61492125984252
 20
7.646696850393701
 10
-22.8624842519685
 20
7.449555118110236
 10
-23.07285433070866
 20
7.28163779527559
 10
-23.21894488188977
 20
7.164830708661417
 10
-23.27366141732283
 20
7.121031496062992
 10
-23.36003149606299
 20
7.049834645669291
 10
-23.42320866141732
 20
6.984188976377952
 10
-23.46679527559055
 20
6.925303149606299
 10
-23.49438188976378
 20
6.874393700787402
 10
-23.50957086614173
 20
6.832685039370078
 10
-23.51596850393701
 20
6.801385826771654
 10
-23.51716535433071
 20
6.781712598425197
 10
-23.51676377952756
 20
6.774885826771653
 10
-23.51562992125984
 20
6.744287401574804
 10
-23.51266535433071
 20
6.663122047244094
 10
-23.5085157480315
 20
6.547342519685039
 10
-23.50382677165354
 20
6.412893700787402
 10
-23.49924015748032
 20
6.275728346456693
 10
-23.49541338582677
 20
6.151799212598426
 10
-23.4929842519685
 20
6.057051181102362
 10
-23.49260236220472
 20
6.007437007874016
 10
-23.48956692913386
 20
6.002200787401574
 10
-23.47951181102362
 20
5.987098425196851
 10
-23.46100787401575
 20
5.963051181102363
 10
-23.43262992125984
 20
5.930976377952756
 10
-23.39295669291339
 20
5.891783464566929
 10
-23.34055905511811
 20
5.846393700787401
 10
-23.27401181102362
 20
5.795724409448819
 10
-23.19188976377953
 20
5.740688976377953
 10
-22.89099606299213
 20
5.584106299212598
 10
-22.5774094488189
 20
5.40959842519685
 10
-22.25670472440945
 20
5.222834645669291
 10
-21.93444881889764
 20
5.02948031496063
 10
-21.61622440944882
 20
4.835196850393701
 10
-21.30759842519685
 20
4.645653543307087
 10
-21.01414566929134
 20
4.466511811023622
 10
-20.74143700787402
 20
4.303444881889764
 10
-20.68977952755905
 20
4.275248031496063
 10
-20.64151181102362
 20
4.253952755905511
 10
-20.59608661417323
 20
4.240106299212599
 10
-20.55296456692913
 20
4.234236220472441
 10
-20.5115905511811
 20
4.236889763779527
 10
-20.47142125984252
 20
4.248602362204724
 10
-20.43190551181102
 20
4.269909448818898
 10
-20.3925
 20
4.301350393700788
 10
-20.14005905511811
 20
4.53490157480315
 10
-19.86301968503937
 20
4.790681102362205
 10
-19.57080708661417
 20
5.061208661417322
 10
-19.27285039370079
 20
5.339
 10
-18.97857086614173
 20
5.616582677165354
 10
-18.69738976377953
 20
5.886468503937007
 10
-18.43873622047244
 20
6.141181102362204
 10
-18.21203149606299
 20
6.373236220472441
  0
LWPOLYLINE
  5
62
330
1F
100
AcDbEntity
  8
Layer 1
 62
     7
370
    15
100
AcDbPolyline
 90
       54
 70
     0
 43
0.0
 10
-23.46673622047244
 20
5.959897637795276
 10
-23.4680905511811
 20
5.958984251968504
 10
-23.47174803149606
 20
5.956212598425197
 10
-23.47708661417323
 20
5.951535433070866
 10
-23.48349606299213
 20
5.944905511811023
 10
-23.49035433070866
 20
5.936267716535433
 10
-23.49705118110236
 20
5.925582677165354
 10
-23.50297244094488
 20
5.912799212598425
 10
-23.50749606299213
 20
5.897866141732283
 10
-23.50585433070866
 20
5.405968503937008
 10
-23.50533464566929
 20
5.403728346456693
 10
-23.50309448818898
 20
5.397271653543307
 10
-23.49811417322834
 20
5.386976377952756
 10
-23.48937401574803
 20
5.373244094488189
 10
-23.47585826771654
 20
5.356452755905512
 10
-23.45654330708662
 20
5.336992125984252
 10
-23.43041338582677
 20
5.315255905511811
 10
-23.39644488188976
 20
5.291625984251969
 10
-23.38735039370079
 20
5.285830708661417
 10
-23.3627125984252
 20
5.270070866141732
 10
-23.32648031496063
 20
5.246795275590551
 10
-23.28261417322835
 20
5.218440944881889
 10
-23.23507086614173
 20
5.187452755905512
 10
-23.18780708661417
 20
5.156275590551181
 10
-23.14477559055118
 20
5.127354330708662
 10
-23.10993700787402
 20
5.103129921259843
 10
-23.08059842519685
 20
5.085110236220473
 10
-23.00288976377953
 20
5.03740157480315
 10
-22.89227559055118
 20
4.969535433070866
 10
-22.76422047244094
 20
4.89103937007874
 10
-22.63418897637795
 20
4.811437007874016
 10
-22.51763779527559
 20
4.740259842519685
 10
-22.43003149606299
 20
4.68703937007874
 10
-22.38683858267716
 20
4.661299212598426
 10
-21.23531102362205
 20
3.968086614173228
 10
-21.21311023622047
 20
3.954685039370079
 10
-21.1539094488189
 20
3.919177165354331
 10
-21.06881496062992
 20
3.86861811023622
 10
-20.96894094488189
 20
3.810055118110236
 10
-20.86538976377953
 20
3.75053937007874
 10
-20.76927559055118
 20
3.697122047244095
 10
-20.6916968503937
 20
3.656854330708661
 10
-20.64376771653543
 20
3.636787401574803
 10
-20.63827952755906
 20
3.635366141732284
 10
-20.62317322834646
 20
3.632181102362205
 10
-20.60047637795276
 20
3.628858267716535
 10
-20.57222047244095
 20
3.627015748031496
 10
-20.54043700787402
 20
3.628267716535433
 10
-20.50715354330709
 20
3.634248031496063
 10
-20.47440551181102
 20
3.646562992125984
 10
-20.44421653543307
 20
3.666846456692913
 10
-19.76148031496063
 20
4.301173228346457
 10
-18.89558661417323
 20
5.116192913385826
 10
-18.72712992125984
 20
5.264586614173228
  0
LWPOLYLINE
  5
63
330
1F
100
AcDbEntity
  8
Layer 1
 62
     7
370
    15
100
AcDbPolyline
 90
       33
 70
     0
 43
0.0
 10
-23.51676377952756
 20
6.774885826771653
 10
-23.52594488188976
 20
6.779783464566929
 10
-23.5504094488189
 20
6.793118110236221
 10
-23.58554724409449
 20
6.812866141732283
 10
-23.62673228346457
 20
6.836992125984252
 10
-23.66935433070866
 20
6.863464566929133
 10
-23.70879527559055
 20
6.890259842519685
 10
-23.74043700787401
 20
6.915338582677165
 10
-23.75966929133858
 20
6.936677165354331
 10
-23.76005905511811
 20
6.941185039370079
 10
-23.75969291338583
 20
6.954287401574804
 10
-23.75625196850394
 20
6.975362204724409
 10
-23.74743307086614
 20
7.003779527559055
 10
-23.73091732283465
 20
7.038917322834646
 10
-23.7043937007874
 20
7.080149606299212
 10
-23.66555511811024
 20
7.126850393700788
 10
-23.61208267716535
 20
7.178393700787401
 10
-23.593
 20
7.195515748031496
 10
-23.5418188976378
 20
7.240799212598425
 10
-23.46762598425197
 20
7.30511811023622
 10
-23.37952362204724
 20
7.379342519685039
 10
-23.28659842519685
 20
7.454346456692913
 10
-23.19795275590551
 20
7.521003937007874
 10
-23.12267322834646
 20
7.570188976377953
 10
-23.06985826771654
 20
7.592775590551181
 10
-23.06688582677165
 20
7.592417322834645
 10
-23.05762598425197
 20
7.590417322834646
 10
-23.04157086614173
 20
7.585389763779528
 10
-23.01820866141732
 20
7.575948818897638
 10
-22.98702755905512
 20
7.560704724409449
 10
-22.94751968503937
 20
7.538275590551181
 10
-22.89916929133858
 20
7.507275590551181
 10
-22.84147244094488
 20
7.466311023622048
  0
LWPOLYLINE
  5
64
330
1F
100
AcDbEntity
  8
Layer 1
 62
     7
370
    15
100
AcDbPolyline
 90
        5
 70
     1
 43
0.0
 10
-24.32413779527559
 20
7.089610236220472
 10
-23.97249606299212
 20
6.909968503937008
 10
-23.94813779527559
 20
6.003728346456693
 10
-24.30046456692913
 20
6.208818897637795
 10
-24.32413779527559
 20
7.089610236220472
  0
LWPOLYLINE
  5
65
330
1F
100
AcDbEntity
  8
Layer 1
 62
     7
370
    15
100
AcDbPolyline
 90
        5
 70
     1
 43
0.0
 10
-24.32413779527559
 20
7.089610236220472
 10
-23.97249606299212
 20
6.909968503937008
 10
-22.36570078740158
 20
8.230511811023622
 10
-22.70887007874016
 20
8.40335433070866
 10
-24.32413779527559
 20
7.089610236220472
  0
LWPOLYLINE
  5
66
330
1F
100
AcDbEntity
  8
Layer 1
 62
     7
370
    15
100
AcDbPolyline
 90
        2
 70
     0
 43
0.0
 10
-22.36570078740158
 20
8.230511811023622
 10
-22.35563385826772
 20
7.855948818897637
  0
LWPOLYLINE
  5
67
330
1F
100
AcDbEntity
  8
Layer 1
 62
     7
370
    15
100
AcDbPolyline
 90
        2
 70
     0
 43
0.0
 10
-23.94756299212598
 20
5.997937007874016
 10
-23.50247637795276
 20
6.373503937007874
  0
LWPOLYLINE
  5
68
330
1F
100
AcDbEntity
  8
Layer 1
 62
     7
370
    15
100
AcDbPolyline
 90
       65
 70
     1
 43
0.0
 10
-23.15693307086614
 20
6.730444881889764
 10
-23.16525984251968
 20
6.73517716535433
 10
-23.18490157480315
 20
6.749665354330709
 10
-23.20785039370079
 20
6.774338582677165
 10
-23.22610236220472
 20
6.809633858267716
 10
-23.23164566929134
 20
6.855976377952756
 10
-23.21647244094488
 20
6.913807086614173
 10
-23.17258267716536
 20
6.983551181102362
 10
-23.09196062992126
 20
7.065645669291339
 10
-23.02161811023622
 20
7.12390157480315
 10
-22.83453543307087
 20
7.27805905511811
 10
-22.56661811023622
 20
7.497192913385827
 10
-22.25377165354331
 20
7.750385826771653
 10
-21.93190551181102
 20
8.006716535433071
 10
-21.63692913385827
 20
8.235267716535432
 10
-21.40474803149606
 20
8.405110236220473
 10
-21.27127559055118
 20
8.485334645669292
 10
-21.18403149606299
 20
8.496275590551182
 10
-21.07198818897638
 20
8.482488188976378
 10
-20.94324409448819
 20
8.449326771653544
 10
-20.80588188976378
 20
8.402141732283464
 10
-20.66799606299213
 20
8.346283464566929
 10
-20.5376811023622
 20
8.287114173228346
 10
-20.42302362204724
 20
8.22998031496063
 10
-20.33211417322835
 20
8.180236220472441
 10
-20.26575196850394
 20
8.145279527559055
 10
-20.08968503937008
 20
8.052602362204725
 10
-19.83842913385827
 20
7.92048031496063
 10
-19.54650393700787
 20
7.767204724409448
 10
-19.24843307086614
 20
7.611051181102362
 10
-18.97873228346457
 20
7.470307086614174
 10
-18.77192913385827
 20
7.363255905511811
 10
-18.66253937007874
 20
7.308177165354331
 10
-18.61386220472441
 20
7.283248031496063
 10
-18.56717716535433
 20
7.254291338582677
 10
-18.5239842519685
 20
7.22103937007874
 10
-18.48579921259843
 20
7.183244094488189
 10
-18.45413385826772
 20
7.140641732283465
 10
-18.43049606299213
 20
7.092976377952755
 10
-18.4163937007874
 20
7.039988188976378
 10
-18.41334645669291
 20
6.98142125984252
 10
-18.47708267716536
 20
6.921366141732284
 10
-18.6492874015748
 20
6.760169291338583
 10
-18.90146850393701
 20
6.526271653543307
 10
-19.20512992125984
 20
6.248114173228347
 10
-19.53177559055118
 20
5.954149606299213
 10
-19.85291338582677
 20
5.672814960629921
 10
-20.14003937007874
 20
5.432555118110236
 10
-20.36466141732284
 20
5.261814960629922
 10
-20.37179133858268
 20
5.256633858267716
 10
-20.39361417322835
 20
5.244822834645669
 10
-20.43079527559055
 20
5.231996062992126
 10
-20.48399606299213
 20
5.223748031496063
 10
-20.55386614173228
 20
5.225692913385827
 10
-20.64107480314961
 20
5.243433070866142
 10
-20.74627559055118
 20
5.282574803149607
 10
-20.87012992125984
 20
5.348720472440945
 10
-20.95067322834646
 20
5.393370078740158
 10
-21.1666968503937
 20
5.514145669291339
 10
-21.4797874015748
 20
5.691279527559055
 10
-21.85153937007874
 20
5.905003937007874
 10
-22.24353937007874
 20
6.135547244094488
 10
-22.61737795275591
 20
6.363145669291338
 10
-22.93464566929134
 20
6.568035433070866
 10
-23.15693307086614
 20
6.730444881889764
  0
LWPOLYLINE
  5
69
330
1F
100
AcDbEntity
  8
Layer 1
 62
     7
370
    15
100
AcDbPolyline
 90
       11
 70
     0
 43
0.0
 10
-23.5041968503937
 20
5.798547244094488
 10
-20.70497637795276
 20
4.122047244094488
 10
-20.69792125984252
 20
4.116870078740157
 10
-20.67785433070866
 20
4.104590551181102
 10
-20.64644094488189
 20
4.090082677165355
 10
-20.60533858267717
 20
4.078224409448818
 10
-20.5561968503937
 20
4.073889763779528
 10
-20.5006811023622
 20
4.081952755905512
 10
-20.44044881889764
 20
4.107295275590551
 10
-20.37715748031496
 20
4.154783464566929
 10
-18.26672047244094
 20
6.135830708661417
  0
LWPOLYLINE
  5
6A
330
1F
100
AcDbEntity
  8
Layer 1
 62
     7
370
    15
100
AcDbPolyline
 90
        2
 70
     0
 43
0.0
 10
-20.55503149606299
 20
4.083366141732284
 10
-20.54279527559055
 20
3.628236220472441
  0
LWPOLYLINE
  5
6B
330
1F
100
AcDbEntity
  8
Layer 1
 62
     7
370
    15
100
AcDbPolyline
 90
       33
 70
     0
 43
0.0
 10
-21.34786614173228
 20
5.632255905511811
 10
-21.34899606299212
 20
5.636751968503937
 10
-21.34675590551181
 20
5.6551968503937
 10
-21.33883858267717
 20
5.684204724409449
 10
-21.32293700787402
 20
5.720393700787402
 10
-21.29672834645669
 20
5.760377952755905
 10
-21.25791338582677
 20
5.800771653543307
 10
-21.20417716535433
 20
5.838185039370079
 10
-21.13320472440945
 20
5.869236220472441
 10
-21.0664094488189
 20
5.887141732283465
 10
-20.99457874015748
 20
5.898066929133858
 10
-20.92005511811024
 20
5.901192913385827
 10
-20.84517322834646
 20
5.895685039370079
 10
-20.77227952755905
 20
5.880728346456693
 10
-20.7037125984252
 20
5.855492125984252
 10
-20.64180708661417
 20
5.819149606299213
 10
-20.58891338582677
 20
5.770881889763779
 10
-20.56245275590551
 20
5.735834645669291
 10
-20.54176771653543
 20
5.698299212598426
 10
-20.52696062992126
 20
5.65901968503937
 10
-20.51814566929134
 20
5.618740157480315
 10
-20.51542125984252
 20
5.578200787401575
 10
-20.51889763779528
 20
5.538153543307087
 10
-20.52868110236221
 20
5.499338582677165
 10
-20.5448779527559
 20
5.462503937007874
 10
-20.56338188976378
 20
5.433811023622047
 10
-20.58648818897638
 20
5.407444881889764
 10
-20.61425196850394
 20
5.383838582677165
 10
-20.64673622047244
 20
5.363429133858268
 10
-20.68400393700787
 20
5.346649606299213
 10
-20.72611417322835
 20
5.333929133858268
 10
-20.77312598425197
 20
5.325700787401574
 10
-20.8251062992126
 20
5.322401574803149
  0
LWPOLYLINE
  5
6C
330
1F
100
AcDbEntity
  8
Layer 1
 62
     7
370
    15
100
AcDbPolyline
 90
       56
 70
     1
 43
0.0
 10
-20.62522834645669
 20
5.640905511811024
 10
-20.63031102362205
 20
5.607468503937008
 10
-20.64661811023622
 20
5.576015748031496
 10
-20.67298818897638
 20
5.547244094488189
 10
-20.70825196850394
 20
5.521850393700787
 10
-20.75124409448819
 20
5.500523622047244
 10
-20.80080708661417
 20
5.48396062992126
 10
-20.85576377952756
 20
5.472858267716536
 10
-20.91496062992126
 20
5.467913385826772
 10
-20.97432677165354
 20
5.469673228346457
 10
-21.02979921259843
 20
5.477807086614173
 10
-21.08017322834646
 20
5.491681102362205
 10
-21.12425590551181
 20
5.510669291338583
 10
-21.16083464566929
 20
5.534133858267716
 10
-21.18871653543307
 20
5.561444881889764
 10
-21.20669291338583
 20
5.591976377952756
 10
-21.21356692913386
 20
5.625090551181103
 10
-21.21314960629921
 20
5.636787401574803
 10
-21.21130708661417
 20
5.648311023622047
 10
-21.20807874015748
 20
5.659629921259842
 10
-21.2035157480315
 20
5.670716535433071
 10
-21.19766929133858
 20
5.68153937007874
 10
-21.1905905511811
 20
5.692062992125984
 10
-21.1823188976378
 20
5.702255905511811
 10
-21.17291338582677
 20
5.712094488188977
 10
-21.19588188976378
 20
14.97337795275591
 10
-21.19842913385827
 20
14.98256692913386
 10
-21.20037007874016
 20
14.9919094488189
 10
-21.20166535433071
 20
15.00138582677165
 10
-21.20227952755906
 20
15.01098031496063
 10
-21.19662992125984
 20
15.05371653543307
 10
-21.17822047244094
 20
15.09388188976378
 10
-21.14836220472441
 20
15.1305905511811
 10
-21.10838582677165
 20
15.16295275590551
 10
-21.05961417322835
 20
15.19007874015748
 10
-21.00336614173228
 20
15.21108661417323
 10
-20.94096062992126
 20
15.22508661417323
 10
-20.87372834645669
 20
15.23118897637795
 10
-20.80626377952756
 20
15.22870472440945
 10
-20.7431968503937
 20
15.21807874015748
 10
-20.6858937007874
 20
15.20012598425197
 10
-20.63572834645669
 20
15.17565748031496
 10
-20.59406692913386
 20
15.14548818897638
 10
-20.56227559055118
 20
15.11044094488189
 10
-20.54172834645669
 20
15.07132283464567
 10
-20.53379133858268
 20
15.02894881889764
 10
-20.53375984251969
 20
15.02337401574803
 10
-20.53396062992126
 20
15.01782677165354
 10
-20.53438582677165
 20
15.0123031496063
 10
-20.53503937007874
 20
15.00681102362205
 10
-20.5359094488189
 20
15.00135039370079
 10
-20.53699212598425
 20
14.99592519685039
 10
-20.5382874015748
 20
14.99054330708661
 10
-20.5397874015748
 20
14.98520472440945
 10
-20.53726771653543
 20
14.98513385826772
 10
-20.62522834645669
 20
5.640905511811024
  0
LWPOLYLINE
  5
6D
330
1F
100
AcDbEntity
  8
Layer 1
 62
     7
370
    15
100
AcDbPolyline
 90
       33
 70
     1
 43
0.0
 10
-20.87680708661417
 20
15.2311062992126
 10
-20.80935039370079
 20
15.22895275590551
 10
-20.74631102362205
 20
15.21927165354331
 10
-20.68905511811024
 20
15.20281102362205
 10
-20.63894881889764
 20
15.18032283464567
 10
-20.59735826771654
 20
15.15255118110236
 10
-20.56564960629921
 20
15.12024803149606
 10
-20.54518503937008
 20
15.08416535433071
 10
-20.53733858267717
 20
15.04504724409449
 10
-20.54307480314961
 20
15.00556692913386
 10
-20.56156692913386
 20
14.96843307086614
 10
-20.59149606299212
 20
14.93447637795276
 10
-20.63153937007874
 20
14.90451181102362
 10
-20.68036220472441
 20
14.87936220472441
 10
-20.73665354330709
 20
14.85985039370079
 10
-20.79907874015748
 20
14.84679921259842
 10
-20.86632283464567
 20
14.84102362204724
 10
-20.93377952755905
 20
14.84317716535433
 10
-20.99681496062992
 20
14.85285826771653
 10
-21.05407086614173
 20
14.8693188976378
 10
-21.10417716535433
 20
14.89180708661417
 10
-21.14577165354331
 20
14.91957874015748
 10
-21.17748031496063
 20
14.95188188976378
 10
-21.19794094488189
 20
14.98796456692913
 10
-21.20579133858268
 20
15.02708267716535
 10
-21.20005511811024
 20
15.06656692913386
 10
-21.18156299212598
 20
15.1036968503937
 10
-21.15163385826772
 20
15.13765354330709
 10
-21.11159448818898
 20
15.16761811023622
 10
-21.06276771653543
 20
15.19276771653543
 10
-21.00647637795275
 20
15.21227952755905
 10
-20.94405118110236
 20
15.22533070866142
 10
-20.87680708661417
 20
15.2311062992126
  0
LWPOLYLINE
  5
6E
330
1F
100
AcDbEntity
  8
Layer 1
 62
     7
370
    15
100
AcDbPolyline
 90
        9
 70
     0
 43
0.0
 10
-20.57564566929134
 20
3.627110236220473
 10
-20.57549606299213
 20
3.546653543307086
 10
-20.57562598425197
 20
3.332307086614173
 10
-20.5768937007874
 20
3.024610236220473
 10
-20.58015354330709
 20
2.66409842519685
 10
-20.58627165354331
 20
2.291303149606299
 10
-20.5961062992126
 20
1.946763779527559
 10
-20.61051181102362
 20
1.671015748031496
 10
-20.63035433070866
 20
1.504594488188976
  0
LWPOLYLINE
  5
6F
330
1F
100
AcDbEntity
  8
Layer 1
 62
     7
370
    18
100
AcDbPolyline
 90
        4
 70
     1
 43
0.0
 10
-17.22570472440945
 20
15.20857480314961
 10
-17.24026771653543
 20
15.23555905511811
 10
-17.25525984251968
 20
15.20881102362205
 10
-17.22570472440945
 20
15.20857480314961
  0
LWPOLYLINE
  5
70
330
1F
100
AcDbEntity
  8
Layer 1
 62
     7
370
    18
100
AcDbPolyline
 90
        4
 70
     1
 43
0.0
 10
-17.33530708661417
 20
1.469917322834646
 10
-17.35029921259843
 20
1.443169291338583
 10
-17.36486220472441
 20
1.470153543307087
 10
-17.33530708661417
 20
1.469917322834646
  0
LWPOLYLINE
  5
71
330
1F
100
AcDbEntity
  8
Layer 1
 62
     7
370
    18
100
AcDbPolyline
 90
        2
 70
     0
 43
0.0
 10
-17.24177559055118
 20
15.24452755905512
 10
-17.35194881889764
 20
1.434228346456693
  0
LWPOLYLINE
  5
72
330
1F
100
AcDbEntity
  8
Layer 1
 62
     7
370
     9
100
AcDbPolyline
 90
      137
 70
     1
 43
0.0
 10
-16.62636614173228
 20
7.393153543307086
 10
-16.61672440944882
 20
7.397472440944882
 10
-16.6073779527559
 20
7.402181102362205
 10
-16.59832677165354
 20
7.407271653543307
 10
-16.58957086614173
 20
7.412748031496063
 10
-16.58111023622047
 20
7.418606299212598
 10
-16.57294488188976
 20
7.424846456692913
 10
-16.56507086614173
 20
7.431468503937008
 10
-16.55748818897638
 20
7.438468503937008
 10
-16.54255905511811
 20
7.454318897637795
 10
-16.52962204724409
 20
7.47105905511811
 10
-16.51867716535433
 20
7.488685039370079
 10
-16.50972047244095
 20
7.507200787401575
 10
-16.50275196850394
 20
7.526594488188977
 10
-16.49777559055118
 20
7.546874015748031
 10
-16.49479133858268
 20
7.568035433070866
 10
-16.49379527559055
 20
7.59007874015748
 10
-16.49480708661417
 20
7.612133858267716
 10
-16.49784251968504
 20
7.633330708661417
 10
-16.50290157480315
 20
7.653673228346457
 10
-16.50997637795276
 20
7.673157480314961
 10
-16.51907480314961
 20
7.691783464566929
 10
-16.53018503937008
 20
7.709555118110236
 10
-16.54331102362205
 20
7.726468503937008
 10
-16.55844881889764
 20
7.742527559055118
 10
-16.57410236220472
 20
7.756397637795276
 10
-16.59075984251968
 20
7.76861811023622
 10
-16.60842125984252
 20
7.779185039370079
 10
-16.62708267716535
 20
7.788098425196851
 10
-16.64674803149606
 20
7.79536220472441
 10
-16.66741338582677
 20
7.800972440944882
 10
-16.68908267716536
 20
7.804929133858268
 10
-16.71175196850394
 20
7.807236220472441
 10
-16.74007086614173
 20
7.790236220472441
 10
-16.53911811023622
 20
8.02821653543307
 10
-16.88442125984252
 20
8.02821653543307
 10
-16.88442125984252
 20
7.962110236220473
 10
-16.67308661417323
 20
7.962110236220473
 10
-16.86745275590551
 20
7.73544094488189
 10
-16.81743700787402
 20
7.694850393700787
 10
-16.80584645669291
 20
7.705472440944882
 10
-16.79372834645669
 20
7.714681102362205
 10
-16.78108267716535
 20
7.722472440944882
 10
-16.76790551181102
 20
7.728850393700787
 10
-16.75420078740158
 20
7.733814960629921
 10
-16.73996456692914
 20
7.737358267716536
 10
-16.72519291338583
 20
7.739488188976378
 10
-16.70988976377953
 20
7.7401968503937
 10
-16.69461417322835
 20
7.739511811023622
 10
-16.6799094488189
 20
7.737452755905512
 10
-16.66577952755906
 20
7.734023622047244
 10
-16.65222047244094
 20
7.729220472440945
 10
-16.63924015748032
 20
7.723051181102362
 10
-16.62683070866142
 20
7.715507874015748
 10
-16.61499606299213
 20
7.706594488188976
 10
-16.60374015748031
 20
7.696311023622047
 10
-16.59345669291339
 20
7.685051181102362
 10
-16.58454724409449
 20
7.673244094488189
 10
-16.57700787401575
 20
7.660897637795276
 10
-16.57084251968504
 20
7.648003937007874
 10
-16.56604724409449
 20
7.634566929133858
 10
-16.56262204724409
 20
7.620586614173228
 10
-16.56056692913386
 20
7.606055118110236
 10
-16.55988188976378
 20
7.59098031496063
 10
-16.56058267716535
 20
7.576244094488189
 10
-16.56268110236221
 20
7.562007874015748
 10
-16.56617716535433
 20
7.548271653543307
 10
-16.57107874015748
 20
7.53503937007874
 10
-16.57737795275591
 20
7.522311023622048
 10
-16.58508267716535
 20
7.510082677165355
 10
-16.59418897637795
 20
7.498362204724409
 10
-16.60470078740158
 20
7.487141732283464
 10
-16.60987401574803
 20
7.482303149606299
 10
-16.61527165354331
 20
7.477716535433071
 10
-16.62089763779528
 20
7.473385826771653
 10
-16.62674409448819
 20
7.469303149606299
 10
-16.63281496062992
 20
7.465476377952756
 10
-16.6391062992126
 20
7.461897637795276
 10
-16.6456220472441
 20
7.458574803149606
 10
-16.65235433070866
 20
7.4555
 10
-16.65936220472441
 20
7.452732283464567
 10
-16.66672834645669
 20
7.450334645669291
 10
-16.67445275590551
 20
7.448299212598426
 10
-16.68252755905512
 20
7.446629921259842
 10
-16.69095669291339
 20
7.445330708661417
 10
-16.69973622047244
 20
7.44440157480315
 10
-16.70886614173228
 20
7.443842519685039
 10
-16.71834251968504
 20
7.44365748031496
 10
-16.72801968503937
 20
7.444062992125985
 10
-16.7376968503937
 20
7.445283464566929
 10
-16.7473779527559
 20
7.447314960629921
 10
-16.75705905511811
 20
7.450161417322835
 10
-16.76673622047244
 20
7.453818897637795
 10
-16.77641732283465
 20
7.458291338582677
 10
-16.78609448818898
 20
7.463574803149606
 10
-16.79577165354331
 20
7.469673228346457
 10
-16.80507086614173
 20
7.476440944881889
 10
-16.81366929133858
 20
7.483787401574803
 10
-16.82156299212598
 20
7.491712598425197
 10
-16.82875590551181
 20
7.500212598425197
 10
-16.83524409448819
 20
7.509295275590551
 10
-16.84102755905512
 20
7.518952755905512
 10
-16.8461062992126
 20
7.529188976377953
 10
-16.85048031496063
 20
7.540007874015748
 10
-16.9146062992126
 20
7.518283464566929
 10
-16.90851181102362
 20
7.502897637795275
 10
-16.90131102362205
 20
7.488248031496063
 10
-16.89300393700787
 20
7.474334645669291
 10
-16.88358661417323
 20
7.461161417322835
 10
-16.87306299212598
 20
7.448724409448819
 10
-16.86143700787402
 20
7.43701968503937
 10
-16.84870866141732
 20
7.426051181102363
 10
-16.83487401574803
 20
7.415811023622047
 10
-16.82808661417323
 20
7.411334645669291
 10
-16.82112992125984
 20
7.407110236220473
 10
-16.81400393700788
 20
7.403133858267717
 10
-16.8067125984252
 20
7.399413385826771
 10
-16.79925984251969
 20
7.395937007874016
 10
-16.79164566929134
 20
7.392712598425197
 10
-16.78387007874016
 20
7.389732283464567
 10
-16.77594094488189
 20
7.387
 10
-16.7678031496063
 20
7.384570866141733
 10
-16.75944488188976
 20
7.382464566929134
 10
-16.75087007874016
 20
7.380681102362205
 10
-16.74207874015748
 20
7.379220472440945
 10
-16.73306692913386
 20
7.378082677165354
 10
-16.72383070866142
 20
7.377271653543307
 10
-16.71437795275591
 20
7.376779527559055
 10
-16.7046968503937
 20
7.376618110236221
 10
-16.69490551181102
 20
7.376877952755906
 10
-16.68511417322835
 20
7.37765748031496
 10
-16.67532283464567
 20
7.378956692913386
 10
-16.66553149606299
 20
7.380771653543307
 10
-16.65574015748032
 20
7.383098425196851
 10
-16.64594881889764
 20
7.38594094488189
 10
-16.63615748031496
 20
7.389291338582678
 10
-16.62636614173228
 20
7.393153543307086
  0
LWPOLYLINE
  5
73
330
1F
100
AcDbEntity
  8
Layer 1
 62
     7
370
     9
100
AcDbPolyline
 90
        7
 70
     1
 43
0.0
 10
-16.32305511811024
 20
7.386098425196851
 10
-16.04097244094488
 20
8.025358267716536
 10
-16.44381496062992
 20
8.025358267716536
 10
-16.44381496062992
 20
7.959279527559056
 10
-16.14379527559055
 20
7.959279527559056
 10
-16.39666141732284
 20
7.386098425196851
 10
-16.32305511811024
 20
7.386098425196851
  0
LWPOLYLINE
  5
74
330
1F
100
AcDbEntity
  8
Layer 1
 62
     7
370
     9
100
AcDbPolyline
 90
       87
 70
     1
 43
0.0
 10
-15.97585433070866
 20
7.386098425196851
 10
-15.52389763779528
 20
7.386098425196851
 10
-15.52389763779528
 20
7.452204724409449
 10
-15.8163937007874
 20
7.452204724409449
 10
-15.59277952755905
 20
7.674086614173229
 10
-15.57818897637795
 20
7.690074803149606
 10
-15.56554724409449
 20
7.706858267716536
 10
-15.55484645669291
 20
7.724429133858267
 10
-15.5460905511811
 20
7.742799212598425
 10
-15.53927952755905
 20
7.76196062992126
 10
-15.53441338582677
 20
7.78192125984252
 10
-15.53149212598425
 20
7.80267716535433
 10
-15.53051968503937
 20
7.824236220472441
 10
-15.5315157480315
 20
7.846279527559055
 10
-15.5345
 20
7.867437007874016
 10
-15.53947637795276
 20
7.887712598425197
 10
-15.54644094488189
 20
7.907102362204724
 10
-15.55539763779528
 20
7.925606299212599
 10
-15.56634251968504
 20
7.943228346456693
 10
-15.57927952755906
 20
7.959964566929134
 10
-15.59420866141732
 20
7.975814960629921
 10
-15.61079921259843
 20
7.990523622047244
 10
-15.62812598425197
 20
8.003275590551182
 10
-15.64618503937008
 20
8.014062992125984
 10
-15.66497637795276
 20
8.022893700787401
 10
-15.68450787401575
 20
8.02976377952756
 10
-15.70477952755905
 20
8.034673228346456
 10
-15.72579133858268
 20
8.03761811023622
 10
-15.74754330708661
 20
8.03859842519685
 10
-15.77011417322835
 20
8.037566929133858
 10
-15.79184645669291
 20
8.034468503937008
 10
-15.81274409448819
 20
8.0293031496063
 10
-15.8328031496063
 20
8.022070866141732
 10
-15.85201968503937
 20
8.01277559055118
 10
-15.8703937007874
 20
8.00141338582677
 10
-15.88792519685039
 20
7.987984251968504
 10
-15.90461023622047
 20
7.972492125984252
 10
-15.91947637795276
 20
7.955830708661417
 10
-15.93223622047244
 20
7.938303149606299
 10
-15.94288582677165
 20
7.919897637795276
 10
-15.95142913385827
 20
7.900625984251969
 10
-15.95786614173228
 20
7.88048031496063
 10
-15.96219291338583
 20
7.859464566929134
 10
-15.96441732283465
 20
7.83757874015748
 10
-15.96453937007874
 20
7.814818897637795
 10
-15.89755511811024
 20
7.814818897637795
 10
-15.89811023622047
 20
7.82957874015748
 10
-15.89707480314961
 20
7.844003937007874
 10
-15.89444881889764
 20
7.858086614173228
 10
-15.89023228346457
 20
7.871830708661418
 10
-15.88442519685039
 20
7.885232283464567
 10
-15.87702755905512
 20
7.898291338582677
 10
-15.86803543307087
 20
7.911007874015748
 10
-15.85745669291339
 20
7.923381889763779
 10
-15.84613385826772
 20
7.934448818897637
 10
-15.83422440944882
 20
7.94403937007874
 10
-15.82172440944882
 20
7.952157480314961
 10
-15.80862992125984
 20
7.958795275590552
 10
-15.79494881889764
 20
7.963956692913386
 10
-15.78067322834646
 20
7.967645669291339
 10
-15.7658031496063
 20
7.969858267716535
 10
-15.75034251968504
 20
7.970594488188977
 10
-15.73518503937008
 20
7.969929133858268
 10
-15.72060236220472
 20
7.967937007874016
 10
-15.7065905511811
 20
7.964614173228346
 10
-15.69315748031496
 20
7.959964566929134
 10
-15.68029527559055
 20
7.953984251968504
 10
-15.66800787401575
 20
7.94667716535433
 10
-15.65629527559055
 20
7.93803937007874
 10
-15.64515354330709
 20
7.928074803149606
 10
-15.63487007874016
 20
7.917074803149606
 10
-15.62596062992126
 20
7.905543307086615
 10
-15.61842519685039
 20
7.893476377952756
 10
-15.61225590551181
 20
7.88088188976378
 10
-15.60746062992126
 20
7.867755905511811
 10
-15.60403543307087
 20
7.854098425196851
 10
-15.60198031496063
 20
7.839913385826772
 10
-15.60129527559055
 20
7.825200787401575
 10
-15.60195669291339
 20
7.81013779527559
 10
-15.60394881889764
 20
7.795665354330708
 10
-15.60726377952756
 20
7.781791338582678
 10
-15.6119094488189
 20
7.768507874015748
 10
-15.61787795275591
 20
7.755814960629921
 10
-15.62517716535433
 20
7.743720472440945
 10
-15.6338031496063
 20
7.732212598425197
 10
-15.64375590551181
 20
7.721299212598425
 10
-15.97585433070866
 20
7.386098425196851
  0
LWPOLYLINE
  5
75
330
1F
100
AcDbEntity
  8
Layer 1
 62
     7
370
     9
100
AcDbPolyline
 90
      162
 70
     1
 43
0.0
 10
-14.85777952755905
 20
7.387964566929134
 10
-14.79172834645669
 20
7.387964566929134
 10
-14.79172834645669
 20
7.647637795275591
 10
-14.79226771653543
 20
7.664885826771654
 10
-14.79388976377953
 20
7.68132283464567
 10
-14.79658661417323
 20
7.69694094488189
 10
-14.80036220472441
 20
7.711748031496063
 10
-14.8052125984252
 20
7.725744094488189
 10
-14.81113779527559
 20
7.738925196850394
 10
-14.81813385826772
 20
7.751295275590551
 10
-14.82620078740158
 20
7.762854330708661
 10
-14.83070078740158
 20
7.768377952755905
 10
-14.83547637795276
 20
7.773622047244094
 10
-14.84053937007874
 20
7.778586614173228
 10
-14.84587795275591
 20
7.783271653543308
 10
-14.8515
 20
7.787669291338583
 10
-14.85740551181102
 20
7.791791338582677
 10
-14.8635905511811
 20
7.795629921259843
 10
-14.87005905511811
 20
7.799185039370078
 10
-14.87693307086614
 20
7.802409448818898
 10
-14.88433070866142
 20
7.805200787401575
 10
-14.89226377952756
 20
7.807562992125984
 10
-14.90072440944882
 20
7.809492125984252
 10
-14.90972047244095
 20
7.810996062992126
 10
-14.91924409448819
 20
7.812066929133858
 10
-14.92930708661417
 20
7.812712598425197
 10
-14.93990157480315
 20
7.812925196850394
 10
-14.95057480314961
 20
7.812555118110236
 10
-14.96091338582677
 20
7.811448818897638
 10
-14.97091338582677
 20
7.809606299212598
 10
-14.98057480314961
 20
7.807023622047244
 10
-14.98989763779528
 20
7.803700787401575
 10
-14.99888582677165
 20
7.799641732283464
 10
-15.00753149606299
 20
7.794842519685039
 10
-15.01583858267717
 20
7.789303149606299
 10
-15.02304330708661
 20
7.783783464566929
 10
-15.02992519685039
 20
7.777854330708662
 10
-15.0364842519685
 20
7.771523622047244
 10
-15.04271653543307
 20
7.764791338582677
 10
-15.04862992125984
 20
7.757661417322835
 10
-15.05421653543307
 20
7.750137795275591
 10
-15.05948031496063
 20
7.742220472440945
 10
-15.06442125984252
 20
7.733917322834646
 10
-15.06825196850394
 20
7.741582677165354
 10
-15.07242913385827
 20
7.74898031496063
 10
-15.07696456692913
 20
7.756082677165354
 10
-15.08186220472441
 20
7.762854330708661
 10
-15.08637401574803
 20
7.768377952755905
 10
-15.09116141732284
 20
7.773622047244094
 10
-15.09622834645669
 20
7.778586614173228
 10
-15.10157480314961
 20
7.783271653543308
 10
-15.1071968503937
 20
7.787669291338583
 10
-15.11309842519685
 20
7.791791338582677
 10
-15.11927165354331
 20
7.795629921259843
 10
-15.12572047244094
 20
7.799185039370078
 10
-15.13259448818898
 20
7.802409448818898
 10
-15.14000393700787
 20
7.805200787401575
 10
-15.14794094488189
 20
7.807562992125984
 10
-15.1564094488189
 20
7.809492125984252
 10
-15.1654094488189
 20
7.810996062992126
 10
-15.17493307086614
 20
7.812066929133858
 10
-15.1849842519685
 20
7.812712598425197
 10
-15.19556299212598
 20
7.812925196850394
 10
-15.20624409448819
 20
7.812555118110236
 10
-15.21658661417323
 20
7.811448818897638
 10
-15.2265905511811
 20
7.809606299212598
 10
-15.23625196850394
 20
7.807023622047244
 10
-15.24557874015748
 20
7.803700787401575
 10
-15.25456299212598
 20
7.799641732283464
 10
-15.26321653543307
 20
7.794842519685039
 10
-15.27153149606299
 20
7.789303149606299
 10
-15.27840157480315
 20
7.784047244094488
 10
-15.28497637795276
 20
7.778437007874015
 10
-15.29125590551181
 20
7.772472440944882
 10
-15.29724015748032
 20
7.766149606299213
 10
-15.30292519685039
 20
7.759464566929134
 10
-15.30831102362205
 20
7.752413385826772
 10
-15.31340157480315
 20
7.745
 10
-15.31818897637795
 20
7.737212598425197
 10
-15.31818897637795
 20
7.803476377952756
 10
-15.38427165354331
 20
7.803476377952756
 10
-15.38427165354331
 20
7.387964566929134
 10
-15.31818897637795
 20
7.387964566929134
 10
-15.31818897637795
 20
7.600582677165354
 10
-15.31666929133858
 20
7.612976377952756
 10
-15.31467322834646
 20
7.624881889763779
 10
-15.31220472440945
 20
7.636311023622048
 10
-15.30926377952756
 20
7.647263779527559
 10
-15.30584645669291
 20
7.657740157480315
 10
-15.30196062992126
 20
7.667748031496063
 10
-15.29759842519685
 20
7.677287401574803
 10
-15.29276377952756
 20
7.686366141732283
 10
-15.28882283464567
 20
7.692826771653543
 10
-15.28455511811024
 20
7.698996062992126
 10
-15.27996456692913
 20
7.704866141732284
 10
-15.27505118110236
 20
7.710444881889764
 10
-15.26981496062992
 20
7.715728346456693
 10
-15.26425196850394
 20
7.720720472440945
 10
-15.25837007874016
 20
7.725413385826772
 10
-15.25216535433071
 20
7.729814960629922
 10
-15.24573228346457
 20
7.733795275590551
 10
-15.2391811023622
 20
7.737244094488189
 10
-15.2325157480315
 20
7.740165354330709
 10
-15.22573622047244
 20
7.74255905511811
 10
-15.21883858267717
 20
7.74442125984252
 10
-15.21182677165354
 20
7.745748031496063
 10
-15.20470078740157
 20
7.746547244094488
 10
-15.19746062992126
 20
7.746814960629921
 10
-15.19037795275591
 20
7.746673228346457
 10
-15.18376771653543
 20
7.746251968503937
 10
-15.17763385826772
 20
7.745547244094488
 10
-15.17197244094488
 20
7.744562992125984
 10
-15.16677952755905
 20
7.743299212598425
 10
-15.16206299212598
 20
7.741755905511811
 10
-15.15781496062992
 20
7.739933070866142
 10
-15.15403543307087
 20
7.737834645669292
 10
-15.14452755905512
 20
7.730795275590551
 10
-15.1362874015748
 20
7.722547244094488
 10
-15.12931496062992
 20
7.713090551181103
 10
-15.12361417322835
 20
7.702421259842519
 10
-15.11917716535433
 20
7.690543307086614
 10
-15.11600787401575
 20
7.677452755905512
 10
-15.1141062992126
 20
7.663149606299212
 10
-15.11347244094488
 20
7.647637795275591
 10
-15.11347244094488
 20
7.387964566929134
 10
-15.04745275590551
 20
7.387964566929134
 10
-15.04745275590551
 20
7.647637795275591
 10
-15.04788582677165
 20
7.66351968503937
 10
-15.03707086614173
 20
7.686366141732283
 10
-15.03313385826772
 20
7.692826771653543
 10
-15.02887007874016
 20
7.698996062992126
 10
-15.02428346456693
 20
7.704866141732284
 10
-15.01937401574803
 20
7.710444881889764
 10
-15.01414173228346
 20
7.715728346456693
 10
-15.00858661417323
 20
7.720720472440945
 10
-15.00270866141732
 20
7.725413385826772
 10
-14.99650393700787
 20
7.729814960629922
 10
-14.99007086614173
 20
7.733795275590551
 10
-14.98351968503937
 20
7.737244094488189
 10
-14.97685039370079
 20
7.740165354330709
 10
-14.97006692913386
 20
7.74255905511811
 10
-14.96316141732284
 20
7.74442125984252
 10
-14.95613779527559
 20
7.745748031496063
 10
-14.94899606299213
 20
7.746547244094488
 10
-14.94173622047244
 20
7.746814960629921
 10
-14.93467322834646
 20
7.746673228346457
 10
-14.92808267716535
 20
7.746251968503937
 10
-14.92195669291339
 20
7.745547244094488
 10
-14.9163031496063
 20
7.744562992125984
 10
-14.91111811023622
 20
7.743299212598425
 10
-14.90639763779528
 20
7.741755905511811
 10
-14.90215354330709
 20
7.739933070866142
 10
-14.89837401574803
 20
7.737834645669292
 10
-14.88886614173228
 20
7.730795275590551
 10
-14.88062204724409
 20
7.722547244094488
 10
-14.87364566929134
 20
7.713090551181103
 10
-14.86793700787402
 20
7.702421259842519
 10
-14.86349212598425
 20
7.690543307086614
 10
-14.86031889763779
 20
7.677452755905512
 10
-14.85841338582677
 20
7.663149606299212
 10
-14.85777952755905
 20
7.647637795275591
 10
-14.85777952755905
 20
7.387964566929134
  0
LWPOLYLINE
  5
76
330
1F
100
AcDbEntity
  8
Layer 1
 62
     7
370
     9
100
AcDbPolyline
 90
      162
 70
     1
 43
0.0
 10
-14.13788582677165
 20
7.387964566929134
 10
-14.07183464566929
 20
7.387964566929134
 10
-14.07183464566929
 20
7.647637795275591
 10
-14.07237401574803
 20
7.664885826771654
 10
-14.07399212598425
 20
7.68132283464567
 10
-14.07668503937008
 20
7.69694094488189
 10
-14.08045669291339
 20
7.711748031496063
 10
-14.0853031496063
 20
7.725744094488189
 10
-14.09122834645669
 20
7.738925196850394
 10
-14.09822834645669
 20
7.751295275590551
 10
-14.10630708661417
 20
7.762854330708661
 10
-14.11080708661417
 20
7.768377952755905
 10
-14.11558267716535
 20
7.773622047244094
 10
-14.12064566929134
 20
7.778586614173228
 10
-14.1259842519685
 20
7.783271653543308
 10
-14.1316062992126
 20
7.787669291338583
 10
-14.13751181102362
 20
7.791791338582677
 10
-14.1436968503937
 20
7.795629921259843
 10
-14.15016535433071
 20
7.799185039370078
 10
-14.15703937007874
 20
7.802409448818898
 10
-14.16443700787402
 20
7.805200787401575
 10
-14.17237007874016
 20
7.807562992125984
 10
-14.18083070866142
 20
7.809492125984252
 10
-14.18982677165354
 20
7.810996062992126
 10
-14.19935039370079
 20
7.812066929133858
 10
-14.20941338582677
 20
7.812712598425197
 10
-14.22000787401575
 20
7.812925196850394
 10
-14.2306811023622
 20
7.812555118110236
 10
-14.24101181102362
 20
7.811448818897638
 10
-14.25101181102362
 20
7.809606299212598
 10
-14.26066929133858
 20
7.807023622047244
 10
-14.26999212598425
 20
7.803700787401575
 10
-14.27898031496063
 20
7.799641732283464
 10
-14.28762992125984
 20
7.794842519685039
 10
-14.29594488188976
 20
7.789303149606299
 10
-14.30314960629921
 20
7.783783464566929
 10
-14.31002755905512
 20
7.777854330708662
 10
-14.31658267716535
 20
7.771523622047244
 10
-14.32281102362205
 20
7.764791338582677
 10
-14.32872047244095
 20
7.757661417322835
 10
-14.33431102362205
 20
7.750137795275591
 10
-14.33957874015748
 20
7.742220472440945
 10
-14.34452755905512
 20
7.733917322834646
 10
-14.34834645669291
 20
7.741582677165354
 10
-14.35252362204724
 20
7.74898031496063
 10
-14.35706692913386
 20
7.756082677165354
 10
-14.36196850393701
 20
7.762854330708661
 10
-14.36647637795276
 20
7.768377952755905
 10
-14.37126377952756
 20
7.773622047244094
 10
-14.37632677165354
 20
7.778586614173228
 10
-14.38166929133858
 20
7.783271653543308
 10
-14.38729133858268
 20
7.787669291338583
 10
-14.39318897637795
 20
7.791791338582677
 10
-14.39937007874016
 20
7.795629921259843
 10
-14.40582677165354
 20
7.799185039370078
 10
-14.41270078740157
 20
7.802409448818898
 10
-14.42011023622047
 20
7.805200787401575
 10
-14.42804724409449
 20
7.807562992125984
 10
-14.4365157480315
 20
7.809492125984252
 10
-14.4455157480315
 20
7.810996062992126
 10
-14.45503937007874
 20
7.812066929133858
 10
-14.4650905511811
 20
7.812712598425197
 10
-14.47566929133858
 20
7.812925196850394
 10
-14.48634251968504
 20
7.812555118110236
 10
-14.4966811023622
 20
7.811448818897638
 10
-14.5066811023622
 20
7.809606299212598
 10
-14.51634251968504
 20
7.807023622047244
 10
-14.52566535433071
 20
7.803700787401575
 10
-14.53465354330709
 20
7.799641732283464
 10
-14.54329921259843
 20
7.794842519685039
 10
-14.5516062992126
 20
7.789303149606299
 10
-14.5584842519685
 20
7.784047244094488
 10
-14.56506692913386
 20
7.778437007874015
 10
-14.57134645669291
 20
7.772472440944882
 10
-14.57733070866142
 20
7.766149606299213
 10
-14.5830157480315
 20
7.759464566929134
 10
-14.58840551181102
 20
7.752413385826772
 10
-14.59349606299213
 20
7.745
 10
-14.59829527559055
 20
7.737212598425197
 10
-14.59829527559055
 20
7.803476377952756
 10
-14.66434645669291
 20
7.803476377952756
 10
-14.66434645669291
 20
7.387964566929134
 10
-14.59829527559055
 20
7.387964566929134
 10
-14.59829527559055
 20
7.600582677165354
 10
-14.59677559055118
 20
7.612976377952756
 10
-14.59477952755906
 20
7.624881889763779
 10
-14.59231102362205
 20
7.636311023622048
 10
-14.58936614173228
 20
7.647263779527559
 10
-14.58594488188976
 20
7.657740157480315
 10
-14.58205118110236
 20
7.667748031496063
 10
-14.5776811023622
 20
7.677287401574803
 10
-14.57283858267717
 20
7.686366141732283
 10
-14.5689094488189
 20
7.692826771653543
 10
-14.56464960629921
 20
7.698996062992126
 10
-14.56006692913386
 20
7.704866141732284
 10
-14.55515354330709
 20
7.710444881889764
 10
-14.54991732283465
 20
7.715728346456693
 10
-14.54435826771654
 20
7.720720472440945
 10
-14.53847637795276
 20
7.725413385826772
 10
-14.53227165354331
 20
7.729814960629922
 10
-14.52583858267717
 20
7.733795275590551
 10
-14.5192874015748
 20
7.737244094488189
 10
-14.5126220472441
 20
7.740165354330709
 10
-14.50584251968504
 20
7.74255905511811
 10
-14.49894488188976
 20
7.74442125984252
 10
-14.49193307086614
 20
7.745748031496063
 10
-14.48480708661417
 20
7.746547244094488
 10
-14.47756692913386
 20
7.746814960629921
 10
-14.4704842519685
 20
7.746673228346457
 10
-14.46387401574803
 20
7.746251968503937
 10
-14.45774015748031
 20
7.745547244094488
 10
-14.45207874015748
 20
7.744562992125984
 10
-14.44688582677165
 20
7.743299212598425
 10
-14.44216929133858
 20
7.741755905511811
 10
-14.43792125984252
 20
7.739933070866142
 10
-14.43414173228346
 20
7.737834645669292
 10
-14.42463385826772
 20
7.730795275590551
 10
-14.4163937007874
 20
7.722547244094488
 10
-14.40942125984252
 20
7.713090551181103
 10
-14.40372047244094
 20
7.702421259842519
 10
-14.39928346456693
 20
7.690543307086614
 10
-14.39611417322835
 20
7.677452755905512
 10
-14.3942125984252
 20
7.663149606299212
 10
-14.39357874015748
 20
7.647637795275591
 10
-14.39357874015748
 20
7.387964566929134
 10
-14.32755905511811
 20
7.387964566929134
 10
-14.32755905511811
 20
7.647637795275591
 10
-14.32799212598425
 20
7.66351968503937
 10
-14.31717716535433
 20
7.686366141732283
 10
-14.31324015748032
 20
7.692826771653543
 10
-14.30897637795276
 20
7.698996062992126
 10
-14.30438976377953
 20
7.704866141732284
 10
-14.29948031496063
 20
7.710444881889764
 10
-14.29424803149606
 20
7.715728346456693
 10
-14.28869291338583
 20
7.720720472440945
 10
-14.28281496062992
 20
7.725413385826772
 10
-14.27661023622047
 20
7.729814960629922
 10
-14.27017716535433
 20
7.733795275590551
 10
-14.26362598425197
 20
7.737244094488189
 10
-14.25695669291339
 20
7.740165354330709
 10
-14.25017322834646
 20
7.74255905511811
 10
-14.24326771653543
 20
7.74442125984252
 10
-14.23624409448819
 20
7.745748031496063
 10
-14.22910236220472
 20
7.746547244094488
 10
-14.22184251968504
 20
7.746814960629921
 10
-14.21477952755905
 20
7.746673228346457
 10
-14.20818110236221
 20
7.746251968503937
 10
-14.20205511811024
 20
7.745547244094488
 10
-14.1963937007874
 20
7.744562992125984
 10
-14.19120078740158
 20
7.743299212598425
 10
-14.18648031496063
 20
7.741755905511811
 10
-14.18222834645669
 20
7.739933070866142
 10
-14.17844881889764
 20
7.737834645669292
 10
-14.16894881889764
 20
7.730795275590551
 10
-14.16071653543307
 20
7.722547244094488
 10
-14.15374409448819
 20
7.713090551181103
 10
-14.14803937007874
 20
7.702421259842519
 10
-14.14359842519685
 20
7.690543307086614
 10
-14.14042519685039
 20
7.677452755905512
 10
-14.13851968503937
 20
7.663149606299212
 10
-14.13788582677165
 20
7.647637795275591
 10
-14.13788582677165
 20
7.387964566929134
  0
LWPOLYLINE
  5
77
330
1F
100
AcDbEntity
  8
Layer 1
 62
     7
370
    18
100
AcDbPolyline
 90
        4
 70
     1
 43
0.0
 10
-21.34688976377953
 20
0.798263779527559
 10
-21.31632283464567
 20
0.7957952755905512
 10
-21.33060236220473
 20
0.8229291338582677
 10
-21.34688976377953
 20
0.798263779527559
  0
LWPOLYLINE
  5
78
330
1F
100
AcDbEntity
  8
Layer 1
 62
     7
370
    18
100
AcDbPolyline
 90
        4
 70
     1
 43
0.0
 10
-24.04992125984252
 20
2.582842519685039
 10
-24.06420078740157
 20
2.60998031496063
 10
-24.03363385826772
 20
2.607511811023622
 10
-24.04992125984252
 20
2.582842519685039
  0
LWPOLYLINE
  5
79
330
1F
100
AcDbEntity
  8
Layer 1
 62
     7
370
    18
100
AcDbPolyline
 90
        2
 70
     0
 43
0.0
 10
-21.3079842519685
 20
0.7921771653543307
 10
-24.07080708661417
 20
2.616232283464567
  0
LWPOLYLINE
  5
7A
330
1F
100
AcDbEntity
  8
Layer 1
 62
     7
370
     9
100
AcDbPolyline
 90
        7
 70
     1
 43
0.0
 10
-25.27233070866142
 20
0.8094133858267717
 10
-25.20627952755905
 20
0.8094133858267717
 10
-25.20627952755905
 20
1.459114173228346
 10
-25.3648031496063
 20
1.442082677165354
 10
-25.3648031496063
 20
1.384492125984252
 10
-25.27233070866142
 20
1.384492125984252
 10
-25.27233070866142
 20
0.8094133858267717
  0
LWPOLYLINE
  5
7B
330
1F
100
AcDbEntity
  8
Layer 1
 62
     7
370
     9
100
AcDbPolyline
 90
      137
 70
     1
 43
0.0
 10
-24.8048031496063
 20
0.816496062992126
 10
-24.79516141732283
 20
0.8208149606299212
 10
-24.78581496062992
 20
0.825523622047244
 10
-24.77676771653543
 20
0.8306141732283464
 10
-24.76801181102362
 20
0.8360905511811023
 10
-24.75955511811024
 20
0.8419488188976378
 10
-24.7513937007874
 20
0.8481929133858268
 10
-24.74352755905512
 20
0.8548149606299212
 10
-24.73595275590551
 20
0.8618149606299212
 10
-24.72102755905512
 20
0.8776653543307087
 10
-24.7080905511811
 20
0.8944015748031496
 10
-24.69714173228347
 20
0.9120236220472441
 10
-24.68818897637795
 20
0.9305275590551181
 10
-24.68122047244094
 20
0.9499173228346457
 10
-24.67624409448819
 20
0.9701929133858268
 10
-24.67325984251968
 20
0.9913503937007874
 10
-24.67226377952756
 20
1.013393700787402
 10
-24.67327559055118
 20
1.035448818897638
 10
-24.67630708661417
 20
1.056645669291339
 10
-24.68136220472441
 20
1.076988188976378
 10
-24.68843307086614
 20
1.096472440944882
 10
-24.69752755905512
 20
1.115106299212598
 10
-24.70863779527559
 20
1.13288188976378
 10
-24.72177165354331
 20
1.149803149606299
 10
-24.73691732283465
 20
1.165870078740157
 10
-24.75256299212598
 20
1.179740157480315
 10
-24.76921653543307
 20
1.191956692913386
 10
-24.78687401574803
 20
1.20251968503937
 10
-24.80553937007874
 20
1.211433070866142
 10
-24.82520472440945
 20
1.218692913385827
 10
-24.84587795275591
 20
1.224303149606299
 10
-24.86754724409449
 20
1.228267716535433
 10
-24.89022047244094
 20
1.230582677165354
 10
-24.91850787401575
 20
1.213547244094488
 10
-24.71755118110236
 20
1.451531496062992
 10
-25.06285826771654
 20
1.451531496062992
 10
-25.06285826771654
 20
1.38542125984252
 10
-24.85152362204724
 20
1.38542125984252
 10
-25.04588976377953
 20
1.158783464566929
 10
-24.99587401574803
 20
1.118192913385827
 10
-24.98429133858268
 20
1.128814960629921
 10
-24.97217716535433
 20
1.138023622047244
 10
-24.95953149606299
 20
1.145818897637795
 10
-24.94635433070866
 20
1.152196850393701
 10
-24.93264566929134
 20
1.157157480314961
 10
-24.91840551181102
 20
1.160700787401575
 10
-24.90363385826772
 20
1.162830708661417
 10
-24.88832677165354
 20
1.16353937007874
 10
-24.87305118110236
 20
1.162850393700787
 10
-24.85835039370079
 20
1.160791338582677
 10
-24.84422440944882
 20
1.157354330708661
 10
-24.83066929133858
 20
1.152551181102362
 10
-24.81768897637795
 20
1.146370078740157
 10
-24.80527952755905
 20
1.138826771653543
 10
-24.79344094488189
 20
1.129909448818898
 10
-24.78217716535433
 20
1.119625984251968
 10
-24.77190157480315
 20
1.108374015748032
 10
-24.76299606299213
 20
1.096570866141732
 10
-24.75545669291338
 20
1.084224409448819
 10
-24.7492874015748
 20
1.071334645669291
 10
-24.74448818897638
 20
1.057893700787402
 10
-24.74105905511811
 20
1.043913385826772
 10
-24.739
 20
1.029389763779528
 10
-24.73831496062992
 20
1.014322834645669
 10
-24.73901574803149
 20
0.9995748031496063
 10
-24.74111811023622
 20
0.9853307086614174
 10
-24.74462204724409
 20
0.9715905511811024
 10
-24.74952362204725
 20
0.9583543307086614
 10
-24.75583070866142
 20
0.9456259842519685
 10
-24.76353149606299
 20
0.9333976377952756
 10
-24.77263779527559
 20
0.9216732283464567
 10
-24.78313779527559
 20
0.9104527559055118
 10
-24.78831102362205
 20
0.9056141732283465
 10
-24.79370866141732
 20
0.9010354330708661
 10
-24.79933464566929
 20
0.8967047244094488
 10
-24.80518110236221
 20
0.8926299212598425
 10
-24.81125196850394
 20
0.8888031496062992
 10
-24.81754330708661
 20
0.8852283464566929
 10
-24.82405905511811
 20
0.8818976377952756
 10
-24.83079133858268
 20
0.8788149606299213
 10
-24.83781102362205
 20
0.8760472440944882
 10
-24.8451811023622
 20
0.8736496062992126
 10
-24.85290551181102
 20
0.8716220472440945
 10
-24.86098031496063
 20
0.8699606299212599
 10
-24.8694094488189
 20
0.8686653543307087
 10
-24.87818897637795
 20
0.867744094488189
 10
-24.88732283464567
 20
0.8671889763779528
 10
-24.89681102362205
 20
0.867003937007874
 10
-24.9064842519685
 20
0.8674094488188976
 10
-24.91616141732283
 20
0.8686299212598425
 10
-24.92583464566929
 20
0.8706614173228346
 10
-24.93551181102362
 20
0.873503937007874
 10
-24.94518503937008
 20
0.8771574803149607
 10
-24.95485826771653
 20
0.8816220472440945
 10
-24.96453543307087
 20
0.8869015748031496
 10
-24.97420866141732
 20
0.892988188976378
 10
-24.9835157480315
 20
0.8997559055118111
 10
-24.99211811023622
 20
0.9071062992125984
 10
-25.0000157480315
 20
0.9150354330708661
 10
-25.00720472440945
 20
0.9235393700787402
 10
-25.01368897637795
 20
0.9326220472440945
 10
-25.01946850393701
 20
0.9422795275590551
 10
-25.02454330708661
 20
0.952511811023622
 10
-25.02891732283464
 20
0.9633228346456693
 10
-25.09304330708661
 20
0.9415944881889764
 10
-25.08695275590551
 20
0.9262165354330709
 10
-25.07975196850394
 20
0.9115708661417323
 10
-25.07144881889764
 20
0.8976614173228347
 10
-25.06203543307087
 20
0.8844881889763779
 10
-25.05151574803149
 20
0.8720511811023622
 10
-25.03988976377953
 20
0.8603503937007874
 10
-25.02715354330709
 20
0.8493858267716535
 10
-25.01331102362205
 20
0.8391574803149606
 10
-25.00652362204724
 20
0.8346771653543307
 10
-24.99956692913386
 20
0.8304488188976378
 10
-24.99244094488189
 20
0.8264724409448819
 10
-24.98514960629921
 20
0.822744094488189
 10
-24.9776968503937
 20
0.8192677165354331
 10
-24.97008267716535
 20
0.8160433070866142
 10
-24.96230708661417
 20
0.8130669291338583
 10
-24.95437795275591
 20
0.8103425196850393
 10
-24.94624803149606
 20
0.8079173228346457
 10
-24.93789763779527
 20
0.8058110236220473
 10
-24.92932283464567
 20
0.8040275590551181
 10
-24.92052755905512
 20
0.8025669291338583
 10
-24.91151181102362
 20
0.8014291338582678
 10
-24.90227559055118
 20
0.8006181102362204
 10
-24.89281496062992
 20
0.8001259842519685
 10
-24.88313385826772
 20
0.7999645669291339
 10
-24.87334251968504
 20
0.8002244094488189
 10
-24.86355118110236
 20
0.801
 10
-24.85375984251969
 20
0.8022952755905511
 10
-24.84396850393701
 20
0.8041062992125985
 10
-24.83417716535433
 20
0.8064330708661417
 10
-24.82438582677165
 20
0.8092716535433071
 10
-24.81459448818898
 20
0.8126259842519685
 10
-24.8048031496063
 20
0.816496062992126
  0
LWPOLYLINE
  5
7C
330
1F
100
AcDbEntity
  8
Layer 1
 62
     7
370
     9
100
AcDbPolyline
 90
      137
 70
     1
 43
0.0
 10
-24.3142125984252
 20
0.816496062992126
 10
-24.30457086614173
 20
0.8208149606299212
 10
-24.29522440944882
 20
0.825523622047244
 10
-24.28617322834646
 20
0.8306141732283464
 10
-24.27741732283464
 20
0.8360905511811023
 10
-24.26895669291338
 20
0.8419488188976378
 10
-24.26079133858268
 20
0.8481929133858268
 10
-24.25291732283464
 20
0.8548149606299212
 10
-24.24533464566929
 20
0.8618149606299212
 10
-24.23040551181102
 20
0.8776653543307087
 10
-24.21746850393701
 20
0.8944015748031496
 10
-24.20652362204724
 20
0.9120236220472441
 10
-24.19756692913386
 20
0.9305275590551181
 10
-24.19059842519685
 20
0.9499173228346457
 10
-24.1856220472441
 20
0.9701929133858268
 10
-24.18263779527559
 20
0.9913503937007874
 10
-24.18164173228346
 20
1.013393700787402
 10
-24.18265354330709
 20
1.035448818897638
 10
-24.18568897637795
 20
1.056645669291339
 10
-24.19074803149606
 20
1.076988188976378
 10
-24.19782283464567
 20
1.096472440944882
 10
-24.20692125984252
 20
1.115106299212598
 10
-24.21803149606299
 20
1.13288188976378
 10
-24.23115748031496
 20
1.149803149606299
 10
-24.24629527559055
 20
1.165870078740157
 10
-24.26194881889764
 20
1.179740157480315
 10
-24.2786062992126
 20
1.191956692913386
 10
-24.29626771653543
 20
1.20251968503937
 10
-24.31492913385827
 20
1.211433070866142
 10
-24.33459448818898
 20
1.218692913385827
 10
-24.35525984251969
 20
1.224303149606299
 10
-24.37692913385827
 20
1.228267716535433
 10
-24.39959842519685
 20
1.230582677165354
 10
-24.42791732283465
 20
1.213547244094488
 10
-24.22696062992126
 20
1.451531496062992
 10
-24.57226771653543
 20
1.451531496062992
 10
-24.57226771653543
 20
1.38542125984252
 10
-24.36093307086614
 20
1.38542125984252
 10
-24.55529921259842
 20
1.158783464566929
 10
-24.50528346456693
 20
1.118192913385827
 10
-24.49369291338583
 20
1.128814960629921
 10
-24.48157480314961
 20
1.138023622047244
 10
-24.46892913385827
 20
1.145818897637795
 10
-24.45575196850394
 20
1.152196850393701
 10
-24.44204724409449
 20
1.157157480314961
 10
-24.42781102362205
 20
1.160700787401575
 10
-24.41303937007874
 20
1.162830708661417
 10
-24.39773622047244
 20
1.16353937007874
 10
-24.38246062992126
 20
1.162850393700787
 10
-24.36775984251969
 20
1.160791338582677
 10
-24.35363385826772
 20
1.157354330708661
 10
-24.34007874015748
 20
1.152551181102362
 10
-24.32709842519685
 20
1.146370078740157
 10
-24.31468897637795
 20
1.138826771653543
 10
-24.30285039370079
 20
1.129909448818898
 10
-24.29158661417323
 20
1.119625984251968
 10
-24.2813031496063
 20
1.108374015748032
 10
-24.2723937007874
 20
1.096570866141732
 10
-24.26485433070866
 20
1.084224409448819
 10
-24.25868503937008
 20
1.071334645669291
 10
-24.25388976377953
 20
1.057893700787402
 10
-24.25046456692913
 20
1.043913385826772
 10
-24.2484094488189
 20
1.029389763779528
 10
-24.24772440944882
 20
1.014322834645669
 10
-24.24842519685039
 20
0.9995748031496063
 10
-24.25052362204724
 20
0.9853307086614174
 10
-24.25402362204725
 20
0.9715905511811024
 10
-24.25892125984252
 20
0.9583543307086614
 10
-24.26522440944882
 20
0.9456259842519685
 10
-24.27292913385827
 20
0.9333976377952756
 10
-24.28203543307087
 20
0.9216732283464567
 10
-24.29254724409449
 20
0.9104527559055118
 10
-24.29772047244094
 20
0.9056141732283465
 10
-24.30311811023622
 20
0.9010354330708661
 10
-24.30874409448819
 20
0.8967047244094488
 10
-24.3145905511811
 20
0.8926299212598425
 10
-24.32066141732284
 20
0.8888031496062992
 10
-24.32695275590551
 20
0.8852283464566929
 10
-24.33346850393701
 20
0.8818976377952756
 10
-24.34020078740157
 20
0.8788149606299213
 10
-24.34722047244095
 20
0.8760472440944882
 10
-24.3545905511811
 20
0.8736496062992126
 10
-24.36231496062992
 20
0.8716220472440945
 10
-24.37038976377953
 20
0.8699606299212599
 10
-24.3788188976378
 20
0.8686653543307087
 10
-24.38759842519685
 20
0.867744094488189
 10
-24.39673228346457
 20
0.8671889763779528
 10
-24.40622047244095
 20
0.867003937007874
 10
-24.4158937007874
 20
0.8674094488188976
 10
-24.42557086614173
 20
0.8686299212598425
 10
-24.43524409448819
 20
0.8706614173228346
 10
-24.44492125984252
 20
0.873503937007874
 10
-24.45459448818898
 20
0.8771574803149607
 10
-24.46426771653543
 20
0.8816220472440945
 10
-24.47394488188976
 20
0.8869015748031496
 10
-24.48361811023622
 20
0.892988188976378
 10
-24.49291732283465
 20
0.8997559055118111
 10
-24.5015157480315
 20
0.9071062992125984
 10
-24.5094094488189
 20
0.9150354330708661
 10
-24.51660236220473
 20
0.9235393700787402
 10
-24.5230905511811
 20
0.9326220472440945
 10
-24.52887401574803
 20
0.9422795275590551
 10
-24.53395275590551
 20
0.952511811023622
 10
-24.53832677165354
 20
0.9633228346456693
 10
-24.60245275590551
 20
0.9415944881889764
 10
-24.59636220472441
 20
0.9262165354330709
 10
-24.58916141732283
 20
0.9115708661417323
 10
-24.58085826771654
 20
0.8976614173228347
 10
-24.57144488188976
 20
0.8844881889763779
 10
-24.56092519685039
 20
0.8720511811023622
 10
-24.54929921259842
 20
0.8603503937007874
 10
-24.53656299212598
 20
0.8493858267716535
 10
-24.52272047244094
 20
0.8391574803149606
 10
-24.51593307086614
 20
0.8346771653543307
 10
-24.50897637795276
 20
0.8304488188976378
 10
-24.50185039370079
 20
0.8264724409448819
 10
-24.49455905511811
 20
0.822744094488189
 10
-24.4871062992126
 20
0.8192677165354331
 10
-24.47949212598425
 20
0.8160433070866142
 10
-24.47171653543307
 20
0.8130669291338583
 10
-24.4637874015748
 20
0.8103425196850393
 10
-24.45564960629921
 20
0.8079173228346457
 10
-24.44729133858268
 20
0.8058110236220473
 10
-24.43871653543307
 20
0.8040275590551181
 10
-24.42992519685039
 20
0.8025669291338583
 10
-24.42091338582677
 20
0.8014291338582678
 10
-24.41167716535433
 20
0.8006181102362204
 10
-24.40222440944882
 20
0.8001259842519685
 10
-24.39254330708662
 20
0.7999645669291339
 10
-24.38275196850394
 20
0.8002244094488189
 10
-24.37296062992126
 20
0.801
 10
-24.36316929133858
 20
0.8022952755905511
 10
-24.35337795275591
 20
0.8041062992125985
 10
-24.34358661417323
 20
0.8064330708661417
 10
-24.33379527559055
 20
0.8092716535433071
 10
-24.32400393700787
 20
0.8126259842519685
 10
-24.3142125984252
 20
0.816496062992126
  0
LWPOLYLINE
  5
7D
330
1F
100
AcDbEntity
  8
Layer 1
 62
     7
370
     9
100
AcDbPolyline
 90
      162
 70
     1
 43
0.0
 10
-23.56274015748032
 20
0.8113070866141733
 10
-23.49668897637795
 20
0.8113070866141733
 10
-23.49668897637795
 20
1.070984251968504
 10
-23.49722834645669
 20
1.088224409448819
 10
-23.49885039370079
 20
1.104653543307087
 10
-23.50154724409449
 20
1.120275590551181
 10
-23.50532283464567
 20
1.135082677165354
 10
-23.51017322834646
 20
1.14907874015748
 10
-23.51609448818898
 20
1.162263779527559
 10
-23.5230905511811
 20
1.174637795275591
 10
-23.53115748031496
 20
1.186196850393701
 10
-23.53565748031496
 20
1.191712598425197
 10
-23.54043700787402
 20
1.196952755905512
 10
-23.54549606299213
 20
1.201917322834646
 10
-23.55083858267717
 20
1.206602362204724
 10
-23.55646062992126
 20
1.211007874015748
 10
-23.56236220472441
 20
1.215133858267716
 10
-23.56854724409449
 20
1.218972440944882
 10
-23.5750157480315
 20
1.222531496062992
 10
-23.58188976377953
 20
1.225744094488189
 10
-23.58929133858268
 20
1.228527559055118
 10
-23.59722440944882
 20
1.230881889763779
 10
-23.60568503937008
 20
1.232811023622047
 10
-23.6146811023622
 20
1.234311023622047
 10
-23.62420472440945
 20
1.235377952755905
 10
-23.63426771653543
 20
1.236023622047244
 10
-23.64486220472441
 20
1.236236220472441
 10
-23.65553543307087
 20
1.235866141732283
 10
-23.66587401574803
 20
1.234759842519685
 10
-23.67587401574803
 20
1.232917322834646
 10
-23.68553543307087
 20
1.230334645669291
 10
-23.69485826771654
 20
1.227015748031496
 10
-23.70384645669292
 20
1.222956692913386
 10
-23.71249212598425
 20
1.218157480314961
 10
-23.72079921259843
 20
1.212618110236221
 10
-23.72800393700787
 20
1.207106299212598
 10
-23.73488582677165
 20
1.201185039370079
 10
-23.74144488188976
 20
1.194854330708661
 10
-23.74767716535433
 20
1.18811811023622
 10
-23.7535905511811
 20
1.180984251968504
 10
-23.75917716535433
 20
1.173456692913386
 10
-23.76444094488189
 20
1.165535433070866
 10
-23.76938188976378
 20
1.157232283464567
 10
-23.7732125984252
 20
1.16490157480315
 10
-23.77738976377953
 20
1.172311023622047
 10
-23.78192125984252
 20
1.17942125984252
 10
-23.78681889763779
 20
1.186196850393701
 10
-23.79133070866142
 20
1.191712598425197
 10
-23.79612204724409
 20
1.196952755905512
 10
-23.80118897637795
 20
1.201917322834646
 10
-23.80653543307087
 20
1.206602362204724
 10
-23.81215748031496
 20
1.211007874015748
 10
-23.81805905511811
 20
1.215133858267716
 10
-23.82423228346457
 20
1.218972440944882
 10
-23.83068110236221
 20
1.222531496062992
 10
-23.83755511811023
 20
1.225744094488189
 10
-23.84496456692913
 20
1.228527559055118
 10
-23.85290157480315
 20
1.230881889763779
 10
-23.86137007874016
 20
1.232811023622047
 10
-23.87037007874016
 20
1.234311023622047
 10
-23.8798937007874
 20
1.235377952755905
 10
-23.88994488188976
 20
1.236023622047244
 10
-23.90052362204725
 20
1.236236220472441
 10
-23.91120472440945
 20
1.235866141732283
 10
-23.92154724409449
 20
1.234759842519685
 10
-23.93154724409449
 20
1.232917322834646
 10
-23.9412125984252
 20
1.230334645669291
 10
-23.95053543307086
 20
1.227015748031496
 10
-23.95952362204724
 20
1.222956692913386
 10
-23.96817716535433
 20
1.218157480314961
 10
-23.97649212598425
 20
1.212618110236221
 10
-23.98336220472441
 20
1.207362204724409
 10
-23.98993700787402
 20
1.201751968503937
 10
-23.99621653543307
 20
1.195787401574803
 10
-24.0021968503937
 20
1.189464566929134
 10
-24.00788188976378
 20
1.182783464566929
 10
-24.01327165354331
 20
1.175740157480315
 10
-24.01835826771654
 20
1.168330708661417
 10
-24.02314960629921
 20
1.160555118110236
 10
-24.02314960629921
 20
1.226787401574803
 10
-24.08923228346457
 20
1.226787401574803
 10
-24.08923228346457
 20
0.8113070866141733
 10
-24.02314960629921
 20
0.8113070866141733
 10
-24.02314960629921
 20
1.023897637795276
 10
-24.02162992125984
 20
1.036299212598425
 10
-24.01963385826772
 20
1.048212598425197
 10
-24.01716535433071
 20
1.059645669291339
 10
-24.01422440944882
 20
1.07059842519685
 10
-24.01080708661417
 20
1.081074803149606
 10
-24.00691732283465
 20
1.09107874015748
 10
-24.00255511811024
 20
1.100610236220472
 10
-23.99772047244095
 20
1.109677165354331
 10
-23.99377952755906
 20
1.116149606299213
 10
-23.9895157480315
 20
1.122322834645669
 10
-23.98492519685039
 20
1.128200787401575
 10
-23.98001181102362
 20
1.133783464566929
 10
-23.97477165354331
 20
1.139070866141732
 10
-23.9692125984252
 20
1.144062992125984
 10
-23.96333070866142
 20
1.148759842519685
 10
-23.95712598425197
 20
1.153161417322835
 10
-23.95069291338583
 20
1.157137795275591
 10
-23.94414173228347
 20
1.160582677165354
 10
-23.93747637795276
 20
1.1635
 10
-23.9306968503937
 20
1.165885826771654
 10
-23.92379921259842
 20
1.167744094488189
 10
-23.9167874015748
 20
1.169070866141732
 10
-23.90966141732283
 20
1.169866141732284
 10
-23.90242125984252
 20
1.170129921259843
 10
-23.89533858267717
 20
1.169988188976378
 10
-23.88872834645669
 20
1.169570866141732
 10
-23.88259448818897
 20
1.168870078740158
 10
-23.87692913385827
 20
1.167889763779528
 10
-23.87174015748031
 20
1.166625984251968
 10
-23.86702362204725
 20
1.165082677165354
 10
-23.86277559055118
 20
1.163255905511811
 10
-23.85899606299213
 20
1.161145669291339
 10
-23.84948818897638
 20
1.154110236220472
 10
-23.84124803149606
 20
1.145866141732284
 10
-23.83427559055118
 20
1.136413385826772
 10
-23.82857480314961
 20
1.125751968503937
 10
-23.82413779527559
 20
1.113877952755906
 10
-23.82096850393701
 20
1.100795275590551
 10
-23.81906692913386
 20
1.086496062992126
 10
-23.81843307086614
 20
1.070984251968504
 10
-23.81843307086614
 20
0.8113070866141733
 10
-23.7524094488189
 20
0.8113070866141733
 10
-23.7524094488189
 20
1.070984251968504
 10
-23.75284645669291
 20
1.086866141732284
 10
-23.74202755905512
 20
1.109677165354331
 10
-23.7380905511811
 20
1.116149606299213
 10
-23.73382677165354
 20
1.122322834645669
 10
-23.72924409448819
 20
1.128200787401575
 10
-23.72433464566929
 20
1.133783464566929
 10
-23.71910236220473
 20
1.139070866141732
 10
-23.71354724409449
 20
1.144062992125984
 10
-23.70766929133858
 20
1.148759842519685
 10
-23.70146456692913
 20
1.153161417322835
 10
-23.69503149606299
 20
1.157137795275591
 10
-23.68848031496063
 20
1.160582677165354
 10
-23.68181102362205
 20
1.1635
 10
-23.67502362204725
 20
1.165885826771654
 10
-23.66812204724409
 20
1.167744094488189
 10
-23.66109842519685
 20
1.169070866141732
 10
-23.65395669291339
 20
1.169866141732284
 10
-23.6466968503937
 20
1.170129921259843
 10
-23.63963385826772
 20
1.169988188976378
 10
-23.63303937007874
 20
1.169570866141732
 10
-23.62691732283465
 20
1.168870078740158
 10
-23.62125984251968
 20
1.167889763779528
 10
-23.6160748031496
 20
1.166625984251968
 10
-23.61135826771654
 20
1.165082677165354
 10
-23.60711417322835
 20
1.163255905511811
 10
-23.60333464566929
 20
1.161145669291339
 10
-23.59382677165354
 20
1.154110236220472
 10
-23.58558267716536
 20
1.145866141732284
 10
-23.5786062992126
 20
1.136413385826772
 10
-23.57289763779528
 20
1.125751968503937
 10
-23.56845275590551
 20
1.113877952755906
 10
-23.56527952755906
 20
1.100795275590551
 10
-23.56337401574803
 20
1.086496062992126
 10
-23.56274015748032
 20
1.070984251968504
 10
-23.56274015748032
 20
0.8113070866141733
  0
LWPOLYLINE
  5
7E
330
1F
100
AcDbEntity
  8
Layer 1
 62
     7
370
     9
100
AcDbPolyline
 90
      162
 70
     1
 43
0.0
 10
-22.84284645669291
 20
0.8113070866141733
 10
-22.77679527559055
 20
0.8113070866141733
 10
-22.77679527559055
 20
1.070984251968504
 10
-22.77733464566929
 20
1.088224409448819
 10
-22.77894881889764
 20
1.104653543307087
 10
-22.78164566929134
 20
1.120275590551181
 10
-22.78541338582677
 20
1.135082677165354
 10
-22.79025590551181
 20
1.14907874015748
 10
-22.79617716535433
 20
1.162263779527559
 10
-22.80316929133858
 20
1.174637795275591
 10
-22.81123622047244
 20
1.186196850393701
 10
-22.81574409448819
 20
1.191712598425197
 10
-22.82053149606299
 20
1.196952755905512
 10
-22.82559842519685
 20
1.201917322834646
 10
-22.83094094488189
 20
1.206602362204724
 10
-22.83656692913386
 20
1.211007874015748
 10
-22.84247244094488
 20
1.215133858267716
 10
-22.84865748031496
 20
1.218972440944882
 10
-22.85512598425197
 20
1.222531496062992
 10
-22.862
 20
1.225744094488189
 10
-22.86939763779528
 20
1.228527559055118
 10
-22.87733070866142
 20
1.230881889763779
 10
-22.88579133858268
 20
1.232811023622047
 10
-22.8947874015748
 20
1.234311023622047
 10
-22.90431102362205
 20
1.235377952755905
 10
-22.91437401574803
 20
1.236023622047244
 10
-22.92496850393701
 20
1.236236220472441
 10
-22.93564173228346
 20
1.235866141732283
 10
-22.94597244094488
 20
1.234759842519685
 10
-22.95597244094488
 20
1.232917322834646
 10
-22.96562992125984
 20
1.230334645669291
 10
-22.97495275590551
 20
1.227015748031496
 10
-22.98394094488189
 20
1.222956692913386
 10
-22.9925905511811
 20
1.218157480314961
 10
-23.00090551181102
 20
1.212618110236221
 10
-23.00811023622047
 20
1.207106299212598
 10
-23.01498818897638
 20
1.201185039370079
 10
-23.02153937007874
 20
1.194854330708661
 10
-23.02776771653543
 20
1.18811811023622
 10
-23.03367322834645
 20
1.180984251968504
 10
-23.03925590551181
 20
1.173456692913386
 10
-23.0445157480315
 20
1.165535433070866
 10
-23.04945669291338
 20
1.157232283464567
 10
-23.05329133858268
 20
1.16490157480315
 10
-23.05748031496063
 20
1.172311023622047
 10
-23.06202362204725
 20
1.17942125984252
 10
-23.06692519685039
 20
1.186196850393701
 10
-23.07143700787402
 20
1.191712598425197
 10
-23.07622440944882
 20
1.196952755905512
 10
-23.0812874015748
 20
1.201917322834646
 10
-23.08662992125984
 20
1.206602362204724
 10
-23.09225196850394
 20
1.211007874015748
 10
-23.09814960629921
 20
1.215133858267716
 10
-23.10433070866142
 20
1.218972440944882
 10
-23.1107874015748
 20
1.222531496062992
 10
-23.11766141732284
 20
1.225744094488189
 10
-23.12507086614173
 20
1.228527559055118
 10
-23.13300787401575
 20
1.230881889763779
 10
-23.14147637795276
 20
1.232811023622047
 10
-23.15047637795276
 20
1.234311023622047
 10
-23.16
 20
1.235377952755905
 10
-23.17005118110236
 20
1.236023622047244
 10
-23.18062992125984
 20
1.236236220472441
 10
-23.1913031496063
 20
1.235866141732283
 10
-23.20164173228347
 20
1.234759842519685
 10
-23.21164173228346
 20
1.232917322834646
 10
-23.2213031496063
 20
1.230334645669291
 10
-23.23062598425197
 20
1.227015748031496
 10
-23.23961417322835
 20
1.222956692913386
 10
-23.24825984251968
 20
1.218157480314961
 10
-23.25656692913386
 20
1.212618110236221
 10
-23.26344488188976
 20
1.207362204724409
 10
-23.27002755905512
 20
1.201751968503937
 10
-23.27630708661417
 20
1.195787401574803
 10
-23.28229133858268
 20
1.189464566929134
 10
-23.28797637795276
 20
1.182783464566929
 10
-23.29336614173228
 20
1.175740157480315
 10
-23.29845669291339
 20
1.168330708661417
 10
-23.30325590551181
 20
1.160555118110236
 10
-23.30325590551181
 20
1.226787401574803
 10
-23.36930708661417
 20
1.226787401574803
 10
-23.36930708661417
 20
0.8113070866141733
 10
-23.30325590551181
 20
0.8113070866141733
 10
-23.30325590551181
 20
1.023897637795276
 10
-23.30173622047244
 20
1.036299212598425
 10
-23.29974015748031
 20
1.048212598425197
 10
-23.29727165354331
 20
1.059645669291339
 10
-23.29432677165354
 20
1.07059842519685
 10
-23.29090551181102
 20
1.081074803149606
 10
-23.28701181102362
 20
1.09107874015748
 10
-23.28264173228347
 20
1.100610236220472
 10
-23.27779921259842
 20
1.109677165354331
 10
-23.27387007874016
 20
1.116149606299213
 10
-23.26961023622047
 20
1.122322834645669
 10
-23.26502362204725
 20
1.128200787401575
 10
-23.26011417322835
 20
1.133783464566929
 10
-23.2548779527559
 20
1.139070866141732
 10
-23.2493188976378
 20
1.144062992125984
 10
-23.24343700787401
 20
1.148759842519685
 10
-23.23723228346457
 20
1.153161417322835
 10
-23.23079921259842
 20
1.157137795275591
 10
-23.22424803149606
 20
1.160582677165354
 10
-23.21758267716535
 20
1.1635
 10
-23.2108031496063
 20
1.165885826771654
 10
-23.20390551181102
 20
1.167744094488189
 10
-23.1968937007874
 20
1.169070866141732
 10
-23.18976771653543
 20
1.169866141732284
 10
-23.18252755905512
 20
1.170129921259843
 10
-23.17544488188976
 20
1.169988188976378
 10
-23.16883464566929
 20
1.169570866141732
 10
-23.16270078740158
 20
1.168870078740158
 10
-23.15703937007874
 20
1.167889763779528
 10
-23.15184645669291
 20
1.166625984251968
 10
-23.14712992125984
 20
1.165082677165354
 10
-23.14288188976378
 20
1.163255905511811
 10
-23.13910236220472
 20
1.161145669291339
 10
-23.12959448818898
 20
1.154110236220472
 10
-23.12135433070866
 20
1.145866141732284
 10
-23.11438188976378
 20
1.136413385826772
 10
-23.1086811023622
 20
1.125751968503937
 10
-23.10424409448819
 20
1.113877952755906
 10
-23.10107480314961
 20
1.100795275590551
 10
-23.09917322834646
 20
1.086496062992126
 10
-23.09853937007874
 20
1.070984251968504
 10
-23.09853937007874
 20
0.8113070866141733
 10
-23.0325157480315
 20
0.8113070866141733
 10
-23.0325157480315
 20
1.070984251968504
 10
-23.03295275590551
 20
1.086866141732284
 10
-23.02213385826771
 20
1.109677165354331
 10
-23.0181968503937
 20
1.116149606299213
 10
-23.01393307086614
 20
1.122322834645669
 10
-23.00935039370079
 20
1.128200787401575
 10
-23.00444094488189
 20
1.133783464566929
 10
-22.99920866141732
 20
1.139070866141732
 10
-22.99365354330709
 20
1.144062992125984
 10
-22.98777559055118
 20
1.148759842519685
 10
-22.98157086614173
 20
1.153161417322835
 10
-22.97513779527559
 20
1.157137795275591
 10
-22.96858661417323
 20
1.160582677165354
 10
-22.96191732283464
 20
1.1635
 10
-22.95513385826772
 20
1.165885826771654
 10
-22.94822834645669
 20
1.167744094488189
 10
-22.94120472440945
 20
1.169070866141732
 10
-22.93406299212598
 20
1.169866141732284
 10
-22.9268031496063
 20
1.170129921259843
 10
-22.91974015748032
 20
1.169988188976378
 10
-22.91314173228346
 20
1.169570866141732
 10
-22.90701181102362
 20
1.168870078740158
 10
-22.90135039370079
 20
1.167889763779528
 10
-22.89616141732283
 20
1.166625984251968
 10
-22.89144094488189
 20
1.165082677165354
 10
-22.88718897637795
 20
1.163255905511811
 10
-22.8834094488189
 20
1.161145669291339
 10
-22.8739094488189
 20
1.154110236220472
 10
-22.86567716535433
 20
1.145866141732284
 10
-22.85870472440945
 20
1.136413385826772
 10
-22.853
 20
1.125751968503937
 10
-22.84855905511811
 20
1.113877952755906
 10
-22.84538582677165
 20
1.100795275590551
 10
-22.84348031496063
 20
1.086496062992126
 10
-22.84284645669291
 20
1.070984251968504
 10
-22.84284645669291
 20
0.8113070866141733
  0
LWPOLYLINE
  5
7F
330
1F
100
AcDbEntity
  8
Layer 1
 62
     7
370
    18
100
AcDbPolyline
 90
        4
 70
     1
 43
0.0
 10
-20.5869094488189
 20
0.6356220472440944
 10
-20.59567322834646
 20
0.606236220472441
 10
-20.56616535433071
 20
0.6145669291338582
 10
-20.5869094488189
 20
0.6356220472440944
  0
LWPOLYLINE
  5
80
330
1F
100
AcDbEntity
  8
Layer 1
 62
     7
370
    18
100
AcDbPolyline
 90
        4
 70
     1
 43
0.0
 10
-18.21739763779528
 20
2.970586614173228
 10
-18.18788976377953
 20
2.978917322834646
 10
-18.19665354330709
 20
2.949531496062992
 10
-18.21739763779528
 20
2.970586614173228
  0
LWPOLYLINE
  5
81
330
1F
100
AcDbEntity
  8
Layer 1
 62
     7
370
    18
100
AcDbPolyline
 90
        2
 70
     0
 43
0.0
 10
-20.60094881889764
 20
0.5988307086614173
 10
-18.18040551181102
 20
2.984082677165354
  0
LWPOLYLINE
  5
82
330
1F
100
AcDbEntity
  8
Layer 1
 62
     7
370
     9
100
AcDbPolyline
 90
       73
 70
     1
 43
0.0
 10
-19.25214566929134
 20
0.9327086614173228
 10
-19.26719291338583
 20
0.9334015748031496
 10
-19.2816811023622
 20
0.935476377952756
 10
-19.29561023622047
 20
0.9389409448818897
 10
-19.30898031496063
 20
0.9437913385826772
 10
-19.32179133858268
 20
0.9500314960629921
 10
-19.33404330708661
 20
0.9576574803149607
 10
-19.34573228346457
 20
0.9666771653543307
 10
-19.35686614173228
 20
0.9770905511811023
 10
-19.36692913385827
 20
0.9883267716535433
 10
-19.37564960629921
 20
1.000094488188976
 10
-19.38302755905512
 20
1.01240157480315
 10
-19.38906299212599
 20
1.025240157480315
 10
-19.39375590551181
 20
1.038614173228346
 10
-19.39711023622047
 20
1.05251968503937
 10
-19.3991220472441
 20
1.066956692913386
 10
-19.39979133858268
 20
1.081925196850394
 10
-19.39911417322835
 20
1.096535433070866
 10
-19.39707480314961
 20
1.110645669291339
 10
-19.39368503937008
 20
1.124259842519685
 10
-19.38893700787402
 20
1.137370078740157
 10
-19.38283070866142
 20
1.14998031496063
 10
-19.37537401574803
 20
1.162090551181102
 10
-19.36656299212598
 20
1.173696850393701
 10
-19.35639763779528
 20
1.184799212598425
 10
-19.34547244094488
 20
1.194763779527559
 10
-19.33392913385827
 20
1.203397637795276
 10
-19.32176771653543
 20
1.210700787401575
 10
-19.30898818897638
 20
1.216673228346457
 10
-19.29558661417323
 20
1.221318897637795
 10
-19.28156299212598
 20
1.224633858267717
 10
-19.26691732283465
 20
1.226625984251968
 10
-19.25164566929134
 20
1.227287401574803
 10
-19.23668503937008
 20
1.226602362204724
 10
-19.22223228346457
 20
1.224551181102362
 10
-19.20827559055118
 20
1.221129921259843
 10
-19.19482283464567
 20
1.216334645669291
 10
-19.18187007874016
 20
1.210165354330709
 10
-19.16941338582677
 20
1.202622047244094
 10
-19.15745669291339
 20
1.193700787401575
 10
-19.14599606299213
 20
1.18340157480315
 10
-19.13559448818897
 20
1.172275590551181
 10
-19.12657874015748
 20
1.16059842519685
 10
-19.11895669291339
 20
1.148374015748032
 10
-19.11272047244094
 20
1.135602362204724
 10
-19.10787007874016
 20
1.122283464566929
 10
-19.10440551181102
 20
1.10842125984252
 10
-19.10233070866142
 20
1.094011811023622
 10
-19.10163779527559
 20
1.079062992125984
 10
-19.10233858267717
 20
1.064543307086614
 10
-19.10444094488189
 20
1.050496062992126
 10
-19.10794488188976
 20
1.03692125984252
 10
-19.11285039370079
 20
1.023818897637795
 10
-19.11916141732284
 20
1.011188976377953
 10
-19.12687007874016
 20
0.9990275590551181
 10
-19.13598031496063
 20
0.9873425196850394
 10
-19.14649212598425
 20
0.9761259842519685
 10
-19.15166535433071
 20
0.9712952755905512
 10
-19.15706299212598
 20
0.9667165354330709
 10
-19.16268503937008
 20
0.9623858267716535
 10
-19.16853149606299
 20
0.9583031496062993
 10
-19.17459448818898
 20
0.9544724409448819
 10
-19.18088188976378
 20
0.9508897637795276
 10
-19.18738976377953
 20
0.9475629921259843
 10
-19.19411023622047
 20
0.944488188976378
 10
-19.20100393700788
 20
0.9417244094488189
 10
-19.208
 20
0.9393307086614173
 10
-19.21509842519685
 20
0.9373031496062992
 10
-19.2223031496063
 20
0.9356496062992126
 10
-19.2296062992126
 20
0.9343622047244095
 10
-19.2370157480315
 20
0.9334448818897638
 10
-19.24452755905512
 20
0.9328937007874015
 10
-19.25214566929134
 20
0.9327086614173228
  0
LWPOLYLINE
  5
83
330
1F
100
AcDbEntity
  8
Layer 1
 62
     7
370
     9
100
AcDbPolyline
 90
       69
 70
     1
 43
0.0
 10
-19.46677559055118
 20
1.077169291338583
 10
-19.46574409448819
 20
1.054433070866142
 10
-19.46265354330709
 20
1.032732283464567
 10
-19.4575
 20
1.012062992125984
 10
-19.45028346456693
 20
0.9924291338582677
 10
-19.441
 20
0.9738228346456693
 10
-19.42965354330709
 20
0.956251968503937
 10
-19.41623622047244
 20
0.9397086614173228
 10
-19.40075590551181
 20
0.9241929133858268
 10
-19.38492125984252
 20
0.9111259842519686
 10
-19.3679842519685
 20
0.8996692913385826
 10
-19.34994094488189
 20
0.8898188976377953
 10
-19.33079527559055
 20
0.8815787401574803
 10
-19.31054330708661
 20
0.8749409448818898
 10
-19.28918503937008
 20
0.8699133858267717
 10
-19.26672440944882
 20
0.866492125984252
 10
-19.24316141732283
 20
0.8646732283464567
 10
-19.22432677165354
 20
0.877011811023622
 10
-19.42055511811024
 20
0.6408937007874016
 10
-19.33377165354331
 20
0.6408937007874016
 10
-19.0828031496063
 20
0.9440511811023622
 10
-19.07151574803149
 20
0.9588070866141732
 10
-19.06173228346457
 20
0.9741692913385827
 10
-19.05345669291339
 20
0.9901338582677165
 10
-19.04668897637795
 20
1.006708661417323
 10
-19.04142125984252
 20
1.023889763779527
 10
-19.03766141732283
 20
1.041673228346457
 10
-19.03540551181102
 20
1.060066929133858
 10
-19.03465354330709
 20
1.079062992125984
 10
-19.03564173228347
 20
1.10096062992126
 10
-19.0386062992126
 20
1.122007874015748
 10
-19.04354330708662
 20
1.142216535433071
 10
-19.05046062992126
 20
1.16157874015748
 10
-19.05935039370079
 20
1.180102362204724
 10
-19.07021653543307
 20
1.197783464566929
 10
-19.08305905511811
 20
1.214629921259843
 10
-19.0978779527559
 20
1.230641732283465
 10
-19.1141968503937
 20
1.245350393700787
 10
-19.13131102362205
 20
1.258102362204724
 10
-19.14922047244094
 20
1.268889763779528
 10
-19.16792519685039
 20
1.277720472440945
 10
-19.18742913385827
 20
1.284590551181102
 10
-19.20773228346457
 20
1.2895
 10
-19.22883464566929
 20
1.292444881889764
 10
-19.25074409448819
 20
1.293425196850394
 10
-19.27294094488189
 20
1.292452755905512
 10
-19.29425196850394
 20
1.289531496062992
 10
-19.3146811023622
 20
1.284665354330709
 10
-19.33422440944882
 20
1.277846456692913
 10
-19.35288188976378
 20
1.269082677165354
 10
-19.37065748031496
 20
1.258366141732284
 10
-19.38754724409449
 20
1.245696850393701
 10
-19.40355118110236
 20
1.23107874015748
 10
-19.41067716535433
 20
1.223622047244094
 10
-19.41741732283464
 20
1.215862204724409
 10
-19.42377165354331
 20
1.207811023622047
 10
-19.42974409448819
 20
1.199456692913386
 10
-19.43533070866142
 20
1.190811023622047
 10
-19.44053543307087
 20
1.181870078740157
 10
-19.44535826771654
 20
1.172633858267716
 10
-19.4498031496063
 20
1.163106299212598
 10
-19.45379133858268
 20
1.153299212598425
 10
-19.45724015748031
 20
1.143220472440945
 10
-19.46016141732283
 20
1.132877952755905
 10
-19.46254330708662
 20
1.122271653543307
 10
-19.46439763779528
 20
1.111393700787402
 10
-19.46572047244095
 20
1.100251968503937
 10
-19.46651181102362
 20
1.088842519685039
 10
-19.46677559055118
 20
1.077169291338583
  0
LWPOLYLINE
  5
84
330
1F
100
AcDbEntity
  8
Layer 1
 62
     7
370
     9
100
AcDbPolyline
 90
      113
 70
     1
 43
0.0
 10
-18.69357480314961
 20
1.20842125984252
 10
-18.68267322834646
 20
1.201011811023622
 10
-18.6725157480315
 20
1.192602362204724
 10
-18.66309842519685
 20
1.183192913385827
 10
-18.65441732283465
 20
1.172779527559055
 10
-18.64647244094488
 20
1.161362204724409
 10
-18.63926771653543
 20
1.148937007874016
 10
-18.63279527559055
 20
1.1355
 10
-18.62705511811023
 20
1.121055118110236
 10
-18.62064173228346
 20
1.101917322834646
 10
-18.61508267716535
 20
1.082496062992126
 10
-18.61038188976378
 20
1.062791338582677
 10
-18.60653543307087
 20
1.042811023622047
 10
-18.60354724409449
 20
1.022547244094488
 10
-18.6014094488189
 20
1.002007874015748
 10
-18.60012598425197
 20
0.9811850393700787
 10
-18.59970078740157
 20
0.9600905511811023
 10
-18.59987795275591
 20
0.9497244094488189
 10
-18.60040551181102
 20
0.938476377952756
 10
-18.6012874015748
 20
0.9263503937007874
 10
-18.60253149606299
 20
0.9133425196850393
 10
-18.60579921259842
 20
0.8879566929133859
 10
-18.61007086614173
 20
0.8639724409448819
 10
-18.61535039370079
 20
0.8413897637795276
 10
-18.62163385826772
 20
0.8202086614173228
 10
-18.62891732283465
 20
0.8004291338582677
 10
-18.63720472440945
 20
0.7820511811023622
 10
-18.64648818897638
 20
0.7650826771653544
 10
-18.65677165354331
 20
0.74951968503937
 10
-18.66616141732283
 20
0.7377834645669291
 10
-18.67605118110236
 20
0.7276141732283464
 10
-18.68644488188976
 20
0.7190078740157481
 10
-18.69733858267717
 20
0.7119645669291339
 10
-18.70873622047244
 20
0.706488188976378
 10
-18.72063779527559
 20
0.7025787401574803
 10
-18.73304330708661
 20
0.7002322834645669
 10
-18.74594881889764
 20
0.6994488188976378
 10
-18.76033858267716
 20
0.7002244094488189
 10
-18.77403937007874
 20
0.7025551181102362
 10
-18.78705118110236
 20
0.7064330708661417
 10
-18.79937007874016
 20
0.7118582677165355
 10
-18.811
 20
0.7188307086614173
 10
-18.82193307086614
 20
0.7273543307086614
 10
-18.83217322834646
 20
0.7374173228346457
 10
-18.84171653543307
 20
0.749023622047244
 10
-18.84574409448819
 20
0.7546574803149606
 10
-18.84960236220472
 20
0.7604685039370078
 10
-18.85328346456693
 20
0.7664566929133858
 10
-18.85679133858268
 20
0.7726259842519685
 10
-18.86011811023622
 20
0.7789685039370079
 10
-18.86327165354331
 20
0.7854960629921259
 10
-18.86624409448819
 20
0.7922047244094488
 10
-18.86903937007874
 20
0.7990944881889763
 10
-18.87415748031496
 20
0.8131023622047244
 10
-18.87861417322835
 20
0.8272913385826771
 10
-18.88241732283464
 20
0.8416574803149607
 10
-18.88557874015748
 20
0.8561889763779528
 10
-18.8882125984252
 20
0.8707244094488189
 10
-18.89042519685039
 20
0.885007874015748
 10
-18.89220866141732
 20
0.8990472440944882
 10
-18.89356692913386
 20
0.9128464566929134
 10
-18.89412598425197
 20
0.9198307086614174
 10
-18.89461023622047
 20
0.9270787401574803
 10
-18.89501968503937
 20
0.9345905511811023
 10
-18.89535826771654
 20
0.9423582677165354
 10
-18.8956220472441
 20
0.9503818897637796
 10
-18.89581102362205
 20
0.9586614173228346
 10
-18.89592125984252
 20
0.9671929133858268
 10
-18.89596062992126
 20
0.9759724409448819
 10
-18.89579921259843
 20
0.9851535433070866
 10
-18.89530708661417
 20
0.9948661417322835
 10
-18.89449606299213
 20
1.005118110236221
 10
-18.89335826771654
 20
1.01590157480315
 10
-18.8918937007874
 20
1.027228346456693
 10
-18.89011023622047
 20
1.039094488188976
 10
-18.88800393700787
 20
1.0515
 10
-18.88557874015748
 20
1.064456692913386
 10
-18.88244094488189
 20
1.078814960629921
 10
-18.87872440944882
 20
1.093122047244095
 10
-18.87442125984252
 20
1.107366141732284
 10
-18.86953937007874
 20
1.121551181102362
 10
-18.86685433070866
 20
1.128547244094488
 10
-18.86397244094488
 20
1.135370078740157
 10
-18.86089763779528
 20
1.142007874015748
 10
-18.85762992125984
 20
1.148472440944882
 10
-18.85416535433071
 20
1.154751968503937
 10
-18.85050787401575
 20
1.160858267716535
 10
-18.84666141732284
 20
1.166779527559055
 10
-18.84261811023622
 20
1.172523622047244
 10
-18.83839763779527
 20
1.178055118110236
 10
-18.83396456692913
 20
1.183307086614173
 10
-18.82932283464567
 20
1.188271653543307
 10
-18.82447244094488
 20
1.192956692913386
 10
-18.81941732283465
 20
1.197362204724409
 10
-18.81415354330709
 20
1.201492125984252
 10
-18.80868897637795
 20
1.205342519685039
 10
-18.80301968503937
 20
1.208917322834646
 10
-18.7971062992126
 20
1.21211811023622
 10
-18.7909251968504
 20
1.214897637795276
 10
-18.7844842519685
 20
1.217248031496063
 10
-18.77777559055118
 20
1.219169291338583
 10
-18.7708031496063
 20
1.220669291338583
 10
-18.76356692913386
 20
1.221736220472441
 10
-18.75607086614173
 20
1.222381889763779
 10
-18.74831102362205
 20
1.222594488188976
 10
-18.74053149606299
 20
1.222374015748031
 10
-18.73301968503937
 20
1.221712598425197
 10
-18.72577559055118
 20
1.220610236220472
 10
-18.71879921259843
 20
1.219062992125984
 10
-18.7120905511811
 20
1.217070866141732
 10
-18.70564960629921
 20
1.214633858267717
 10
-18.69948031496063
 20
1.211751968503937
 10
-18.69357480314961
 20
1.20842125984252
  0
LWPOLYLINE
  5
85
330
1F
100
AcDbEntity
  8
Layer 1
 62
     7
370
     9
100
AcDbPolyline
 90
       65
 70
     1
 43
0.0
 10
-18.74501574803149
 20
0.6324094488188976
 10
-18.71746456692913
 20
0.6341574803149607
 10
-18.69166535433071
 20
0.6394055118110237
 10
-18.66762204724409
 20
0.6481535433070866
 10
-18.64533464566929
 20
0.6603976377952756
 10
-18.62479921259843
 20
0.6761377952755906
 10
-18.6060157480315
 20
0.6953740157480315
 10
-18.58898818897638
 20
0.7181062992125984
 10
-18.57371653543307
 20
0.7443307086614174
 10
-18.56299606299213
 20
0.7672047244094489
 10
-18.55370472440945
 20
0.7913503937007874
 10
-18.54583858267717
 20
0.816771653543307
 10
-18.53940551181102
 20
0.8434606299212598
 10
-18.53439763779528
 20
0.8714212598425197
 10
-18.53082283464567
 20
0.9006496062992126
 10
-18.52867716535433
 20
0.9311496062992126
 10
-18.52796062992126
 20
0.9629173228346457
 10
-18.52867716535433
 20
0.9946850393700788
 10
-18.53082283464567
 20
1.025185039370079
 10
-18.53439763779528
 20
1.054413385826772
 10
-18.53940551181102
 20
1.082374015748031
 10
-18.54583858267717
 20
1.109062992125984
 10
-18.55370472440945
 20
1.134484251968504
 10
-18.56299606299213
 20
1.158629921259843
 10
-18.57371653543307
 20
1.181503937007874
 10
-18.58898818897638
 20
1.207728346456693
 10
-18.6060157480315
 20
1.23046062992126
 10
-18.62479921259843
 20
1.249696850393701
 10
-18.64533464566929
 20
1.265437007874016
 10
-18.66762204724409
 20
1.277681102362205
 10
-18.69166535433071
 20
1.286429133858268
 10
-18.71746456692913
 20
1.291677165354331
 10
-18.74501574803149
 20
1.293425196850394
 10
-18.77255905511811
 20
1.291677165354331
 10
-18.79834645669292
 20
1.286429133858268
 10
-18.8223779527559
 20
1.277681102362205
 10
-18.84466141732284
 20
1.265437007874016
 10
-18.86518897637795
 20
1.249696850393701
 10
-18.88396456692913
 20
1.23046062992126
 10
-18.9009842519685
 20
1.207728346456693
 10
-18.91625590551181
 20
1.181503937007874
 10
-18.92697637795276
 20
1.158629921259843
 10
-18.93626771653543
 20
1.134484251968504
 10
-18.94413385826772
 20
1.109062992125984
 10
-18.95056692913386
 20
1.082374015748031
 10
-18.95557480314961
 20
1.054413385826772
 10
-18.95914960629921
 20
1.025185039370079
 10
-18.96129527559055
 20
0.9946850393700788
 10
-18.96201181102362
 20
0.9629173228346457
 10
-18.96129527559055
 20
0.9311496062992126
 10
-18.95914960629921
 20
0.9006496062992126
 10
-18.95557480314961
 20
0.8714212598425197
 10
-18.95056692913386
 20
0.8434606299212598
 10
-18.94413385826772
 20
0.816771653543307
 10
-18.93626771653543
 20
0.7913503937007874
 10
-18.92697637795276
 20
0.7672047244094489
 10
-18.91625590551181
 20
0.7443307086614174
 10
-18.9009842519685
 20
0.7181062992125984
 10
-18.88396456692913
 20
0.6953740157480315
 10
-18.86518897637795
 20
0.6761377952755906
 10
-18.84466141732284
 20
0.6603976377952756
 10
-18.8223779527559
 20
0.6481535433070866
 10
-18.79834645669292
 20
0.6394055118110237
 10
-18.77255905511811
 20
0.6341574803149607
 10
-18.74501574803149
 20
0.6324094488188976
  0
LWPOLYLINE
  5
86
330
1F
100
AcDbEntity
  8
Layer 1
 62
     7
370
     9
100
AcDbPolyline
 90
      162
 70
     1
 43
0.0
 10
-17.88357086614173
 20
0.6427913385826771
 10
-17.8175157480315
 20
0.6427913385826771
 10
-17.8175157480315
 20
0.9024645669291339
 10
-17.81805511811024
 20
0.9197125984251968
 10
-17.81967716535433
 20
0.9361496062992126
 10
-17.82237401574803
 20
0.951767716535433
 10
-17.82614960629921
 20
0.9665748031496063
 10
-17.831
 20
0.9805708661417323
 10
-17.83692519685039
 20
0.993751968503937
 10
-17.84392125984252
 20
1.006122047244095
 10
-17.85198818897638
 20
1.017681102362205
 10
-17.85648818897638
 20
1.023204724409449
 10
-17.86126771653543
 20
1.028448818897638
 10
-17.86632677165354
 20
1.033413385826772
 10
-17.87166929133858
 20
1.03809842519685
 10
-17.87729133858268
 20
1.042496062992126
 10
-17.88319291338583
 20
1.04661811023622
 10
-17.8893779527559
 20
1.050456692913386
 10
-17.89584645669291
 20
1.054011811023622
 10
-17.90272047244094
 20
1.057236220472441
 10
-17.91012204724409
 20
1.060027559055118
 10
-17.91805511811024
 20
1.062389763779528
 10
-17.92651574803149
 20
1.064318897637795
 10
-17.93551181102362
 20
1.065822834645669
 10
-17.94503543307087
 20
1.066893700787402
 10
-17.95509842519685
 20
1.06753937007874
 10
-17.96569291338583
 20
1.067751968503937
 10
-17.97636614173229
 20
1.067381889763779
 10
-17.98670078740157
 20
1.066275590551181
 10
-17.99670078740158
 20
1.064433070866142
 10
-18.00636614173228
 20
1.061850393700787
 10
-18.01568897637795
 20
1.058531496062992
 10
-18.02467716535433
 20
1.054468503937008
 10
-18.03332283464567
 20
1.049669291338583
 10
-18.04162992125984
 20
1.044129921259842
 10
-18.04883464566929
 20
1.038610236220473
 10
-18.05571653543307
 20
1.032681102362205
 10
-18.06227559055118
 20
1.026350393700787
 10
-18.06850787401575
 20
1.019618110236221
 10
-18.07442125984252
 20
1.012488188976378
 10
-18.08000787401575
 20
1.004964566929134
 10
-18.08527165354331
 20
0.9970472440944882
 10
-18.0902125984252
 20
0.988744094488189
 10
-18.09404330708661
 20
0.9964094488188976
 10
-18.09822047244095
 20
1.003807086614173
 10
-18.10275196850394
 20
1.010909448818898
 10
-18.10764960629921
 20
1.017681102362205
 10
-18.11216141732283
 20
1.023204724409449
 10
-18.11695275590551
 20
1.028448818897638
 10
-18.12201968503937
 20
1.033413385826772
 10
-18.12736614173228
 20
1.03809842519685
 10
-18.13298818897638
 20
1.042496062992126
 10
-18.13888582677165
 20
1.04661811023622
 10
-18.14505905511811
 20
1.050456692913386
 10
-18.15150787401575
 20
1.054011811023622
 10
-18.15838582677165
 20
1.057236220472441
 10
-18.16579133858268
 20
1.060027559055118
 10
-18.17373228346457
 20
1.062389763779528
 10
-18.18220078740157
 20
1.064318897637795
 10
-18.1911968503937
 20
1.065822834645669
 10
-18.20072440944882
 20
1.066893700787402
 10
-18.21077559055118
 20
1.06753937007874
 10
-18.22135433070866
 20
1.067751968503937
 10
-18.23203543307087
 20
1.067381889763779
 10
-18.24237795275591
 20
1.066275590551181
 10
-18.25237795275591
 20
1.064433070866142
 10
-18.26204330708661
 20
1.061850393700787
 10
-18.27136614173228
 20
1.058531496062992
 10
-18.28035433070866
 20
1.054468503937008
 10
-18.28900787401575
 20
1.049669291338583
 10
-18.29732283464567
 20
1.044129921259842
 10
-18.30419291338583
 20
1.038874015748031
 10
-18.31076771653543
 20
1.033263779527559
 10
-18.31704724409449
 20
1.027299212598425
 10
-18.32302755905512
 20
1.020976377952756
 10
-18.3287125984252
 20
1.014291338582677
 10
-18.33410236220472
 20
1.007240157480315
 10
-18.33918897637795
 20
0.9998267716535433
 10
-18.34398031496063
 20
0.9920393700787402
 10
-18.34398031496063
 20
1.058303149606299
 10
-18.41006299212598
 20
1.058303149606299
 10
-18.41006299212598
 20
0.6427913385826771
 10
-18.34398031496063
 20
0.6427913385826771
 10
-18.34398031496063
 20
0.8554094488188977
 10
-18.34246062992126
 20
0.8678031496062992
 10
-18.34046456692914
 20
0.8797086614173228
 10
-18.33799606299213
 20
0.8911377952755906
 10
-18.33505511811024
 20
0.9020905511811024
 10
-18.33163779527559
 20
0.9125669291338583
 10
-18.32774803149606
 20
0.9225748031496063
 10
-18.32338582677165
 20
0.9321141732283464
 10
-18.31855118110236
 20
0.9411929133858268
 10
-18.31461023622047
 20
0.9476535433070866
 10
-18.31034645669291
 20
0.9538228346456693
 10
-18.30575590551181
 20
0.9596929133858267
 10
-18.30084251968504
 20
0.9652716535433071
 10
-18.29560236220473
 20
0.9705551181102362
 10
-18.29004330708661
 20
0.9755472440944882
 10
-18.28416141732284
 20
0.980240157480315
 10
-18.27795669291338
 20
0.9846417322834645
 10
-18.27152362204724
 20
0.9886220472440945
 10
-18.26497244094488
 20
0.9920708661417322
 10
-18.25830708661417
 20
0.994992125984252
 10
-18.25152362204724
 20
0.9973858267716535
 10
-18.24462598425197
 20
0.999248031496063
 10
-18.23761811023622
 20
1.000574803149606
 10
-18.23049212598425
 20
1.001374015748032
 10
-18.22325196850394
 20
1.001641732283465
 10
-18.21616929133858
 20
1.0015
 10
-18.20955905511811
 20
1.00107874015748
 10
-18.20342519685039
 20
1.000374015748031
 10
-18.19775984251968
 20
0.9993897637795276
 10
-18.19257086614173
 20
0.9981259842519685
 10
-18.18785433070866
 20
0.9965826771653543
 10
-18.1836062992126
 20
0.9947598425196851
 10
-18.17982677165354
 20
0.9926614173228346
 10
-18.1703188976378
 20
0.9856220472440945
 10
-18.16207874015748
 20
0.9773740157480315
 10
-18.1551062992126
 20
0.9679173228346457
 10
-18.14940551181103
 20
0.957248031496063
 10
-18.14496850393701
 20
0.9453700787401574
 10
-18.14179921259842
 20
0.9322795275590551
 10
-18.13989763779528
 20
0.9179763779527559
 10
-18.13926377952756
 20
0.9024645669291339
 10
-18.13926377952756
 20
0.6427913385826771
 10
-18.07324015748031
 20
0.6427913385826771
 10
-18.07324015748031
 20
0.9024645669291339
 10
-18.07367716535433
 20
0.9183464566929134
 10
-18.06285826771654
 20
0.9411929133858268
 10
-18.05892125984252
 20
0.9476535433070866
 10
-18.05465748031496
 20
0.9538228346456693
 10
-18.05007480314961
 20
0.9596929133858267
 10
-18.04516535433071
 20
0.9652716535433071
 10
-18.03993307086614
 20
0.9705551181102362
 10
-18.03437795275591
 20
0.9755472440944882
 10
-18.0285
 20
0.980240157480315
 10
-18.02229527559055
 20
0.9846417322834645
 10
-18.01586220472441
 20
0.9886220472440945
 10
-18.00931102362205
 20
0.9920708661417322
 10
-18.00264173228346
 20
0.994992125984252
 10
-17.99585433070866
 20
0.9973858267716535
 10
-17.98895275590551
 20
0.999248031496063
 10
-17.98192913385827
 20
1.000574803149606
 10
-17.9747874015748
 20
1.001374015748032
 10
-17.96752755905512
 20
1.001641732283465
 10
-17.96046456692913
 20
1.0015
 10
-17.95387007874016
 20
1.00107874015748
 10
-17.94774803149606
 20
1.000374015748031
 10
-17.9420905511811
 20
0.9993897637795276
 10
-17.93690551181102
 20
0.9981259842519685
 10
-17.93218897637795
 20
0.9965826771653543
 10
-17.92794488188976
 20
0.9947598425196851
 10
-17.92416535433071
 20
0.9926614173228346
 10
-17.91465748031496
 20
0.9856220472440945
 10
-17.90641338582677
 20
0.9773740157480315
 10
-17.89943700787402
 20
0.9679173228346457
 10
-17.89372834645669
 20
0.957248031496063
 10
-17.88928346456693
 20
0.9453700787401574
 10
-17.88611023622047
 20
0.9322795275590551
 10
-17.88420472440945
 20
0.9179763779527559
 10
-17.88357086614173
 20
0.9024645669291339
 10
-17.88357086614173
 20
0.6427913385826771
  0
LWPOLYLINE
  5
87
330
1F
100
AcDbEntity
  8
Layer 1
 62
     7
370
     9
100
AcDbPolyline
 90
      162
 70
     1
 43
0.0
 10
-17.16367716535433
 20
0.6427913385826771
 10
-17.09762598425197
 20
0.6427913385826771
 10
-17.09762598425197
 20
0.9024645669291339
 10
-17.09816535433071
 20
0.9197125984251968
 10
-17.09977952755905
 20
0.9361496062992126
 10
-17.10247244094488
 20
0.951767716535433
 10
-17.10624409448819
 20
0.9665748031496063
 10
-17.11108661417323
 20
0.9805708661417323
 10
-17.11700393700787
 20
0.993751968503937
 10
-17.12399606299213
 20
1.006122047244095
 10
-17.13206299212598
 20
1.017681102362205
 10
-17.13657480314961
 20
1.023204724409449
 10
-17.14136220472441
 20
1.028448818897638
 10
-17.14642519685039
 20
1.033413385826772
 10
-17.15177165354331
 20
1.03809842519685
 10
-17.1573937007874
 20
1.042496062992126
 10
-17.16329921259842
 20
1.04661811023622
 10
-17.16948425196851
 20
1.050456692913386
 10
-17.17595275590551
 20
1.054011811023622
 10
-17.18282677165354
 20
1.057236220472441
 10
-17.19022834645669
 20
1.060027559055118
 10
-17.19816141732283
 20
1.062389763779528
 10
-17.2066220472441
 20
1.064318897637795
 10
-17.21561811023622
 20
1.065822834645669
 10
-17.22514173228346
 20
1.066893700787402
 10
-17.23520472440945
 20
1.06753937007874
 10
-17.24579921259842
 20
1.067751968503937
 10
-17.25647244094488
 20
1.067381889763779
 10
-17.2668031496063
 20
1.066275590551181
 10
-17.2768031496063
 20
1.064433070866142
 10
-17.28646062992126
 20
1.061850393700787
 10
-17.29578346456693
 20
1.058531496062992
 10
-17.30477165354331
 20
1.054468503937008
 10
-17.31342125984252
 20
1.049669291338583
 10
-17.32173622047244
 20
1.044129921259842
 10
-17.32894094488189
 20
1.038610236220473
 10
-17.3358188976378
 20
1.032681102362205
 10
-17.34237007874016
 20
1.026350393700787
 10
-17.34859842519685
 20
1.019618110236221
 10
-17.35450393700787
 20
1.012488188976378
 10
-17.36008661417323
 20
1.004964566929134
 10
-17.36534645669291
 20
0.9970472440944882
 10
-17.3702874015748
 20
0.988744094488189
 10
-17.37412204724409
 20
0.9964094488188976
 10
-17.37831102362205
 20
1.003807086614173
 10
-17.38285433070866
 20
1.010909448818898
 10
-17.38775590551181
 20
1.017681102362205
 10
-17.39226771653543
 20
1.023204724409449
 10
-17.39705511811024
 20
1.028448818897638
 10
-17.40211811023622
 20
1.033413385826772
 10
-17.40746062992126
 20
1.03809842519685
 10
-17.41308267716536
 20
1.042496062992126
 10
-17.41898031496063
 20
1.04661811023622
 10
-17.42516141732283
 20
1.050456692913386
 10
-17.43161811023622
 20
1.054011811023622
 10
-17.43849212598425
 20
1.057236220472441
 10
-17.44590157480315
 20
1.060027559055118
 10
-17.45383858267716
 20
1.062389763779528
 10
-17.46230708661417
 20
1.064318897637795
 10
-17.47130708661417
 20
1.065822834645669
 10
-17.48083070866142
 20
1.066893700787402
 10
-17.49088188976378
 20
1.06753937007874
 10
-17.50146062992126
 20
1.067751968503937
 10
-17.51213385826772
 20
1.067381889763779
 10
-17.52247244094488
 20
1.066275590551181
 10
-17.53247244094488
 20
1.064433070866142
 10
-17.54213385826772
 20
1.061850393700787
 10
-17.55145669291339
 20
1.058531496062992
 10
-17.56044488188977
 20
1.054468503937008
 10
-17.5690905511811
 20
1.049669291338583
 10
-17.57739763779528
 20
1.044129921259842
 10
-17.58427559055118
 20
1.038874015748031
 10
-17.59085433070866
 20
1.033263779527559
 10
-17.59713779527559
 20
1.027299212598425
 10
-17.60311811023622
 20
1.020976377952756
 10
-17.6088031496063
 20
1.014291338582677
 10
-17.61419291338583
 20
1.007240157480315
 10
-17.6192874015748
 20
0.9998267716535433
 10
-17.62408661417323
 20
0.9920393700787402
 10
-17.62408661417323
 20
1.058303149606299
 10
-17.69013779527559
 20
1.058303149606299
 10
-17.69013779527559
 20
0.6427913385826771
 10
-17.62408661417323
 20
0.6427913385826771
 10
-17.62408661417323
 20
0.8554094488188977
 10
-17.62256692913386
 20
0.8678031496062992
 10
-17.62057086614173
 20
0.8797086614173228
 10
-17.61810236220472
 20
0.8911377952755906
 10
-17.61515748031496
 20
0.9020905511811024
 10
-17.61173622047244
 20
0.9125669291338583
 10
-17.60784251968504
 20
0.9225748031496063
 10
-17.60347244094488
 20
0.9321141732283464
 10
-17.59862598425197
 20
0.9411929133858268
 10
-17.5946968503937
 20
0.9476535433070866
 10
-17.59044094488189
 20
0.9538228346456693
 10
-17.58585433070866
 20
0.9596929133858267
 10
-17.58094488188976
 20
0.9652716535433071
 10
-17.57570866141732
 20
0.9705551181102362
 10
-17.57014960629921
 20
0.9755472440944882
 10
-17.56426771653543
 20
0.980240157480315
 10
-17.55806299212598
 20
0.9846417322834645
 10
-17.55162992125984
 20
0.9886220472440945
 10
-17.54507874015748
 20
0.9920708661417322
 10
-17.53841338582677
 20
0.994992125984252
 10
-17.53163385826772
 20
0.9973858267716535
 10
-17.52473622047244
 20
0.999248031496063
 10
-17.51772440944882
 20
1.000574803149606
 10
-17.51059842519685
 20
1.001374015748032
 10
-17.50335826771654
 20
1.001641732283465
 10
-17.49627559055118
 20
1.0015
 10
-17.48966535433071
 20
1.00107874015748
 10
-17.48353149606299
 20
1.000374015748031
 10
-17.47786614173229
 20
0.9993897637795276
 10
-17.47267716535433
 20
0.9981259842519685
 10
-17.46796062992126
 20
0.9965826771653543
 10
-17.4637125984252
 20
0.9947598425196851
 10
-17.45993307086614
 20
0.9926614173228346
 10
-17.45042519685039
 20
0.9856220472440945
 10
-17.44218503937008
 20
0.9773740157480315
 10
-17.4352125984252
 20
0.9679173228346457
 10
-17.42951181102362
 20
0.957248031496063
 10
-17.42507480314961
 20
0.9453700787401574
 10
-17.42190551181102
 20
0.9322795275590551
 10
-17.42000393700787
 20
0.9179763779527559
 10
-17.41937007874016
 20
0.9024645669291339
 10
-17.41937007874016
 20
0.6427913385826771
 10
-17.35334645669291
 20
0.6427913385826771
 10
-17.35334645669291
 20
0.9024645669291339
 10
-17.35378346456693
 20
0.9183464566929134
 10
-17.34296456692913
 20
0.9411929133858268
 10
-17.33902755905512
 20
0.9476535433070866
 10
-17.33476377952756
 20
0.9538228346456693
 10
-17.3301811023622
 20
0.9596929133858267
 10
-17.32527165354331
 20
0.9652716535433071
 10
-17.32003937007874
 20
0.9705551181102362
 10
-17.3144842519685
 20
0.9755472440944882
 10
-17.3086062992126
 20
0.980240157480315
 10
-17.30240157480315
 20
0.9846417322834645
 10
-17.29596850393701
 20
0.9886220472440945
 10
-17.28941732283464
 20
0.9920708661417322
 10
-17.28274803149606
 20
0.994992125984252
 10
-17.27596062992126
 20
0.9973858267716535
 10
-17.26905905511811
 20
0.999248031496063
 10
-17.26203543307087
 20
1.000574803149606
 10
-17.2548937007874
 20
1.001374015748032
 10
-17.24763385826772
 20
1.001641732283465
 10
-17.24057086614173
 20
1.0015
 10
-17.23397244094488
 20
1.00107874015748
 10
-17.22784251968504
 20
1.000374015748031
 10
-17.2221811023622
 20
0.9993897637795276
 10
-17.21699212598425
 20
0.9981259842519685
 10
-17.21227165354331
 20
0.9965826771653543
 10
-17.20801968503937
 20
0.9947598425196851
 10
-17.20424015748031
 20
0.9926614173228346
 10
-17.19474015748031
 20
0.9856220472440945
 10
-17.18650787401575
 20
0.9773740157480315
 10
-17.17953543307087
 20
0.9679173228346457
 10
-17.17383070866142
 20
0.957248031496063
 10
-17.16938976377953
 20
0.9453700787401574
 10
-17.16621653543307
 20
0.9322795275590551
 10
-17.16431102362205
 20
0.9179763779527559
 10
-17.16367716535433
 20
0.9024645669291339
 10
-17.16367716535433
 20
0.6427913385826771
  0
ENDSEC
  0
SECTION
  2
OBJECTS
  0
DICTIONARY
  5
C
330
0
100
AcDbDictionary
281
     1
  3
ACAD_DETAILVIEWSTYLE
350
8F
  3
ACAD_GROUP
350
D
  3
ACAD_LAYOUT
350
1A
  3
ACAD_MATERIAL
350
43
  3
ACAD_MLEADERSTYLE
350
5B
  3
ACAD_MLINESTYLE
350
17
  3
ACAD_PLOTSETTINGS
350
19
  3
ACAD_PLOTSTYLENAME
350
E
  3
ACAD_SCALELIST
350
47
  3
ACAD_SECTIONVIEWSTYLE
350
90
  3
ACAD_TABLESTYLE
350
59
  3
ACAD_VISUALSTYLE
350
2A
  3
ACDB_RECOMPOSE_DATA
350
8C
  3
AcDbVariableDictionary
350
88
  0
SUN
  5
5D
330
29
100
AcDbSun
 90
        1
290
     0
 63
     7
421
 16777215
 40
1.0
291
     1
 91
  2455826
 92
 54000000
292
     0
 70
     2
 71
   256
280
     1
  0
DICTIONARY
  5
8F
102
{ACAD_REACTORS
330
C
102
}
330
C
100
AcDbDictionary
281
     1
  0
DICTIONARY
  5
D
102
{ACAD_REACTORS
330
C
102
}
330
C
100
AcDbDictionary
281
     1
  0
DICTIONARY
  5
1A
102
{ACAD_REACTORS
330
C
102
}
330
C
100
AcDbDictionary
281
     1
  3
Layout1
350
1E
  3
Layout2
350
26
  3
Model
350
22
  0
DICTIONARY
  5
43
102
{ACAD_REACTORS
330
C
102
}
330
C
100
AcDbDictionary
281
     1
  3
ByBlock
350
45
  3
ByLayer
350
44
  3
Global
350
46
  0
DICTIONARY
  5
5B
102
{ACAD_REACTORS
330
C
102
}
330
C
100
AcDbDictionary
281
     1
  3
Standard
350
5C
  0
DICTIONARY
  5
17
102
{ACAD_REACTORS
330
C
102
}
330
C
100
AcDbDictionary
281
     1
  3
Standard
350
18
  0
DICTIONARY
  5
19
102
{ACAD_REACTORS
330
C
102
}
330
C
100
AcDbDictionary
281
     1
  0
ACDBDICTIONARYWDFLT
  5
E
102
{ACAD_REACTORS
330
C
102
}
330
C
100
AcDbDictionary
281
     1
  3
Normal
350
F
100
AcDbDictionaryWithDefault
340
F
  0
DICTIONARY
  5
47
102
{ACAD_REACTORS
330
C
102
}
330
C
100
AcDbDictionary
281
     1
  3
A0
350
48
  3
A1
350
49
  3
A2
350
4A
  3
A3
350
4B
  3
A4
350
4C
  3
A5
350
4D
  3
A6
350
4E
  3
A7
350
4F
  3
A8
350
50
  3
A9
350
51
  3
B1
350
52
  3
B2
350
53
  3
B3
350
54
  3
B4
350
55
  3
B5
350
56
  3
B6
350
57
  3
B7
350
58
  0
DICTIONARY
  5
90
102
{ACAD_REACTORS
330
C
102
}
330
C
100
AcDbDictionary
281
     1
  0
DICTIONARY
  5
59
102
{ACAD_REACTORS
330
C
102
}
330
C
100
AcDbDictionary
281
     1
  3
Standard
350
5A
  0
DICTIONARY
  5
2A
102
{ACAD_REACTORS
330
C
102
}
330
C
100
AcDbDictionary
281
     1
  3
2dWireframe
350
2F
  3
Basic
350
32
  3
Brighten
350
36
  3
ColorChange
350
3A
  3
Conceptual
350
34
  3
Dim
350
35
  3
EdgeColorOff
350
3D
  3
Facepattern
350
39
  3
Flat
350
2B
  3
FlatWithEdges
350
2C
  3
Gouraud
350
2D
  3
GouraudWithEdges
350
2E
  3
Hidden
350
31
  3
JitterOff
350
3B
  3
Linepattern
350
38
  3
OverhangOff
350
3C
  3
Realistic
350
33
  3
Shaded
350
42
  3
Shaded with edges
350
41
  3
Shades of Gray
350
3E
  3
Sketchy
350
3F
  3
Thicken
350
37
  3
Wireframe
350
30
  3
X-Ray
350
40
  0
XRECORD
  5
8C
102
{ACAD_REACTORS
330
C
102
}
330
C
100
AcDbXrecord
280
     1
 90
        1
330
5A
  0
DICTIONARY
  5
88
102
{ACAD_REACTORS
330
C
102
}
330
C
100
AcDbDictionary
281
     1
  3
CANNOSCALE
350
89
  3
CMLEADERSTYLE
350
8E
  3
CTABLESTYLE
350
8D
  0
LAYOUT
  5
1E
102
{ACAD_REACTORS
330
1A
102
}
330
1A
100
AcDbPlotSettings
  1

  2
none_device
  4

  6

 40
0.0
 41
0.0
 42
0.0
 43
0.0
 44
0.0
 45
0.0
 46
0.0
 47
0.0
 48
0.0
 49
0.0
140
0.0
141
0.0
142
1.0
143
1.0
 70
   688
 72
     0
 73
     0
 74
     5
  7

 75
    16
 76
     0
 77
     2
 78
   300
147
1.0
148
0.0
149
0.0
100
AcDbLayout
  1
Layout1
 70
     1
 71
     1
 10
0.0
 20
0.0
 11
12.0
 21
9.0
 12
0.0
 22
0.0
 32
0.0
 14
1.000000000000000E+20
 24
1.000000000000000E+20
 34
1.000000000000000E+20
 15
-1.000000000000000E+20
 25
-1.000000000000000E+20
 35
-1.000000000000000E+20
146
0.0
 13
0.0
 23
0.0
 33
0.0
 16
1.0
 26
0.0
 36
0.0
 17
0.0
 27
1.0
 37
0.0
 76
     0
330
1B
  0
LAYOUT
  5
26
102
{ACAD_REACTORS
330
1A
102
}
330
1A
100
AcDbPlotSettings
  1

  2
none_device
  4

  6

 40
0.0
 41
0.0
 42
0.0
 43
0.0
 44
0.0
 45
0.0
 46
0.0
 47
0.0
 48
0.0
 49
0.0
140
0.0
141
0.0
142
1.0
143
1.0
 70
   688
 72
     0
 73
     0
 74
     5
  7

 75
    16
 76
     0
 77
     2
 78
   300
147
1.0
148
0.0
149
0.0
100
AcDbLayout
  1
Layout2
 70
     1
 71
     2
 10
0.0
 20
0.0
 11
0.0
 21
0.0
 12
0.0
 22
0.0
 32
0.0
 14
0.0
 24
0.0
 34
0.0
 15
0.0
 25
0.0
 35
0.0
146
0.0
 13
0.0
 23
0.0
 33
0.0
 16
1.0
 26
0.0
 36
0.0
 17
0.0
 27
1.0
 37
0.0
 76
     0
330
23
  0
LAYOUT
  5
22
102
{ACAD_REACTORS
330
1A
102
}
330
1A
100
AcDbPlotSettings
  1

  2
none_device
  4
Letter_(8.50_x_11.00_Inches)
  6

 40
6.35
 41
6.35
 42
6.35000508
 43
6.35000508
 44
215.9
 45
279.4
 46
0.0
 47
0.0
 48
0.0
 49
0.0
140
0.0
141
0.0
142
1.0
143
1.0
 70
  1712
 72
     0
 73
     0
 74
     0
  7

 75
     0
 76
     0
 77
     2
 78
   300
147
1.0
148
0.0
149
0.0
100
AcDbLayout
  1
Model
 70
     1
 71
     0
 10
0.0
 20
0.0
 11
12.0
 21
9.0
 12
0.0
 22
0.0
 32
0.0
 14
-26.07618110236221
 24
0.1865551181102362
 34
0.0
 15
-13.83355905511811
 25
16.69428346456693
 35
0.0
146
0.0
 13
0.0
 23
0.0
 33
0.0
 16
1.0
 26
0.0
 36
0.0
 17
0.0
 27
1.0
 37
0.0
 76
     0
330
1F
331
29
  0
MATERIAL
  5
45
102
{ACAD_REACTORS
330
43
102
}
330
43
100
AcDbMaterial
  1
ByBlock
 72
     1
 94
      127
  0
MATERIAL
  5
44
102
{ACAD_REACTORS
330
43
102
}
330
43
100
AcDbMaterial
  1
ByLayer
 72
     1
 94
      127
  0
MATERIAL
  5
46
102
{ACAD_REACTORS
330
43
102
}
330
43
100
AcDbMaterial
  1
Global
 72
     1
 94
      127
  0
MLEADERSTYLE
  5
5C
102
{ACAD_REACTORS
330
5B
102
}
330
5B
100
AcDbMLeaderStyle
179
     2
170
     2
171
     1
172
     0
 90
        2
 40
0.0
 41
0.0
173
     1
 91
-1056964608
340
14
 92
       -2
290
     1
 42
0.09
291
     1
 43
0.36
  3
Standard
341
0
 44
0.18
300

342
11
174
     1
178
     6
175
     1
176
     0
 93
-1056964608
 45
0.18
292
     0
297
     0
 46
0.18
343
0
 94
-1056964608
 47
1.0
 49
1.0
140
1.0
293
     1
141
0.0
294
     1
177
     0
142
1.0
295
     0
296
     0
143
0.125
271
     0
272
     9
273
     9
298
     0
  0
MLINESTYLE
  5
18
102
{ACAD_REACTORS
330
17
102
}
330
17
100
AcDbMlineStyle
  2
Standard
 70
     0
  3

 62
   256
 51
90.0
 52
90.0
 71
     2
 49
0.5
 62
   256
  6
BYLAYER
 49
-0.5
 62
   256
  6
BYLAYER
  0
ACDBPLACEHOLDER
  5
F
102
{ACAD_REACTORS
330
E
102
}
330
E
  0
SCALE
  5
48
102
{ACAD_REACTORS
330
47
102
}
330
47
100
AcDbScale
 70
     0
300
1:1
140
1.0
141
1.0
290
     1
  0
SCALE
  5
49
102
{ACAD_REACTORS
330
47
102
}
330
47
100
AcDbScale
 70
     0
300
1/128" = 1'-0"
140
0.0078125
141
12.0
290
     0
  0
SCALE
  5
4A
102
{ACAD_REACTORS
330
47
102
}
330
47
100
AcDbScale
 70
     0
300
1/64" = 1'-0"
140
0.015625
141
12.0
290
     0
  0
SCALE
  5
4B
102
{ACAD_REACTORS
330
47
102
}
330
47
100
AcDbScale
 70
     0
300
1/32" = 1'-0"
140
0.03125
141
12.0
290
     0
  0
SCALE
  5
4C
102
{ACAD_REACTORS
330
47
102
}
330
47
100
AcDbScale
 70
     0
300
1/16" = 1'-0"
140
0.0625
141
12.0
290
     0
  0
SCALE
  5
4D
102
{ACAD_REACTORS
330
47
102
}
330
47
100
AcDbScale
 70
     0
300
3/32" = 1'-0"
140
0.09375
141
12.0
290
     0
  0
SCALE
  5
4E
102
{ACAD_REACTORS
330
47
102
}
330
47
100
AcDbScale
 70
     0
300
1/8" = 1'-0"
140
0.125
141
12.0
290
     0
  0
SCALE
  5
4F
102
{ACAD_REACTORS
330
47
102
}
330
47
100
AcDbScale
 70
     0
300
3/16" = 1'-0"
140
0.1875
141
12.0
290
     0
  0
SCALE
  5
50
102
{ACAD_REACTORS
330
47
102
}
330
47
100
AcDbScale
 70
     0
300
1/4" = 1'-0"
140
0.25
141
12.0
290
     0
  0
SCALE
  5
51
102
{ACAD_REACTORS
330
47
102
}
330
47
100
AcDbScale
 70
     0
300
3/8" = 1'-0"
140
0.375
141
12.0
290
     0
  0
SCALE
  5
52
102
{ACAD_REACTORS
330
47
102
}
330
47
100
AcDbScale
 70
     0
300
1/2" = 1'-0"
140
0.5
141
12.0
290
     0
  0
SCALE
  5
53
102
{ACAD_REACTORS
330
47
102
}
330
47
100
AcDbScale
 70
     0
300
3/4" = 1'-0"
140
0.75
141
12.0
290
     0
  0
SCALE
  5
54
102
{ACAD_REACTORS
330
47
102
}
330
47
100
AcDbScale
 70
     0
300
1" = 1'-0"
140
1.0
141
12.0
290
     0
  0
SCALE
  5
55
102
{ACAD_REACTORS
330
47
102
}
330
47
100
AcDbScale
 70
     0
300
1-1/2" = 1'-0"
140
1.5
141
12.0
290
     0
  0
SCALE
  5
56
102
{ACAD_REACTORS
330
47
102
}
330
47
100
AcDbScale
 70
     0
300
3" = 1'-0"
140
3.0
141
12.0
290
     0
  0
SCALE
  5
57
102
{ACAD_REACTORS
330
47
102
}
330
47
100
AcDbScale
 70
     0
300
6" = 1'-0"
140
6.0
141
12.0
290
     0
  0
SCALE
  5
58
102
{ACAD_REACTORS
330
47
102
}
330
47
100
AcDbScale
 70
     0
300
1'-0" = 1'-0"
140
12.0
141
12.0
290
     0
  0
TABLESTYLE
  5
5A
102
{ACAD_REACTORS
330
59
102
}
102
{ACAD_XDICTIONARY
360
8A
102
}
330
59
100
AcDbTableStyle
  3
Standard
 70
     0
 71
     0
 40
0.06
 41
0.06
280
     0
281
     0
  7
Standard
140
0.18
170
     2
 62
     0
 63
   257
283
     0
 90
        4
 91
        0
  1

274
    -2
284
     1
 64
     0
275
    -2
285
     1
 65
     0
276
    -2
286
     1
 66
     0
277
    -2
287
     1
 67
     0
278
    -2
288
     1
 68
     0
279
    -2
289
     1
 69
     0
  7
Standard
140
0.25
170
     5
 62
     0
 63
   257
283
     0
 90
        4
 91
        0
  1

274
    -2
284
     1
 64
     0
275
    -2
285
     1
 65
     0
276
    -2
286
     1
 66
     0
277
    -2
287
     1
 67
     0
278
    -2
288
     1
 68
     0
279
    -2
289
     1
 69
     0
  7
Standard
140
0.18
170
     5
 62
     0
 63
   257
283
     0
 90
        4
 91
        0
  1

274
    -2
284
     1
 64
     0
275
    -2
285
     1
 65
     0
276
    -2
286
     1
 66
     0
277
    -2
287
     1
 67
     0
278
    -2
288
     1
 68
     0
279
    -2
289
     1
 69
     0
  0
VISUALSTYLE
  5
2F
102
{ACAD_REACTORS
330
2A
102
}
330
2A
100
AcDbVisualStyle
  2
2dWireframe
 70
     4
177
     3
291
     0
 70
    58
 90
        0
176
     1
 90
        2
176
     1
 90
        0
176
     1
 90
        0
176
     1
 40
0.6
176
     1
 40
30.0
176
     1
 62
     7
420
 16777215
176
     1
 90
        1
176
     1
 90
        4
176
     1
 62
     7
176
     1
 62
   257
176
     1
 90
        1
176
     1
 90
        1
176
     1
 40
1.0
176
     1
 90
        0
176
     1
 62
   257
176
     1
 40
1.0
176
     1
 90
        1
176
     1
 90
        6
176
     1
 90
        2
176
     1
 62
     7
176
     1
 90
        5
176
     1
 90
        0
176
     1
 90
        0
176
     1
290
     0
176
     1
 90
        1
176
     1
 40
0.0
176
     1
 90
        0
176
     1
290
     1
176
     1
290
     1
176
     1
290
     0
176
     1
290
     0
176
     1
290
     0
176
     1
290
     0
176
     1
290
     0
176
     1
290
     0
176
     1
290
     0
176
     1
 90
       50
176
     1
 40
0.0
176
     1
 40
1.0
176
     1
 90
        0
176
     1
 62
    18
420
        0
176
     1
 90
       50
176
     1
 90
        3
176
     1
 62
     5
420
      255
176
     1
290
     0
176
     1
 90
       50
176
     1
 90
       50
176
     1
 90
       50
176
     1
290
     0
176
     1
 90
       50
176
     1
 62
   256
176
     0
 40
1.0
176
     0
 90
        2
176
     1
  1
strokes_ogs.tif
176
     1
290
     0
176
     1
 40
1.0
176
     1
 40
1.0
176
     1
  0
VISUALSTYLE
  5
32
102
{ACAD_REACTORS
330
2A
102
}
330
2A
100
AcDbVisualStyle
  2
Basic
 70
     7
177
     3
291
     1
 70
    58
 90
        1
176
     1
 90
        0
176
     1
 90
        1
176
     1
 90
        0
176
     1
 40
0.6
176
     1
 40
30.0
176
     1
 62
     7
420
 16777215
176
     1
 90
        0
176
     1
 90
        4
176
     1
 62
     7
176
     1
 62
   257
176
     1
 90
        1
176
     1
 90
        1
176
     1
 40
1.0
176
     1
 90
        8
176
     1
 62
     7
176
     1
 40
1.0
176
     1
 90
        1
176
     1
 90
        6
176
     1
 90
        2
176
     1
 62
     7
176
     1
 90
        5
176
     1
 90
        0
176
     1
 90
        0
176
     1
290
     0
176
     1
 90
        1
176
     1
 40
0.0
176
     1
 90
        0
176
     1
290
     0
176
     1
290
     1
176
     1
290
     1
176
     1
290
     0
176
     1
290
     0
176
     1
290
     0
176
     1
290
     0
176
     1
290
     0
176
     1
290
     0
176
     1
 90
       50
176
     1
 40
0.0
176
     1
 40
1.0
176
     1
 90
        0
176
     1
 62
    18
420
        0
176
     1
 90
       50
176
     1
 90
        3
176
     1
 62
     5
420
      255
176
     1
290
     0
176
     1
 90
       50
176
     1
 90
       50
176
     1
 90
       50
176
     1
290
     0
176
     1
 90
       50
176
     1
 62
   256
176
     0
 40
1.0
176
     0
 90
        2
176
     1
  1
strokes_ogs.tif
176
     1
290
     0
176
     1
 40
1.0
176
     1
 40
1.0
176
     1
  0
VISUALSTYLE
  5
36
102
{ACAD_REACTORS
330
2A
102
}
330
2A
100
AcDbVisualStyle
  2
Brighten
 70
    12
177
     3
291
     1
 70
    58
 90
        2
176
     1
 90
        2
176
     1
 90
        0
176
     1
 90
        0
176
     1
 40
0.6
176
     1
 40
30.0
176
     1
 62
     7
420
 16777215
176
     1
 90
        1
176
     1
 90
        4
176
     1
 62
     7
176
     1
 62
   257
176
     1
 90
        1
176
     1
 90
        1
176
     1
 40
1.0
176
     1
 90
        8
176
     1
 62
     7
176
     1
 40
1.0
176
     1
 90
        1
176
     1
 90
        6
176
     1
 90
        2
176
     1
 62
     7
176
     1
 90
        5
176
     1
 90
        0
176
     1
 90
        0
176
     1
290
     0
176
     1
 90
        1
176
     1
 40
50.0
176
     1
 90
        0
176
     1
290
     0
176
     1
290
     1
176
     1
290
     1
176
     1
290
     0
176
     1
290
     0
176
     1
290
     0
176
     1
290
     0
176
     1
290
     0
176
     1
290
     0
176
     1
 90
       50
176
     1
 40
0.0
176
     1
 40
1.0
176
     1
 90
        0
176
     1
 62
    18
420
        0
176
     1
 90
       50
176
     1
 90
        3
176
     1
 62
     5
420
      255
176
     1
290
     0
176
     1
 90
       50
176
     1
 90
       50
176
     1
 90
       50
176
     1
290
     0
176
     1
 90
       50
176
     1
 62
   256
176
     0
 40
1.0
176
     0
 90
        2
176
     1
  1
strokes_ogs.tif
176
     1
290
     0
176
     1
 40
1.0
176
     1
 40
1.0
176
     1
  0
VISUALSTYLE
  5
3A
102
{ACAD_REACTORS
330
2A
102
}
330
2A
100
AcDbVisualStyle
  2
ColorChange
 70
    16
177
     3
291
     1
 70
    58
 90
        2
176
     1
 90
        2
176
     1
 90
        3
176
     1
 90
        0
176
     1
 40
0.6
176
     1
 40
30.0
176
     1
 62
     8
420
  8421504
176
     1
 90
        1
176
     1
 90
        4
176
     1
 62
     7
176
     1
 62
   257
176
     1
 90
        1
176
     1
 90
        1
176
     1
 40
1.0
176
     1
 90
        8
176
     1
 62
     8
420
  8421504
176
     1
 40
1.0
176
     1
 90
        1
176
     1
 90
        6
176
     1
 90
        2
176
     1
 62
     7
176
     1
 90
        5
176
     1
 90
        0
176
     1
 90
        0
176
     1
290
     0
176
     1
 90
        1
176
     1
 40
0.0
176
     1
 90
        0
176
     1
290
     0
176
     1
290
     1
176
     1
290
     1
176
     1
290
     0
176
     1
290
     0
176
     1
290
     0
176
     1
290
     0
176
     1
290
     0
176
     1
290
     0
176
     1
 90
       50
176
     1
 40
0.0
176
     1
 40
1.0
176
     1
 90
        0
176
     1
 62
    18
420
        0
176
     1
 90
       50
176
     1
 90
        3
176
     1
 62
     5
420
      255
176
     1
290
     0
176
     1
 90
       50
176
     1
 90
       50
176
     1
 90
       50
176
     1
290
     0
176
     1
 90
       50
176
     1
 62
   256
176
     0
 40
1.0
176
     0
 90
        2
176
     1
  1
strokes_ogs.tif
176
     1
290
     0
176
     1
 40
1.0
176
     1
 40
1.0
176
     1
  0
VISUALSTYLE
  5
34
102
{ACAD_REACTORS
330
2A
102
}
330
2A
100
AcDbVisualStyle
  2
Conceptual
 70
     9
177
     3
291
     0
 70
    58
 90
        3
176
     1
 90
        2
176
     1
 90
        0
176
     1
 90
        0
176
     1
 40
0.6
176
     1
 40
30.0
176
     1
 62
     7
420
 16777215
176
     1
 90
        2
176
     1
 90
        2
176
     1
 62
     7
176
     1
 62
   257
176
     1
 90
        1
176
     1
 90
        1
176
     1
 40
179.0
176
     1
 90
        8
176
     1
 62
     7
176
     1
 40
1.0
176
     1
 90
        1
176
     1
 90
        6
176
     1
 90
        2
176
     1
 62
     7
176
     1
 90
        3
176
     1
 90
        0
176
     1
 90
        0
176
     1
290
     0
176
     1
 90
        1
176
     1
 40
0.0
176
     1
 90
        0
176
     1
290
     0
176
     1
290
     1
176
     1
290
     1
176
     1
290
     0
176
     1
290
     0
176
     1
290
     0
176
     1
290
     0
176
     1
290
     0
176
     1
290
     0
176
     1
 90
       50
176
     1
 40
0.0
176
     1
 40
1.0
176
     1
 90
        0
176
     1
 62
    18
420
        0
176
     1
 90
       50
176
     1
 90
        3
176
     1
 62
     5
420
      255
176
     1
290
     0
176
     1
 90
       50
176
     1
 90
       50
176
     1
 90
       50
176
     1
290
     0
176
     1
 90
       50
176
     1
 62
   256
176
     0
 40
1.0
176
     0
 90
        2
176
     1
  1
strokes_ogs.tif
176
     1
290
     0
176
     1
 40
1.0
176
     1
 40
1.0
176
     1
  0
VISUALSTYLE
  5
35
102
{ACAD_REACTORS
330
2A
102
}
330
2A
100
AcDbVisualStyle
  2
Dim
 70
    11
177
     3
291
     1
 70
    58
 90
        2
176
     1
 90
        2
176
     1
 90
        0
176
     1
 90
        0
176
     1
 40
0.6
176
     1
 40
30.0
176
     1
 62
     7
420
 16777215
176
     1
 90
        1
176
     1
 90
        4
176
     1
 62
     7
176
     1
 62
   257
176
     1
 90
        1
176
     1
 90
        1
176
     1
 40
1.0
176
     1
 90
        8
176
     1
 62
     7
176
     1
 40
1.0
176
     1
 90
        1
176
     1
 90
        6
176
     1
 90
        2
176
     1
 62
     7
176
     1
 90
        5
176
     1
 90
        0
176
     1
 90
        0
176
     1
290
     0
176
     1
 90
        1
176
     1
 40
-50.0
176
     1
 90
        0
176
     1
290
     0
176
     1
290
     1
176
     1
290
     1
176
     1
290
     0
176
     1
290
     0
176
     1
290
     0
176
     1
290
     0
176
     1
290
     0
176
     1
290
     0
176
     1
 90
       50
176
     1
 40
0.0
176
     1
 40
1.0
176
     1
 90
        0
176
     1
 62
    18
420
        0
176
     1
 90
       50
176
     1
 90
        3
176
     1
 62
     5
420
      255
176
     1
290
     0
176
     1
 90
       50
176
     1
 90
       50
176
     1
 90
       50
176
     1
290
     0
176
     1
 90
       50
176
     1
 62
   256
176
     0
 40
1.0
176
     0
 90
        2
176
     1
  1
strokes_ogs.tif
176
     1
290
     0
176
     1
 40
1.0
176
     1
 40
1.0
176
     1
  0
VISUALSTYLE
  5
3D
102
{ACAD_REACTORS
330
2A
102
}
330
2A
100
AcDbVisualStyle
  2
EdgeColorOff
 70
    22
177
     3
291
     1
 70
    58
 90
        2
176
     0
 90
        2
176
     0
 90
        0
176
     0
 90
        0
176
     0
 40
0.6
176
     0
 40
30.0
176
     0
 62
     7
420
 16777215
176
     0
 90
        1
176
     0
 90
        4
176
     0
 62
     7
176
     0
 62
   257
176
     0
 90
        1
176
     0
 90
        1
176
     0
 40
1.0
176
     0
 90
        8
176
     2
 62
     7
176
     0
 40
1.0
176
     0
 90
        1
176
     0
 90
        6
176
     0
 90
        2
176
     0
 62
     7
176
     0
 90
        5
176
     0
 90
        0
176
     0
 90
        0
176
     0
290
     0
176
     0
 90
        1
176
     0
 40
0.0
176
     0
 90
        0
176
     0
290
     0
176
     0
290
     1
176
     0
290
     1
176
     0
290
     0
176
     0
290
     0
176
     0
290
     0
176
     0
290
     0
176
     0
290
     0
176
     0
290
     0
176
     0
 90
       50
176
     0
 40
0.0
176
     0
 40
1.0
176
     0
 90
        0
176
     0
 62
    18
420
        0
176
     0
 90
       50
176
     0
 90
        3
176
     0
 62
     5
420
      255
176
     0
290
     0
176
     0
 90
       50
176
     0
 90
       50
176
     0
 90
       50
176
     0
290
     0
176
     0
 90
       50
176
     0
 62
   256
176
     0
 40
1.0
176
     0
 90
        2
176
     0
  1
strokes_ogs.tif
176
     0
290
     0
176
     0
 40
1.0
176
     0
 40
1.0
176
     0
  0
VISUALSTYLE
  5
39
102
{ACAD_REACTORS
330
2A
102
}
330
2A
100
AcDbVisualStyle
  2
Facepattern
 70
    15
177
     3
291
     1
 70
    58
 90
        2
176
     1
 90
        2
176
     1
 90
        0
176
     1
 90
        0
176
     1
 40
0.6
176
     1
 40
30.0
176
     1
 62
     7
420
 16777215
176
     1
 90
        1
176
     1
 90
        4
176
     1
 62
     7
176
     1
 62
   257
176
     1
 90
        1
176
     1
 90
        1
176
     1
 40
1.0
176
     1
 90
        8
176
     1
 62
     7
176
     1
 40
1.0
176
     1
 90
        1
176
     1
 90
        6
176
     1
 90
        2
176
     1
 62
     7
176
     1
 90
        5
176
     1
 90
        0
176
     1
 90
        0
176
     1
290
     0
176
     1
 90
        1
176
     1
 40
0.0
176
     1
 90
        0
176
     1
290
     0
176
     1
290
     1
176
     1
290
     1
176
     1
290
     0
176
     1
290
     0
176
     1
290
     0
176
     1
290
     0
176
     1
290
     0
176
     1
290
     0
176
     1
 90
       50
176
     1
 40
0.0
176
     1
 40
1.0
176
     1
 90
        0
176
     1
 62
    18
420
        0
176
     1
 90
       50
176
     1
 90
        3
176
     1
 62
     5
420
      255
176
     1
290
     0
176
     1
 90
       50
176
     1
 90
       50
176
     1
 90
       50
176
     1
290
     0
176
     1
 90
       50
176
     1
 62
   256
176
     0
 40
1.0
176
     0
 90
        2
176
     1
  1
strokes_ogs.tif
176
     1
290
     0
176
     1
 40
1.0
176
     1
 40
1.0
176
     1
  0
VISUALSTYLE
  5
2B
102
{ACAD_REACTORS
330
2A
102
}
330
2A
100
AcDbVisualStyle
  2
Flat
 70
     0
177
     3
291
     1
 70
    58
 90
        2
176
     1
 90
        1
176
     1
 90
        1
176
     1
 90
        2
176
     1
 40
0.6
176
     1
 40
30.0
176
     1
 62
     7
420
 16777215
176
     1
 90
        0
176
     1
 90
        0
176
     1
 62
     7
176
     1
 62
   257
176
     1
 90
        1
176
     1
 90
        1
176
     1
 40
1.0
176
     1
 90
        8
176
     1
 62
     7
176
     1
 40
1.0
176
     1
 90
        1
176
     1
 90
        6
176
     1
 90
        2
176
     1
 62
     7
176
     1
 90
        5
176
     1
 90
        0
176
     1
 90
        0
176
     1
290
     0
176
     1
 90
       13
176
     1
 40
0.0
176
     1
 90
        0
176
     1
290
     0
176
     1
290
     1
176
     1
290
     1
176
     1
290
     0
176
     1
290
     0
176
     1
290
     0
176
     1
290
     0
176
     1
290
     0
176
     1
290
     0
176
     1
 90
       50
176
     1
 40
0.0
176
     1
 40
1.0
176
     1
 90
        0
176
     1
 62
    18
420
        0
176
     1
 90
       50
176
     1
 90
        3
176
     1
 62
     5
420
      255
176
     1
290
     0
176
     1
 90
       50
176
     1
 90
       50
176
     1
 90
       50
176
     1
290
     0
176
     1
 90
       50
176
     1
 62
   256
176
     0
 40
1.0
176
     0
 90
        2
176
     1
  1
strokes_ogs.tif
176
     1
290
     0
176
     1
 40
1.0
176
     1
 40
1.0
176
     1
  0
VISUALSTYLE
  5
2C
102
{ACAD_REACTORS
330
2A
102
}
330
2A
100
AcDbVisualStyle
  2
FlatWithEdges
 70
     1
177
     3
291
     1
 70
    58
 90
        2
176
     1
 90
        1
176
     1
 90
        1
176
     1
 90
        2
176
     1
 40
0.6
176
     1
 40
30.0
176
     1
 62
     7
420
 16777215
176
     1
 90
        1
176
     1
 90
        0
176
     1
 62
     7
176
     1
 62
   257
176
     1
 90
        1
176
     1
 90
        1
176
     1
 40
1.0
176
     1
 90
        0
176
     1
 62
   257
176
     1
 40
1.0
176
     1
 90
        1
176
     1
 90
        6
176
     1
 90
        2
176
     1
 62
     7
176
     1
 90
        5
176
     1
 90
        0
176
     1
 90
        0
176
     1
290
     0
176
     1
 90
       13
176
     1
 40
0.0
176
     1
 90
        0
176
     1
290
     0
176
     1
290
     1
176
     1
290
     1
176
     1
290
     0
176
     1
290
     0
176
     1
290
     0
176
     1
290
     0
176
     1
290
     0
176
     1
290
     0
176
     1
 90
       50
176
     1
 40
0.0
176
     1
 40
1.0
176
     1
 90
        0
176
     1
 62
    18
420
        0
176
     1
 90
       50
176
     1
 90
        3
176
     1
 62
     5
420
      255
176
     1
290
     0
176
     1
 90
       50
176
     1
 90
       50
176
     1
 90
       50
176
     1
290
     0
176
     1
 90
       50
176
     1
 62
   256
176
     0
 40
1.0
176
     0
 90
        2
176
     1
  1
strokes_ogs.tif
176
     1
290
     0
176
     1
 40
1.0
176
     1
 40
1.0
176
     1
  0
VISUALSTYLE
  5
2D
102
{ACAD_REACTORS
330
2A
102
}
330
2A
100
AcDbVisualStyle
  2
Gouraud
 70
     2
177
     3
291
     1
 70
    58
 90
        2
176
     1
 90
        2
176
     1
 90
        1
176
     1
 90
        2
176
     1
 40
0.6
176
     1
 40
30.0
176
     1
 62
     7
420
 16777215
176
     1
 90
        0
176
     1
 90
        0
176
     1
 62
     7
176
     1
 62
   257
176
     1
 90
        1
176
     1
 90
        1
176
     1
 40
1.0
176
     1
 90
        0
176
     1
 62
     7
176
     1
 40
1.0
176
     1
 90
        1
176
     1
 90
        6
176
     1
 90
        2
176
     1
 62
     7
176
     1
 90
        5
176
     1
 90
        0
176
     1
 90
        0
176
     1
290
     0
176
     1
 90
       13
176
     1
 40
0.0
176
     1
 90
        0
176
     1
290
     0
176
     1
290
     1
176
     1
290
     1
176
     1
290
     0
176
     1
290
     0
176
     1
290
     0
176
     1
290
     0
176
     1
290
     0
176
     1
290
     0
176
     1
 90
       50
176
     1
 40
0.0
176
     1
 40
1.0
176
     1
 90
        0
176
     1
 62
    18
420
        0
176
     1
 90
       50
176
     1
 90
        3
176
     1
 62
     5
420
      255
176
     1
290
     0
176
     1
 90
       50
176
     1
 90
       50
176
     1
 90
       50
176
     1
290
     0
176
     1
 90
       50
176
     1
 62
   256
176
     0
 40
1.0
176
     0
 90
        2
176
     1
  1
strokes_ogs.tif
176
     1
290
     0
176
     1
 40
1.0
176
     1
 40
1.0
176
     1
  0
VISUALSTYLE
  5
2E
102
{ACAD_REACTORS
330
2A
102
}
330
2A
100
AcDbVisualStyle
  2
GouraudWithEdges
 70
     3
177
     3
291
     1
 70
    58
 90
        2
176
     1
 90
        2
176
     1
 90
        1
176
     1
 90
        2
176
     1
 40
0.6
176
     1
 40
30.0
176
     1
 62
     7
420
 16777215
176
     1
 90
        1
176
     1
 90
        0
176
     1
 62
     7
176
     1
 62
   257
176
     1
 90
        1
176
     1
 90
        1
176
     1
 40
1.0
176
     1
 90
        0
176
     1
 62
   257
176
     1
 40
1.0
176
     1
 90
        1
176
     1
 90
        6
176
     1
 90
        2
176
     1
 62
     7
176
     1
 90
        5
176
     1
 90
        0
176
     1
 90
        0
176
     1
290
     0
176
     1
 90
       13
176
     1
 40
0.0
176
     1
 90
        0
176
     1
290
     0
176
     1
290
     1
176
     1
290
     1
176
     1
290
     0
176
     1
290
     0
176
     1
290
     0
176
     1
290
     0
176
     1
290
     0
176
     1
290
     0
176
     1
 90
       50
176
     1
 40
0.0
176
     1
 40
1.0
176
     1
 90
        0
176
     1
 62
    18
420
        0
176
     1
 90
       50
176
     1
 90
        3
176
     1
 62
     5
420
      255
176
     1
290
     0
176
     1
 90
       50
176
     1
 90
       50
176
     1
 90
       50
176
     1
290
     0
176
     1
 90
       50
176
     1
 62
   256
176
     0
 40
1.0
176
     0
 90
        2
176
     1
  1
strokes_ogs.tif
176
     1
290
     0
176
     1
 40
1.0
176
     1
 40
1.0
176
     1
  0
VISUALSTYLE
  5
31
102
{ACAD_REACTORS
330
2A
102
}
330
2A
100
AcDbVisualStyle
  2
Hidden
 70
     6
177
     3
291
     0
 70
    58
 90
        1
176
     1
 90
        2
176
     1
 90
        2
176
     1
 90
        0
176
     1
 40
0.6
176
     1
 40
30.0
176
     1
 62
     7
420
 16777215
176
     1
 90
        2
176
     1
 90
        2
176
     1
 62
     7
176
     1
 62
   257
176
     1
 90
        2
176
     1
 90
        1
176
     1
 40
40.0
176
     1
 90
        0
176
     1
 62
   257
176
     1
 40
1.0
176
     1
 90
        1
176
     1
 90
        6
176
     1
 90
        2
176
     1
 62
     7
176
     1
 90
        3
176
     1
 90
        0
176
     1
 90
        0
176
     1
290
     0
176
     1
 90
        1
176
     1
 40
0.0
176
     1
 90
        0
176
     1
290
     0
176
     1
290
     1
176
     1
290
     1
176
     1
290
     0
176
     1
290
     0
176
     1
290
     0
176
     1
290
     0
176
     1
290
     0
176
     1
290
     0
176
     1
 90
       50
176
     1
 40
0.0
176
     1
 40
1.0
176
     1
 90
        0
176
     1
 62
    18
420
        0
176
     1
 90
       50
176
     1
 90
        3
176
     1
 62
     5
420
      255
176
     1
290
     0
176
     1
 90
       50
176
     1
 90
       50
176
     1
 90
       50
176
     1
290
     0
176
     1
 90
       50
176
     1
 62
   256
176
     0
 40
1.0
176
     0
 90
        2
176
     1
  1
strokes_ogs.tif
176
     1
290
     0
176
     1
 40
1.0
176
     1
 40
1.0
176
     1
  0
VISUALSTYLE
  5
3B
102
{ACAD_REACTORS
330
2A
102
}
330
2A
100
AcDbVisualStyle
  2
JitterOff
 70
    20
177
     3
291
     1
 70
    58
 90
        2
176
     0
 90
        2
176
     0
 90
        0
176
     0
 90
        0
176
     0
 40
0.6
176
     0
 40
30.0
176
     0
 62
     7
420
 16777215
176
     0
 90
        1
176
     0
 90
        4
176
     0
 62
     7
176
     0
 62
   257
176
     0
 90
        1
176
     0
 90
        1
176
     0
 40
1.0
176
     0
 90
       10
176
     2
 62
     7
176
     0
 40
1.0
176
     0
 90
        1
176
     0
 90
        6
176
     0
 90
        2
176
     0
 62
     7
176
     0
 90
        5
176
     0
 90
        0
176
     0
 90
        0
176
     0
290
     0
176
     0
 90
        1
176
     0
 40
0.0
176
     0
 90
        0
176
     0
290
     0
176
     0
290
     1
176
     0
290
     1
176
     0
290
     0
176
     0
290
     0
176
     0
290
     0
176
     0
290
     0
176
     0
290
     0
176
     0
290
     0
176
     0
 90
       50
176
     0
 40
0.0
176
     0
 40
1.0
176
     0
 90
        0
176
     0
 62
    18
420
        0
176
     0
 90
       50
176
     0
 90
        3
176
     0
 62
     5
420
      255
176
     0
290
     0
176
     0
 90
       50
176
     0
 90
       50
176
     0
 90
       50
176
     0
290
     0
176
     0
 90
       50
176
     0
 62
   256
176
     0
 40
1.0
176
     0
 90
        2
176
     0
  1
strokes_ogs.tif
176
     0
290
     0
176
     0
 40
1.0
176
     0
 40
1.0
176
     0
  0
VISUALSTYLE
  5
38
102
{ACAD_REACTORS
330
2A
102
}
330
2A
100
AcDbVisualStyle
  2
Linepattern
 70
    14
177
     3
291
     1
 70
    58
 90
        2
176
     1
 90
        2
176
     1
 90
        0
176
     1
 90
        0
176
     1
 40
0.6
176
     1
 40
30.0
176
     1
 62
     7
420
 16777215
176
     1
 90
        1
176
     1
 90
        4
176
     1
 62
     7
176
     1
 62
   257
176
     1
 90
        7
176
     1
 90
        7
176
     1
 40
1.0
176
     1
 90
        8
176
     1
 62
     7
176
     1
 40
1.0
176
     1
 90
        1
176
     1
 90
        6
176
     1
 90
        2
176
     1
 62
     7
176
     1
 90
        5
176
     1
 90
        0
176
     1
 90
        0
176
     1
290
     0
176
     1
 90
        1
176
     1
 40
0.0
176
     1
 90
        0
176
     1
290
     0
176
     1
290
     1
176
     1
290
     1
176
     1
290
     0
176
     1
290
     0
176
     1
290
     0
176
     1
290
     0
176
     1
290
     0
176
     1
290
     0
176
     1
 90
       50
176
     1
 40
0.0
176
     1
 40
1.0
176
     1
 90
        0
176
     1
 62
    18
420
        0
176
     1
 90
       50
176
     1
 90
        3
176
     1
 62
     5
420
      255
176
     1
290
     0
176
     1
 90
       50
176
     1
 90
       50
176
     1
 90
       50
176
     1
290
     0
176
     1
 90
       50
176
     1
 62
   256
176
     0
 40
1.0
176
     0
 90
        2
176
     1
  1
strokes_ogs.tif
176
     1
290
     0
176
     1
 40
1.0
176
     1
 40
1.0
176
     1
  0
VISUALSTYLE
  5
3C
102
{ACAD_REACTORS
330
2A
102
}
330
2A
100
AcDbVisualStyle
  2
OverhangOff
 70
    21
177
     3
291
     1
 70
    58
 90
        2
176
     0
 90
        2
176
     0
 90
        0
176
     0
 90
        0
176
     0
 40
0.6
176
     0
 40
30.0
176
     0
 62
     7
420
 16777215
176
     0
 90
        1
176
     0
 90
        4
176
     0
 62
     7
176
     0
 62
   257
176
     0
 90
        1
176
     0
 90
        1
176
     0
 40
1.0
176
     0
 90
        9
176
     2
 62
     7
176
     0
 40
1.0
176
     0
 90
        1
176
     0
 90
        6
176
     0
 90
        2
176
     0
 62
     7
176
     0
 90
        5
176
     0
 90
        0
176
     0
 90
        0
176
     0
290
     0
176
     0
 90
        1
176
     0
 40
0.0
176
     0
 90
        0
176
     0
290
     0
176
     0
290
     1
176
     0
290
     1
176
     0
290
     0
176
     0
290
     0
176
     0
290
     0
176
     0
290
     0
176
     0
290
     0
176
     0
290
     0
176
     0
 90
       50
176
     0
 40
0.0
176
     0
 40
1.0
176
     0
 90
        0
176
     0
 62
    18
420
        0
176
     0
 90
       50
176
     0
 90
        3
176
     0
 62
     5
420
      255
176
     0
290
     0
176
     0
 90
       50
176
     0
 90
       50
176
     0
 90
       50
176
     0
290
     0
176
     0
 90
       50
176
     0
 62
   256
176
     0
 40
1.0
176
     0
 90
        2
176
     0
  1
strokes_ogs.tif
176
     0
290
     0
176
     0
 40
1.0
176
     0
 40
1.0
176
     0
  0
VISUALSTYLE
  5
33
102
{ACAD_REACTORS
330
2A
102
}
330
2A
100
AcDbVisualStyle
  2
Realistic
 70
     8
177
     3
291
     0
 70
    58
 90
        2
176
     1
 90
        3
176
     1
 90
        0
176
     1
 90
        2
176
     1
 40
0.6
176
     1
 40
30.0
176
     1
 62
     7
420
 16777215
176
     1
 90
        0
176
     1
 90
        0
176
     1
 62
     7
176
     1
 62
   257
176
     1
 90
        1
176
     1
 90
        1
176
     1
 40
1.0
176
     1
 90
        8
176
     1
 62
   257
176
     1
 40
1.0
176
     1
 90
        1
176
     1
 90
        6
176
     1
 90
        2
176
     1
 62
     7
176
     1
 90
        3
176
     1
 90
        0
176
     1
 90
        0
176
     1
290
     0
176
     1
 90
       13
176
     1
 40
0.0
176
     1
 90
        0
176
     1
290
     0
176
     1
290
     1
176
     1
290
     1
176
     1
290
     0
176
     1
290
     0
176
     1
290
     0
176
     1
290
     0
176
     1
290
     0
176
     1
290
     0
176
     1
 90
       50
176
     1
 40
0.0
176
     1
 40
1.0
176
     1
 90
        0
176
     1
 62
    18
420
        0
176
     1
 90
       50
176
     1
 90
        3
176
     1
 62
     5
420
      255
176
     1
290
     0
176
     1
 90
       50
176
     1
 90
       50
176
     1
 90
       50
176
     1
290
     0
176
     1
 90
       50
176
     1
 62
   256
176
     0
 40
1.0
176
     0
 90
        2
176
     1
  1
strokes_ogs.tif
176
     1
290
     0
176
     1
 40
1.0
176
     1
 40
1.0
176
     1
  0
VISUALSTYLE
  5
42
102
{ACAD_REACTORS
330
2A
102
}
330
2A
100
AcDbVisualStyle
  2
Shaded
 70
    27
177
     3
291
     0
 70
    58
 90
        2
176
     1
 90
        2
176
     1
 90
        1
176
     1
 90
        2
176
     1
 40
0.6
176
     1
 40
30.0
176
     1
 62
     7
420
 16777215
176
     1
 90
        0
176
     1
 90
        4
176
     1
 62
     7
176
     1
 62
   257
176
     1
 90
        1
176
     1
 90
        1
176
     1
 40
1.0
176
     1
 90
        8
176
     1
 62
   257
176
     1
 40
1.0
176
     1
 90
        1
176
     1
 90
        6
176
     1
 90
        2
176
     1
 62
     8
420
  7895160
176
     1
 90
        3
176
     1
 90
        0
176
     1
 90
        0
176
     1
290
     0
176
     1
 90
        5
176
     1
 40
0.0
176
     1
 90
        0
176
     1
290
     0
176
     1
290
     1
176
     1
290
     1
176
     1
290
     0
176
     1
290
     0
176
     1
290
     0
176
     1
290
     0
176
     1
290
     0
176
     1
290
     0
176
     1
 90
       50
176
     1
 40
0.0
176
     1
 40
1.0
176
     1
 90
        0
176
     1
 62
    18
420
        0
176
     1
 90
       50
176
     1
 90
        3
176
     1
 62
     5
420
      255
176
     1
290
     0
176
     1
 90
       50
176
     1
 90
       50
176
     1
 90
       50
176
     1
290
     0
176
     1
 90
       50
176
     1
 62
   256
176
     0
 40
1.0
176
     0
 90
        2
176
     1
  1
strokes_ogs.tif
176
     1
290
     0
176
     1
 40
1.0
176
     1
 40
1.0
176
     1
  0
VISUALSTYLE
  5
41
102
{ACAD_REACTORS
330
2A
102
}
330
2A
100
AcDbVisualStyle
  2
Shaded with edges
 70
    26
177
     3
291
     0
 70
    58
 90
        2
176
     1
 90
        2
176
     1
 90
        1
176
     1
 90
        2
176
     1
 40
0.6
176
     1
 40
30.0
176
     1
 62
     7
420
 16777215
176
     1
 90
        1
176
     1
 90
       10
176
     1
 62
     7
176
     1
 62
   257
176
     1
 90
        2
176
     1
 90
        1
176
     1
 40
1.0
176
     1
 90
        8
176
     1
 62
   257
176
     1
 40
1.0
176
     1
 90
        1
176
     1
 90
        6
176
     1
 90
        2
176
     1
 62
     7
176
     1
 90
        3
176
     1
 90
        0
176
     1
 90
        0
176
     1
290
     0
176
     1
 90
        5
176
     1
 40
0.0
176
     1
 90
        0
176
     1
290
     0
176
     1
290
     1
176
     1
290
     1
176
     1
290
     0
176
     1
290
     0
176
     1
290
     0
176
     1
290
     0
176
     1
290
     0
176
     1
290
     0
176
     1
 90
       50
176
     1
 40
0.0
176
     1
 40
1.0
176
     1
 90
        0
176
     1
 62
    18
420
        0
176
     1
 90
       50
176
     1
 90
        3
176
     1
 62
     5
420
      255
176
     1
290
     0
176
     1
 90
       50
176
     1
 90
       50
176
     1
 90
       50
176
     1
290
     0
176
     1
 90
       50
176
     1
 62
   256
176
     0
 40
1.0
176
     0
 90
        2
176
     1
  1
strokes_ogs.tif
176
     1
290
     0
176
     1
 40
1.0
176
     1
 40
1.0
176
     1
  0
VISUALSTYLE
  5
3E
102
{ACAD_REACTORS
330
2A
102
}
330
2A
100
AcDbVisualStyle
  2
Shades of Gray
 70
    23
177
     3
291
     0
 70
    58
 90
        2
176
     1
 90
        2
176
     1
 90
        3
176
     1
 90
        0
176
     1
 40
0.6
176
     1
 40
30.0
176
     1
 62
     7
420
 16777215
176
     1
 90
        2
176
     1
 90
        2
176
     1
 62
     7
176
     1
 62
     7
176
     1
 90
        1
176
     1
 90
        1
176
     1
 40
40.0
176
     1
 90
        8
176
     1
 62
     7
176
     1
 40
1.0
176
     1
 90
        1
176
     1
 90
        6
176
     1
 90
        2
176
     1
 62
     7
176
     1
 90
        3
176
     1
 90
        0
176
     1
 90
        0
176
     1
290
     0
176
     1
 90
        1
176
     1
 40
0.0
176
     1
 90
        0
176
     1
290
     0
176
     1
290
     1
176
     1
290
     1
176
     1
290
     0
176
     1
290
     0
176
     1
290
     0
176
     1
290
     0
176
     1
290
     0
176
     1
290
     0
176
     1
 90
       50
176
     1
 40
0.0
176
     1
 40
1.0
176
     1
 90
        0
176
     1
 62
    18
420
        0
176
     1
 90
       50
176
     1
 90
        3
176
     1
 62
     5
420
      255
176
     1
290
     0
176
     1
 90
       50
176
     1
 90
       50
176
     1
 90
       50
176
     1
290
     0
176
     1
 90
       50
176
     1
 62
   256
176
     0
 40
1.0
176
     0
 90
        2
176
     1
  1
strokes_ogs.tif
176
     1
290
     0
176
     1
 40
1.0
176
     1
 40
1.0
176
     1
  0
VISUALSTYLE
  5
3F
102
{ACAD_REACTORS
330
2A
102
}
330
2A
100
AcDbVisualStyle
  2
Sketchy
 70
    24
177
     3
291
     0
 70
    58
 90
        1
176
     1
 90
        2
176
     1
 90
        2
176
     1
 90
        0
176
     1
 40
0.6
176
     1
 40
30.0
176
     1
 62
     7
420
 16777215
176
     1
 90
        2
176
     1
 90
        2
176
     1
 62
     7
176
     1
 62
     7
176
     1
 90
        1
176
     1
 90
        1
176
     1
 40
40.0
176
     1
 90
       11
176
     1
 62
     7
176
     1
 40
1.0
176
     1
 90
        1
176
     1
 90
        6
176
     1
 90
        2
176
     1
 62
     7
176
     1
 90
        6
176
     1
 90
        0
176
     1
 90
        0
176
     1
290
     0
176
     1
 90
        1
176
     1
 40
0.0
176
     1
 90
        0
176
     1
290
     0
176
     1
290
     1
176
     1
290
     1
176
     1
290
     0
176
     1
290
     0
176
     1
290
     0
176
     1
290
     0
176
     1
290
     0
176
     1
290
     0
176
     1
 90
       50
176
     1
 40
0.0
176
     1
 40
1.0
176
     1
 90
        0
176
     1
 62
    18
420
        0
176
     1
 90
       50
176
     1
 90
        3
176
     1
 62
     5
420
      255
176
     1
290
     0
176
     1
 90
       50
176
     1
 90
       50
176
     1
 90
       50
176
     1
290
     0
176
     1
 90
       50
176
     1
 62
   256
176
     0
 40
1.0
176
     0
 90
        2
176
     1
  1
strokes_ogs.tif
176
     1
290
     0
176
     1
 40
1.0
176
     1
 40
1.0
176
     1
  0
VISUALSTYLE
  5
37
102
{ACAD_REACTORS
330
2A
102
}
330
2A
100
AcDbVisualStyle
  2
Thicken
 70
    13
177
     3
291
     1
 70
    58
 90
        2
176
     1
 90
        2
176
     1
 90
        0
176
     1
 90
        0
176
     1
 40
0.6
176
     1
 40
30.0
176
     1
 62
     7
420
 16777215
176
     1
 90
        1
176
     1
 90
        4
176
     1
 62
     7
176
     1
 62
   257
176
     1
 90
        1
176
     1
 90
        1
176
     1
 40
1.0
176
     1
 90
       12
176
     1
 62
     7
176
     1
 40
1.0
176
     1
 90
        1
176
     1
 90
        6
176
     1
 90
        2
176
     1
 62
     7
176
     1
 90
        5
176
     1
 90
        0
176
     1
 90
        0
176
     1
290
     0
176
     1
 90
        1
176
     1
 40
0.0
176
     1
 90
        0
176
     1
290
     0
176
     1
290
     1
176
     1
290
     1
176
     1
290
     0
176
     1
290
     0
176
     1
290
     0
176
     1
290
     0
176
     1
290
     0
176
     1
290
     0
176
     1
 90
       50
176
     1
 40
0.0
176
     1
 40
1.0
176
     1
 90
        0
176
     1
 62
    18
420
        0
176
     1
 90
       50
176
     1
 90
        3
176
     1
 62
     5
420
      255
176
     1
290
     0
176
     1
 90
       50
176
     1
 90
       50
176
     1
 90
       50
176
     1
290
     0
176
     1
 90
       50
176
     1
 62
   256
176
     0
 40
1.0
176
     0
 90
        2
176
     1
  1
strokes_ogs.tif
176
     1
290
     0
176
     1
 40
1.0
176
     1
 40
1.0
176
     1
  0
VISUALSTYLE
  5
30
102
{ACAD_REACTORS
330
2A
102
}
330
2A
100
AcDbVisualStyle
  2
Wireframe
 70
     5
177
     3
291
     0
 70
    58
 90
        0
176
     1
 90
        2
176
     1
 90
        0
176
     1
 90
        0
176
     1
 40
0.6
176
     1
 40
30.0
176
     1
 62
     7
420
 16777215
176
     1
 90
        1
176
     1
 90
        4
176
     1
 62
     7
176
     1
 62
   257
176
     1
 90
        1
176
     1
 90
        1
176
     1
 40
1.0
176
     1
 90
        0
176
     1
 62
   257
176
     1
 40
1.0
176
     1
 90
        1
176
     1
 90
        6
176
     1
 90
        2
176
     1
 62
     7
176
     1
 90
        3
176
     1
 90
        0
176
     1
 90
        0
176
     1
290
     0
176
     1
 90
        1
176
     1
 40
0.0
176
     1
 90
        0
176
     1
290
     0
176
     1
290
     1
176
     1
290
     1
176
     1
290
     0
176
     1
290
     0
176
     1
290
     0
176
     1
290
     0
176
     1
290
     0
176
     1
290
     0
176
     1
 90
       50
176
     1
 40
0.0
176
     1
 40
1.0
176
     1
 90
        0
176
     1
 62
    18
420
        0
176
     1
 90
       50
176
     1
 90
        3
176
     1
 62
     5
420
      255
176
     1
290
     0
176
     1
 90
       50
176
     1
 90
       50
176
     1
 90
       50
176
     1
290
     0
176
     1
 90
       50
176
     1
 62
   256
176
     0
 40
1.0
176
     0
 90
        2
176
     1
  1
strokes_ogs.tif
176
     1
290
     0
176
     1
 40
1.0
176
     1
 40
1.0
176
     1
  0
VISUALSTYLE
  5
40
102
{ACAD_REACTORS
330
2A
102
}
330
2A
100
AcDbVisualStyle
  2
X-Ray
 70
    25
177
     3
291
     0
 70
    58
 90
        2
176
     1
 90
        2
176
     1
 90
        1
176
     1
 90
        1
176
     1
 40
0.5
176
     1
 40
30.0
176
     1
 62
     7
420
 16777215
176
     1
 90
        1
176
     1
 90
        0
176
     1
 62
     7
176
     1
 62
   257
176
     1
 90
        1
176
     1
 90
        1
176
     1
 40
1.0
176
     1
 90
        8
176
     1
 62
     7
176
     1
 40
1.0
176
     1
 90
        1
176
     1
 90
        6
176
     1
 90
        2
176
     1
 62
     7
176
     1
 90
        3
176
     1
 90
        0
176
     1
 90
        0
176
     1
290
     0
176
     1
 90
       13
176
     1
 40
0.0
176
     1
 90
        0
176
     1
290
     0
176
     1
290
     1
176
     1
290
     1
176
     1
290
     0
176
     1
290
     0
176
     1
290
     0
176
     1
290
     0
176
     1
290
     0
176
     1
290
     0
176
     1
 90
       50
176
     1
 40
0.0
176
     1
 40
1.0
176
     1
 90
        0
176
     1
 62
    18
420
        0
176
     1
 90
       50
176
     1
 90
        3
176
     1
 62
     5
420
      255
176
     1
290
     0
176
     1
 90
       50
176
     1
 90
       50
176
     1
 90
       50
176
     1
290
     0
176
     1
 90
       50
176
     1
 62
   256
176
     0
 40
1.0
176
     0
 90
        2
176
     1
  1
strokes_ogs.tif
176
     1
290
     0
176
     1
 40
1.0
176
     1
 40
1.0
176
     1
  0
DICTIONARYVAR
  5
89
102
{ACAD_REACTORS
330
88
102
}
330
88
100
DictionaryVariables
280
     0
  1
1:1
  0
DICTIONARYVAR
  5
8E
102
{ACAD_REACTORS
330
88
102
}
330
88
100
DictionaryVariables
280
     0
  1
Standard
  0
DICTIONARYVAR
  5
8D
102
{ACAD_REACTORS
330
88
102
}
330
88
100
DictionaryVariables
280
     0
  1
Standard
  0
DICTIONARY
  5
8A
330
5A
100
AcDbDictionary
280
     1
281
     1
  3
ACAD_ROUNDTRIP_2008_TABLESTYLE_CELLSTYLEMAP
360
8B
  0
CELLSTYLEMAP
  5
8B
102
{ACAD_REACTORS
330
8A
102
}
330
8A
100
AcDbCellStyleMap
 90
        3
300
CELLSTYLE
  1
TABLEFORMAT_BEGIN
 90
        5
170
     1
 91
        0
 92
    32768
 62
   257
 93
        1
300
CONTENTFORMAT
  1
CONTENTFORMAT_BEGIN
 90
        0
 91
        0
 92
        4
 93
        0
300

 40
0.0
140
1.0
 94
        5
 62
     0
340
11
144
0.25
309
CONTENTFORMAT_END
171
     1
301
MARGIN
  1
CELLMARGIN_BEGIN
 40
0.06
 40
0.06
 40
0.06
 40
0.06
 40
0.06
 40
0.06
309
CELLMARGIN_END
 94
        6
 95
        1
302
GRIDFORMAT
  1
GRIDFORMAT_BEGIN
 90
        0
 91
        1
 62
     0
 92
       -2
340
14
 93
        0
 40
0.045
309
GRIDFORMAT_END
 95
        2
302
GRIDFORMAT
  1
GRIDFORMAT_BEGIN
 90
        0
 91
        1
 62
     0
 92
       -2
340
14
 93
        0
 40
0.045
309
GRIDFORMAT_END
 95
        4
302
GRIDFORMAT
  1
GRIDFORMAT_BEGIN
 90
        0
 91
        1
 62
     0
 92
       -2
340
14
 93
        0
 40
0.045
309
GRIDFORMAT_END
 95
        8
302
GRIDFORMAT
  1
GRIDFORMAT_BEGIN
 90
        0
 91
        1
 62
     0
 92
       -2
340
14
 93
        0
 40
0.045
309
GRIDFORMAT_END
 95
       16
302
GRIDFORMAT
  1
GRIDFORMAT_BEGIN
 90
        0
 91
        1
 62
     0
 92
       -2
340
14
 93
        0
 40
0.045
309
GRIDFORMAT_END
 95
       32
302
GRIDFORMAT
  1
GRIDFORMAT_BEGIN
 90
        0
 91
        1
 62
     0
 92
       -2
340
14
 93
        0
 40
0.045
309
GRIDFORMAT_END
309
TABLEFORMAT_END
  1
CELLSTYLE_BEGIN
 90
        1
 91
        1
300
_TITLE
309
CELLSTYLE_END
300
CELLSTYLE
  1
TABLEFORMAT_BEGIN
 90
        5
170
     1
 91
        0
 92
        0
 62
   257
 93
        1
300
CONTENTFORMAT
  1
CONTENTFORMAT_BEGIN
 90
        0
 91
        0
 92
        4
 93
        0
300

 40
0.0
140
1.0
 94
        5
 62
     0
340
11
144
0.18
309
CONTENTFORMAT_END
171
     1
301
MARGIN
  1
CELLMARGIN_BEGIN
 40
0.06
 40
0.06
 40
0.06
 40
0.06
 40
0.06
 40
0.06
309
CELLMARGIN_END
 94
        6
 95
        1
302
GRIDFORMAT
  1
GRIDFORMAT_BEGIN
 90
        0
 91
        1
 62
     0
 92
       -2
340
14
 93
        0
 40
0.045
309
GRIDFORMAT_END
 95
        2
302
GRIDFORMAT
  1
GRIDFORMAT_BEGIN
 90
        0
 91
        1
 62
     0
 92
       -2
340
14
 93
        0
 40
0.045
309
GRIDFORMAT_END
 95
        4
302
GRIDFORMAT
  1
GRIDFORMAT_BEGIN
 90
        0
 91
        1
 62
     0
 92
       -2
340
14
 93
        0
 40
0.045
309
GRIDFORMAT_END
 95
        8
302
GRIDFORMAT
  1
GRIDFORMAT_BEGIN
 90
        0
 91
        1
 62
     0
 92
       -2
340
14
 93
        0
 40
0.045
309
GRIDFORMAT_END
 95
       16
302
GRIDFORMAT
  1
GRIDFORMAT_BEGIN
 90
        0
 91
        1
 62
     0
 92
       -2
340
14
 93
        0
 40
0.045
309
GRIDFORMAT_END
 95
       32
302
GRIDFORMAT
  1
GRIDFORMAT_BEGIN
 90
        0
 91
        1
 62
     0
 92
       -2
340
14
 93
        0
 40
0.045
309
GRIDFORMAT_END
309
TABLEFORMAT_END
  1
CELLSTYLE_BEGIN
 90
        2
 91
        1
300
_HEADER
309
CELLSTYLE_END
300
CELLSTYLE
  1
TABLEFORMAT_BEGIN
 90
        5
170
     1
 91
        0
 92
        0
 62
   257
 93
        1
300
CONTENTFORMAT
  1
CONTENTFORMAT_BEGIN
 90
        0
 91
        0
 92
        4
 93
        0
300

 40
0.0
140
1.0
 94
        2
 62
     0
340
11
144
0.18
309
CONTENTFORMAT_END
171
     1
301
MARGIN
  1
CELLMARGIN_BEGIN
 40
0.06
 40
0.06
 40
0.06
 40
0.06
 40
0.06
 40
0.06
309
CELLMARGIN_END
 94
        6
 95
        1
302
GRIDFORMAT
  1
GRIDFORMAT_BEGIN
 90
        0
 91
        1
 62
     0
 92
       -2
340
14
 93
        0
 40
0.045
309
GRIDFORMAT_END
 95
        2
302
GRIDFORMAT
  1
GRIDFORMAT_BEGIN
 90
        0
 91
        1
 62
     0
 92
       -2
340
14
 93
        0
 40
0.045
309
GRIDFORMAT_END
 95
        4
302
GRIDFORMAT
  1
GRIDFORMAT_BEGIN
 90
        0
 91
        1
 62
     0
 92
       -2
340
14
 93
        0
 40
0.045
309
GRIDFORMAT_END
 95
        8
302
GRIDFORMAT
  1
GRIDFORMAT_BEGIN
 90
        0
 91
        1
 62
     0
 92
       -2
340
14
 93
        0
 40
0.045
309
GRIDFORMAT_END
 95
       16
302
GRIDFORMAT
  1
GRIDFORMAT_BEGIN
 90
        0
 91
        1
 62
     0
 92
       -2
340
14
 93
        0
 40
0.045
309
GRIDFORMAT_END
 95
       32
302
GRIDFORMAT
  1
GRIDFORMAT_BEGIN
 90
        0
 91
        1
 62
     0
 92
       -2
340
14
 93
        0
 40
0.045
309
GRIDFORMAT_END
309
TABLEFORMAT_END
  1
CELLSTYLE_BEGIN
 90
        3
 91
        2
300
_DATA
309
CELLSTYLE_END
  0
ENDSEC
  0
EOF
